999
DXF file: C:\Users\sesa63760\Dev\_Creo\CAD\MCADID0004768_3D-CAD\drw0001_4.dxf
999
Pro/ENGINEER 2019471 by Parametric Technology Corporation
  0
SECTION
  2
HEADER
  9
$ACADVER
  1
AC1024
  9
$DWGCODEPAGE
  3
ANSI_1252
  9
$EXTMAX
 10
55.009046793
 20
77.7985090358
 30
0.0
  9
$EXTMIN
 10
0.0
 20
0.0
 30
0.0
  9
$LIMMIN
 10
0.0
 20
0.0
  9
$LIMMAX
 10
55.009046793
 20
77.7985090358
  9
$VIEWCTR
 10
27.5045233965
 20
38.8992545179
  9
$VIEWSIZE
 40
77.7985090358
  9
$CLAYER
  8
0
  9
$LTSCALE
 40
5.0713102186
  9
$CELTYPE
  6
BYLAYER
  9
$DIMSCALE
 40
1.0
  9
$DIMASZ
 40
0.6548696047
  9
$DIMEXO
 40
1.0
  9
$DIMDLI
 40
3.5038143329
  9
$DIMEXE
 40
1.0
  9
$DIMCEN
 40
0.829850763
  9
$DIMLFAC
 40
1.0
  9
$DIMBLK
  1
_FILLED
  9
$DIMALT
 70
0
  9
$DIMALTF
 40
0.0393700787
  9
$DIMTXT
 40
0.9168174466
  9
$DIMTOL
 70
1
  9
$DIMLIM
 70
0
  9
$DIMTFAC
 40
1.0
  9
$DIMTP
 40
0.01
  9
$DIMTM
 40
0.01
  9
$DIMGAP
 40
0.625
  9
$DIMDSEP
 70
46
  9
$AUNITS
 70
0
  9
$PDMODE
 70
3
  9
$PDSIZE
 40
0.3125
  9
$HANDSEED
  5
2FA
  9
$TILEMODE
 70
1
  9
$MEASUREMENT
 70
1
  9
$INSUNITS
 70
4
  0
ENDSEC
  0
SECTION
  2
CLASSES
  0
CLASS
  1
ACDBDICTIONARYWDFLT
  2
AcDbDictionaryWithDefault
  3
AutoCAD 2000
 90
0
 91
1
280
0
281
0
  0
CLASS
  1
ACDBPLACEHOLDER
  2
AcDbPlaceHolder
  3
AutoCAD 2000
 90
0
 91
1
280
0
281
0
  0
CLASS
  1
LAYOUT
  2
AcDbLayout
  3
AutoCAD 2000
 90
0
 91
0
280
0
281
0
  0
ENDSEC
  0
SECTION
  2
TABLES
  0
TABLE
  2
VPORT
  5
8
100
AcDbSymbolTable
 70
2
  0
VPORT
  5
1F4
100
AcDbSymbolTableRecord
100
AcDbViewportTableRecord
  2
*ACTIVE
 70
0
 10
0.0
 20
0.0
 11
1.0
 21
1.0
 12
27.5045233965
 22
38.8992545179
 13
0.0
 23
0.0
 14
1.0
 24
1.0
 15
0.0
 25
0.0
 16
0.0
 26
0.0
 36
1.0
 17
0.0
 27
0.0
 37
0.0
 40
77.7985090358
 41
0.7070707071
 42
50.0
 43
0.0
 44
0.0
 50
0.0
 51
0.0
 71
0
 72
100
 73
1
 74
1
 75
0
 76
0
 77
0
 78
0
  0
ENDTAB
  0
TABLE
  2
LTYPE
  5
5
100
AcDbSymbolTable
 70
6
  0
LTYPE
  5
14
100
AcDbSymbolTableRecord
100
AcDbLinetypeTableRecord
  2
BYBLOCK
 70
0
  3

 72
65
 73
0
 40
0.0
  0
LTYPE
  5
15
100
AcDbSymbolTableRecord
100
AcDbLinetypeTableRecord
  2
BYLAYER
 70
0
  3

 72
65
 73
0
 40
0.0
  0
LTYPE
  5
16
100
AcDbSymbolTableRecord
100
AcDbLinetypeTableRecord
  2
CONTINUOUS
 70
64
  3
Solid line
 72
65
 73
0
 40
0.0
  0
LTYPE
  5
1F5
100
AcDbSymbolTableRecord
100
AcDbLinetypeTableRecord
  2
CENTER
 70
64
  3
____ _ ____ _ ____ _ ____ _ ____ _ ____ _ ____
 72
65
 73
4
 40
0.6
 49
0.375
 74
0
 49
-0.075
 74
0
 49
0.075
 74
0
 49
-0.075
 74
0
  0
LTYPE
  5
1F6
100
AcDbSymbolTableRecord
100
AcDbLinetypeTableRecord
  2
HIDDEN
 70
64
  3
- - - - - - - - - - - - - - - - - - - -
 72
65
 73
2
 40
0.2
 49
0.1
 74
0
 49
-0.1
 74
0
  0
LTYPE
  5
1F7
100
AcDbSymbolTableRecord
100
AcDbLinetypeTableRecord
  2
PHANTOM
 70
64
  3
_____ _ _ _____ _ _ _____ _ _ _____
 72
65
 73
6
 40
0.8
 49
0.45
 74
0
 49
-0.05
 74
0
 49
0.1
 74
0
 49
-0.05
 74
0
 49
0.1
 74
0
 49
-0.05
 74
0
  0
LTYPE
  5
1F8
100
AcDbSymbolTableRecord
100
AcDbLinetypeTableRecord
  2
DOT
 70
64
  3
. . . . . . . . . . . . . . . . . . . .
 72
65
 73
2
 40
0.2
 49
0.1
 74
0
 49
-0.1
 74
0
  0
LTYPE
  5
1F9
100
AcDbSymbolTableRecord
100
AcDbLinetypeTableRecord
  2
DASHED
 70
64
  3
- - - - - - - - - - - - - - - - - - - -
 72
65
 73
2
 40
0.2
 49
0.1
 74
0
 49
-0.1
 74
0
  0
ENDTAB
  0
TABLE
  2
LAYER
  5
2
100
AcDbSymbolTable
 70
36
  0
LAYER
  5
10
100
AcDbSymbolTableRecord
100
AcDbLayerTableRecord
  2
0
 70
0
 62
7
  6
CONTINUOUS
370
-3
390
F
  0
LAYER
  5
1FA
100
AcDbSymbolTableRecord
100
AcDbLayerTableRecord
  2
DEFAULT_1
 70
0
 62
7
  6
CENTER
370
-3
390
F
  0
LAYER
  5
1FB
100
AcDbSymbolTableRecord
100
AcDbLayerTableRecord
  2
DEFAULT_2
 70
0
 62
7
  6
HIDDEN
370
-3
390
F
  0
LAYER
  5
1FC
100
AcDbSymbolTableRecord
100
AcDbLayerTableRecord
  2
DEFAULT_3
 70
0
 62
7
  6
PHANTOM
370
-3
390
F
  0
LAYER
  5
1FD
100
AcDbSymbolTableRecord
100
AcDbLayerTableRecord
  2
00_COMPONENTS
 70
0
 62
7
  6
CONTINUOUS
370
-3
390
F
  0
LAYER
  5
1FE
100
AcDbSymbolTableRecord
100
AcDbLayerTableRecord
  2
01_1_DEFAULT_DATUMS
 70
0
 62
7
  6
CONTINUOUS
370
-3
390
F
  0
LAYER
  5
1FF
100
AcDbSymbolTableRecord
100
AcDbLayerTableRecord
  2
01_PLANES
 70
0
 62
7
  6
CONTINUOUS
370
-3
390
F
  0
LAYER
  5
200
100
AcDbSymbolTableRecord
100
AcDbLayerTableRecord
  2
02_COORD_SYS
 70
0
 62
7
  6
CONTINUOUS
370
-3
390
F
  0
LAYER
  5
201
100
AcDbSymbolTableRecord
100
AcDbLayerTableRecord
  2
03_AXES
 70
0
 62
7
  6
CONTINUOUS
370
-3
390
F
  0
LAYER
  5
202
100
AcDbSymbolTableRecord
100
AcDbLayerTableRecord
  2
04_POINTS
 70
0
 62
7
  6
CONTINUOUS
370
-3
390
F
  0
LAYER
  5
203
100
AcDbSymbolTableRecord
100
AcDbLayerTableRecord
  2
05_CURVES
 70
0
 62
7
  6
CONTINUOUS
370
-3
390
F
  0
LAYER
  5
204
100
AcDbSymbolTableRecord
100
AcDbLayerTableRecord
  2
06_SURFS
 70
0
 62
7
  6
CONTINUOUS
370
-3
390
F
  0
LAYER
  5
205
100
AcDbSymbolTableRecord
100
AcDbLayerTableRecord
  2
07_COSMETICS
 70
0
 62
7
  6
CONTINUOUS
370
-3
390
F
  0
LAYER
  5
206
100
AcDbSymbolTableRecord
100
AcDbLayerTableRecord
  2
10_NOTES
 70
0
 62
7
  6
CONTINUOUS
370
-3
390
F
  0
LAYER
  5
207
100
AcDbSymbolTableRecord
100
AcDbLayerTableRecord
  2
11_NOTES_PUB
 70
0
 62
7
  6
CONTINUOUS
370
-3
390
F
  0
LAYER
  5
208
100
AcDbSymbolTableRecord
100
AcDbLayerTableRecord
  2
13_REF_GTOL
 70
0
 62
7
  6
CONTINUOUS
370
-3
390
F
  0
LAYER
  5
209
100
AcDbSymbolTableRecord
100
AcDbLayerTableRecord
  2
16_MISC
 70
0
 62
7
  6
CONTINUOUS
370
-3
390
F
  0
LAYER
  5
20A
100
AcDbSymbolTableRecord
100
AcDbLayerTableRecord
  2
17_NO_PRINT
 70
0
 62
7
  6
CONTINUOUS
370
-3
390
F
  0
LAYER
  5
20B
100
AcDbSymbolTableRecord
100
AcDbLayerTableRecord
  2
18_DATUM_CAMS_JOINTS
 70
0
 62
7
  6
CONTINUOUS
370
-3
390
F
  0
LAYER
  5
20C
100
AcDbSymbolTableRecord
100
AcDbLayerTableRecord
  2
19_DATUM_FUNCTIONAL
 70
0
 62
7
  6
CONTINUOUS
370
-3
390
F
  0
LAYER
  5
20D
100
AcDbSymbolTableRecord
100
AcDbLayerTableRecord
  2
20_DATUM_KINEMATIC_SCHEME
 70
0
 62
7
  6
CONTINUOUS
370
-3
390
F
  0
ENDTAB
  0
TABLE
  2
STYLE
  5
3
100
AcDbSymbolTable
 70
1
  0
STYLE
  5
11
100
AcDbSymbolTableRecord
100
AcDbTextStyleTableRecord
  2
STANDARD
 70
0
 40
0.0
 41
1.0
 50
0.0
 71
0
 42
0.2
  3
ARIAL.TTF
  4

  0
STYLE
  5
20E
100
AcDbSymbolTableRecord
100
AcDbTextStyleTableRecord
  2
TEXTSTYLE_1
 70
0
 40
0.0
 41
0.8
 50
0.0
 71
0
 42
0.2
  3
gdt
  4

  0
ENDTAB
  0
TABLE
  2
VIEW
  5
6
100
AcDbSymbolTable
 70
0
  0
ENDTAB
  0
TABLE
  2
UCS
  5
7
100
AcDbSymbolTable
 70
0
  0
ENDTAB
  0
TABLE
  2
APPID
  5
9
100
AcDbSymbolTable
 70
1
  0
APPID
  5
20F
100
AcDbSymbolTableRecord
100
AcDbRegAppTableRecord
  2
ACAD
 70
0
  0
ENDTAB
  0
TABLE
  2
BLOCK_RECORD
  5
1
100
AcDbSymbolTable
 70
0
  0
BLOCK_RECORD
  5
210
100
AcDbSymbolTableRecord
100
AcDbBlockTableRecord
  2
*Model_Space
  0
BLOCK_RECORD
  5
211
100
AcDbSymbolTableRecord
100
AcDbBlockTableRecord
  2
*Paper_Space
  0
BLOCK_RECORD
  5
212
100
AcDbSymbolTableRecord
100
AcDbBlockTableRecord
  2
_FILLED
  0
ENDTAB
  0
TABLE
  2
DIMSTYLE
  5
A
100
AcDbSymbolTable
 70
1
100
AcDbDimStyleTable
 71
0
  0
DIMSTYLE
105
213
100
AcDbSymbolTableRecord
100
AcDbDimStyleTableRecord
  2
STANDARD
 70
0
  3

  4

 40
1.0
 41
0.6548696047
 42
1.0
 43
0.38
 44
1.0
 45
0.0
 46
0.0
 47
0.01
 48
0.01
140
0.9168174466
141
0.09
142
0.0
143
25.4
144
1.0
145
0.0
146
1.0
147
0.625
 71
1
 72
0
 73
0
 74
0
 75
0
 76
0
 77
1
 78
8
 79
2
170
0
171
1
172
0
173
0
174
0
175
0
176
0
177
0
178
0
270
2
179
2
271
2
272
2
273
2
274
2
275
0
280
0
281
0
282
0
283
1
284
8
285
0
286
0
287
3
288
0
340
11
278
46
341
212
342
212
343
212
344
212
  0
ENDTAB
  0
ENDSEC
  0
SECTION
  2
BLOCKS
  0
BLOCK
  5
20
100
AcDbEntity
  8
0
100
AcDbBlockBegin
  2
*Model_Space
 70
0
 10
0.0
 20
0.0
 30
0.0
  3
*Model_Space
  1

  0
ENDBLK
  5
21
100
AcDbEntity
  8
0
100
AcDbBlockEnd
  0
BLOCK
  5
1C
100
AcDbEntity
  8
0
100
AcDbBlockBegin
  2
*Paper_Space
 70
0
 10
0.0
 20
0.0
 30
0.0
  3
*Paper_Space
  1

  0
ENDBLK
  5
1D
100
AcDbEntity
  8
0
100
AcDbBlockEnd
  0
BLOCK
  5
214
100
AcDbEntity
  8
0
100
AcDbBlockBegin
  2
_FILLED
 70
64
 10
0.0
 20
0.0
  3
_FILLED
  1

  0
SOLID
  5
215
100
AcDbEntity
  8
0
  6
BYBLOCK
 62
0
100
AcDbTrace
 10
0.0
 20
0.0
 11
-1.0
 21
0.25
 12
-1.0
 22
-0.25
 13
-1.0
 23
-0.25
  0
ENDBLK
  5
216
100
AcDbEntity
  8
0
  6
BYBLOCK
 62
0
100
AcDbBlockEnd
  0
ENDSEC
  0
SECTION
  2
ENTITIES
  0
LINE
  5
217
100
AcDbEntity
  8
0
100
AcDbLine
 62
7
  6
BYLAYER
 10
34.5956329046
 20
5.5706398759
 11
21.8417830878
 21
5.5706398759
  0
LINE
  5
218
100
AcDbEntity
  8
0
100
AcDbLine
 62
7
  6
BYLAYER
 10
34.9463557308
 20
5.9838157871
 11
34.6238650948
 21
5.9838157871
  0
LINE
  5
219
100
AcDbEntity
  8
0
100
AcDbLine
 62
7
  6
BYLAYER
 10
33.9167592449
 20
5.9838157871
 11
33.5321421685
 21
5.9838157871
  0
LINE
  5
21A
100
AcDbEntity
  8
0
100
AcDbLine
 62
7
  6
BYLAYER
 10
31.6754327215
 20
5.9838157871
 11
24.7619832704
 21
5.9838157871
  0
LINE
  5
21B
100
AcDbEntity
  8
0
100
AcDbLine
 62
7
  6
BYLAYER
 10
22.9052738235
 20
5.9838157871
 11
21.4910602611
 21
5.9838157871
  0
LINE
  5
21C
100
AcDbEntity
  8
0
100
AcDbLine
 62
7
  6
BYLAYER
 10
33.9213580923
 20
6.0206421399
 11
34.1376017826
 21
6.020642567
  0
LINE
  5
21D
100
AcDbEntity
  8
0
100
AcDbLine
 62
7
  6
BYLAYER
 10
34.0316032301
 20
6.1706398759
 11
33.9400913636
 21
6.1706398759
  0
LINE
  5
21E
100
AcDbEntity
  8
0
100
AcDbLine
 62
7
  6
BYLAYER
 10
33.9555718701
 20
6.2945926492
 11
34.1360578661
 21
6.2945926492
  0
LINE
  5
21F
100
AcDbEntity
  8
0
100
AcDbLine
 62
7
  6
BYLAYER
 10
24.4431432932
 20
8.5074639647
 11
31.9942726987
 21
8.5074639647
  0
LINE
  5
220
100
AcDbEntity
  8
0
100
AcDbLine
 62
7
  6
BYLAYER
 10
37.3638914869
 20
8.9206398759
 11
34.990623428
 21
8.9206398759
  0
LINE
  5
221
100
AcDbEntity
  8
0
100
AcDbLine
 62
7
  6
BYLAYER
 10
34.3221857623
 20
8.9206398759
 11
19.0735258148
 21
8.9206398759
  0
LINE
  5
222
100
AcDbEntity
  8
0
100
AcDbLine
 62
7
  6
BYLAYER
 10
37.7970201595
 20
9.1706398759
 11
35.335916525
 21
9.1706398759
  0
LINE
  5
223
100
AcDbEntity
  8
0
100
AcDbLine
 62
7
  6
BYLAYER
 10
34.6288099138
 20
9.1706398759
 11
18.6403958325
 21
9.1706398759
  0
LINE
  5
224
100
AcDbEntity
  8
0
100
AcDbLine
 62
7
  6
BYLAYER
 10
18.0733585767
 20
10.1527772127
 11
35.0302824772
 21
10.1527772127
  0
LINE
  5
225
100
AcDbEntity
  8
0
100
AcDbLine
 62
7
  6
BYLAYER
 10
35.7373892584
 20
10.1527772127
 11
38.3640574153
 21
10.1527772127
  0
LINE
  5
226
100
AcDbEntity
  8
0
100
AcDbLine
 62
7
  6
BYLAYER
 10
39.5186167572
 20
10.3206398759
 11
38.4106098518
 21
10.3206398759
  0
LINE
  5
227
100
AcDbEntity
  8
0
100
AcDbLine
 62
7
  6
BYLAYER
 10
18.0268061402
 20
10.3206398759
 11
16.9187992348
 21
10.3206398759
  0
LINE
  5
228
100
AcDbEntity
  8
0
100
AcDbLine
 62
7
  6
BYLAYER
 10
35.2124307097
 20
10.3925104995
 11
35.0776940765
 21
10.3925104995
  0
LINE
  5
229
100
AcDbEntity
  8
0
100
AcDbLine
 62
7
  6
BYLAYER
 10
38.4309685609
 20
10.3940510094
 11
35.7841204811
 21
10.3940510094
  0
LINE
  5
22A
100
AcDbEntity
  8
0
100
AcDbLine
 62
7
  6
BYLAYER
 10
35.0783581166
 20
10.3940510094
 11
18.006447431
 21
10.3940510094
  0
LINE
  5
22B
100
AcDbEntity
  8
0
100
AcDbLine
 62
7
  6
BYLAYER
 10
39.718707996
 20
10.5206398759
 11
38.4331781778
 21
10.5206398759
  0
LINE
  5
22C
100
AcDbEntity
  8
0
100
AcDbLine
 62
7
  6
BYLAYER
 10
18.0042378141
 20
10.5206398759
 11
16.718707996
 21
10.5206398759
  0
LINE
  5
22D
100
AcDbEntity
  8
0
100
AcDbLine
 62
7
  6
BYLAYER
 10
35.0833836025
 20
10.8550327842
 11
35.2687150813
 21
10.8550327842
  0
LINE
  5
22E
100
AcDbEntity
  8
0
100
AcDbLine
 62
7
  6
BYLAYER
 10
39.5187055543
 20
10.9206398759
 11
36.9187104377
 21
10.9206398759
  0
LINE
  5
22F
100
AcDbEntity
  8
0
100
AcDbLine
 62
7
  6
BYLAYER
 10
19.5187055543
 20
10.9206398759
 11
16.9187104377
 21
10.9206398759
  0
LINE
  5
230
100
AcDbEntity
  8
0
100
AcDbLine
 62
7
  6
BYLAYER
 10
39.718707996
 20
11.1206398759
 11
36.718707996
 21
11.1206398759
  0
LINE
  5
231
100
AcDbEntity
  8
0
100
AcDbLine
 62
7
  6
BYLAYER
 10
19.718707996
 20
11.1206398759
 11
16.718707996
 21
11.1206398759
  0
LINE
  5
232
100
AcDbEntity
  8
0
100
AcDbLine
 62
7
  6
BYLAYER
 10
16.918707996
 20
10.3206398759
 11
16.718707996
 21
10.5206398759
  0
LINE
  5
233
100
AcDbEntity
  8
0
100
AcDbLine
 62
7
  6
BYLAYER
 10
16.918707996
 20
10.9206398759
 11
16.718707996
 21
11.1206398759
  0
LINE
  5
234
100
AcDbEntity
  8
0
100
AcDbLine
 62
7
  6
BYLAYER
 10
36.718707996
 20
15.4206398759
 11
35.8471749026
 21
15.4206398759
  0
LINE
  5
235
100
AcDbEntity
  8
0
100
AcDbLine
 62
7
  6
BYLAYER
 10
35.1391506637
 20
15.4206398759
 11
19.718707996
 21
15.4206398759
  0
LINE
  5
236
100
AcDbEntity
  8
0
100
AcDbLine
 62
7
  6
BYLAYER
 10
35.3251311469
 20
15.4258759966
 11
35.1397332054
 21
15.4258759966
  0
LINE
  5
237
100
AcDbEntity
  8
0
100
AcDbLine
 62
7
  6
BYLAYER
 10
40.218707996
 20
15.8206398759
 11
39.718707996
 21
15.8206398759
  0
LINE
  5
238
100
AcDbEntity
  8
0
100
AcDbLine
 62
7
  6
BYLAYER
 10
38.9993889703
 20
15.8206398759
 11
33.7511294525
 21
15.8206398759
  0
LINE
  5
239
100
AcDbEntity
  8
0
100
AcDbLine
 62
7
  6
BYLAYER
 10
22.6862865394
 20
15.8206398759
 11
17.4380270217
 21
15.8206398759
  0
LINE
  5
23A
100
AcDbEntity
  8
0
100
AcDbLine
 62
7
  6
BYLAYER
 10
16.718707996
 20
15.8206398759
 11
16.218707996
 21
15.8206398759
  0
LINE
  5
23B
100
AcDbEntity
  8
0
100
AcDbLine
 62
7
  6
BYLAYER
 10
16.718707996
 20
15.9206398759
 11
17.4380270217
 21
15.9206398759
  0
LINE
  5
23C
100
AcDbEntity
  8
0
100
AcDbLine
 62
7
  6
BYLAYER
 10
38.9993889703
 20
15.9206398759
 11
39.718707996
 21
15.9206398759
  0
LINE
  5
23D
100
AcDbEntity
  8
0
100
AcDbLine
 62
7
  6
BYLAYER
 10
39.518707996
 20
16.1206398759
 11
38.9993889703
 21
16.1206398759
  0
LINE
  5
23E
100
AcDbEntity
  8
0
100
AcDbLine
 62
7
  6
BYLAYER
 10
17.4380270217
 20
16.1206398759
 11
16.918707996
 21
16.1206398759
  0
LINE
  5
23F
100
AcDbEntity
  8
0
100
AcDbLine
 62
7
  6
BYLAYER
 10
14.7187090466
 20
16.4206398759
 11
41.7187069399
 21
16.4206398759
  0
LINE
  5
240
100
AcDbEntity
  8
0
100
AcDbLine
 62
7
  6
BYLAYER
 10
18.6403958325
 20
9.1706398759
 11
18.0733585767
 21
10.1527772127
  0
LINE
  5
241
100
AcDbEntity
  8
0
100
AcDbLine
 62
7
  6
BYLAYER
 10
18.0733585767
 20
10.1527772127
 11
18.006447431
 21
10.3940510094
  0
LINE
  5
242
100
AcDbEntity
  8
0
100
AcDbLine
 62
7
  6
BYLAYER
 10
14.7187090466
 20
22.9206398759
 11
41.71870694
 21
22.9206398759
  0
LINE
  5
243
100
AcDbEntity
  8
0
100
AcDbLine
 62
7
  6
BYLAYER
 10
14.718707996
 20
22.9206398759
 11
14.718707996
 21
16.4206398759
  0
LINE
  5
244
100
AcDbEntity
  8
0
100
AcDbLine
 62
7
  6
BYLAYER
 10
14.768707996
 20
44.8206398759
 11
14.768707996
 21
22.9206398759
  0
LINE
  5
245
100
AcDbEntity
  8
0
100
AcDbLine
 62
7
  6
BYLAYER
 10
15.4186092064
 20
16.4206398759
 11
15.4186077395
 21
22.9206398759
  0
LINE
  5
246
100
AcDbEntity
  8
0
100
AcDbLine
 62
7
  6
BYLAYER
 10
16.218707996
 20
15.8206398759
 11
16.218707996
 21
16.4206398759
  0
LINE
  5
247
100
AcDbEntity
  8
0
100
AcDbLine
 62
7
  6
BYLAYER
 10
16.3773668499
 20
15.8206398759
 11
16.3773668499
 21
16.4206398759
  0
LINE
  5
248
100
AcDbEntity
  8
0
100
AcDbLine
 62
7
  6
BYLAYER
 10
15.3697262658
 20
26.6467865987
 11
15.218707996
 21
24.9206398759
  0
LINE
  5
249
100
AcDbEntity
  8
0
100
AcDbLine
 62
7
  6
BYLAYER
 10
14.768707996
 20
24.9206398759
 11
41.668707996
 21
24.9206398759
  0
LINE
  5
24A
100
AcDbEntity
  8
0
100
AcDbLine
 62
7
  6
BYLAYER
 10
15.892568889
 20
26.1206398759
 11
16.4952867994
 21
26.1206398759
  0
LINE
  5
24B
100
AcDbEntity
  8
0
100
AcDbLine
 62
7
  6
BYLAYER
 10
35.892568889
 20
26.1206398759
 11
36.4952867994
 21
26.1206398759
  0
LINE
  5
24C
100
AcDbEntity
  8
0
100
AcDbLine
 62
7
  6
BYLAYER
 10
15.3697262658
 20
26.6467865987
 11
15.9172388538
 21
26.6467865987
  0
LINE
  5
24D
100
AcDbEntity
  8
0
100
AcDbLine
 62
7
  6
BYLAYER
 10
16.539441285
 20
26.6467865987
 11
21.0676897262
 21
26.6467865987
  0
LINE
  5
24E
100
AcDbEntity
  8
0
100
AcDbLine
 62
7
  6
BYLAYER
 10
35.3697262658
 20
26.6467865987
 11
35.9172388538
 21
26.6467865987
  0
LINE
  5
24F
100
AcDbEntity
  8
0
100
AcDbLine
 62
7
  6
BYLAYER
 10
36.539441285
 20
26.6467865987
 11
41.0676897262
 21
26.6467865987
  0
LINE
  5
250
100
AcDbEntity
  8
0
100
AcDbLine
 62
7
  6
BYLAYER
 10
15.6686170071
 20
26.9206398759
 11
20.7687989848
 21
26.9206398759
  0
LINE
  5
251
100
AcDbEntity
  8
0
100
AcDbLine
 62
7
  6
BYLAYER
 10
35.6686170071
 20
26.9206398759
 11
40.7687989848
 21
26.9206398759
  0
LINE
  5
252
100
AcDbEntity
  8
0
100
AcDbLine
 62
7
  6
BYLAYER
 10
36.918707996
 20
10.9206398759
 11
36.718707996
 21
11.1206398759
  0
LINE
  5
253
100
AcDbEntity
  8
0
100
AcDbLine
 62
7
  6
BYLAYER
 10
18.006447431
 20
10.3940510094
 11
17.9972557882
 21
10.9206398759
  0
LINE
  5
254
100
AcDbEntity
  8
0
100
AcDbLine
 62
7
  6
BYLAYER
 10
16.718707996
 20
15.9206398759
 11
16.718707996
 21
10.5206398759
  0
LINE
  5
255
100
AcDbEntity
  8
0
100
AcDbLine
 62
7
  6
BYLAYER
 10
16.918707996
 20
16.4206398759
 11
16.918707996
 21
16.1206398759
  0
LINE
  5
256
100
AcDbEntity
  8
0
100
AcDbLine
 62
7
  6
BYLAYER
 10
17.4380270217
 20
16.4206398759
 11
17.4380270217
 21
15.8206398759
  0
LINE
  5
257
100
AcDbEntity
  8
0
100
AcDbLine
 62
7
  6
BYLAYER
 10
18.7363460862
 20
15.8206398759
 11
18.7363460862
 21
16.4206398759
  0
LINE
  5
258
100
AcDbEntity
  8
0
100
AcDbLine
 62
7
  6
BYLAYER
 10
16.572106361
 20
15.8206398759
 11
16.5803107746
 21
16.4206398759
  0
LINE
  5
259
100
AcDbEntity
  8
0
100
AcDbLine
 62
7
  6
BYLAYER
 10
21.0676897262
 20
26.6467865987
 11
21.218707996
 21
24.9206398759
  0
LINE
  5
25A
100
AcDbEntity
  8
0
100
AcDbLine
 62
7
  6
BYLAYER
 10
19.718707996
 20
15.8206398759
 11
19.718707996
 21
11.1206398759
  0
LINE
  5
25B
100
AcDbEntity
  8
0
100
AcDbLine
 62
7
  6
BYLAYER
 10
19.8526825922
 20
44.8206398759
 11
19.8526825922
 21
26.9206398759
  0
LINE
  5
25C
100
AcDbEntity
  8
0
100
AcDbLine
 62
7
  6
BYLAYER
 10
20.718707996
 20
44.8206398759
 11
20.718707996
 21
40.0948625983
  0
LINE
  5
25D
100
AcDbEntity
  8
0
100
AcDbLine
 62
7
  6
BYLAYER
 10
20.718707996
 20
38.88279522
 11
20.718707996
 21
36.6786595768
  0
LINE
  5
25E
100
AcDbEntity
  8
0
100
AcDbLine
 62
7
  6
BYLAYER
 10
20.718707996
 20
34.5835152123
 11
20.718707996
 21
26.9206398759
  0
LINE
  5
25F
100
AcDbEntity
  8
0
100
AcDbLine
 62
7
  6
BYLAYER
 10
39.518707996
 20
16.1206398759
 11
39.718707996
 21
15.9206398759
  0
LINE
  5
260
100
AcDbEntity
  8
0
100
AcDbLine
 62
7
  6
BYLAYER
 10
22.6862865394
 20
16.4206398759
 11
22.6862865394
 21
15.8206398759
  0
LINE
  5
261
100
AcDbEntity
  8
0
100
AcDbLine
 62
7
  6
BYLAYER
 10
23.8373193691
 20
47.5579946954
 11
24.7588370672
 21
62.5798816134
  0
LINE
  5
262
100
AcDbEntity
  8
0
100
AcDbLine
 62
7
  6
BYLAYER
 10
23.4950671779
 20
38.7124794576
 11
23.3603613963
 21
36.5166073411
  0
LINE
  5
263
100
AcDbEntity
  8
0
100
AcDbLine
 62
7
  6
BYLAYER
 10
26.8268684142
 20
32.5969990578
 11
29.0227405308
 21
32.4622932762
  0
LINE
  5
264
100
AcDbEntity
  8
0
100
AcDbLine
 62
7
  6
BYLAYER
 10
24.7546063808
 20
35.3206398759
 11
28.218707996
 21
33.3206398759
  0
LINE
  5
265
100
AcDbEntity
  8
0
100
AcDbLine
 62
7
  6
BYLAYER
 10
24.7546063808
 20
39.3206398759
 11
24.7546063808
 21
35.3206398759
  0
LINE
  5
266
100
AcDbEntity
  8
0
100
AcDbLine
 62
7
  6
BYLAYER
 10
28.218707996
 20
41.3206398759
 11
24.7546063808
 21
39.3206398759
  0
LINE
  5
267
100
AcDbEntity
  8
0
100
AcDbLine
 62
7
  6
BYLAYER
 10
36.0605013274
 20
35.7375172188
 11
32.9423488141
 21
35.9288002941
  0
LINE
  5
268
100
AcDbEntity
  8
0
100
AcDbLine
 62
7
  6
BYLAYER
 10
20.242208883
 20
36.7078904163
 11
23.3603613963
 21
36.5166073411
  0
LINE
  5
269
100
AcDbEntity
  8
0
100
AcDbLine
 62
7
  6
BYLAYER
 10
26.6355853389
 20
29.4788465445
 11
26.8268684142
 21
32.5969990578
  0
LINE
  5
26A
100
AcDbEntity
  8
0
100
AcDbLine
 62
7
  6
BYLAYER
 10
27.4146754612
 20
42.1789864756
 11
27.6412260938
 21
45.8720441262
  0
LINE
  5
26B
100
AcDbEntity
  8
0
100
AcDbLine
 62
7
  6
BYLAYER
 10
36.195207109
 20
37.9333893354
 11
33.0770545957
 21
38.1246724107
  0
LINE
  5
26C
100
AcDbEntity
  8
0
100
AcDbLine
 62
7
  6
BYLAYER
 10
20.3769146646
 20
38.9037625329
 11
23.4950671779
 21
38.7124794576
  0
LINE
  5
26D
100
AcDbEntity
  8
0
100
AcDbLine
 62
7
  6
BYLAYER
 10
29.8370982104
 20
45.7373383446
 11
29.6105475777
 21
42.044280694
  0
LINE
  5
26E
100
AcDbEntity
  8
0
100
AcDbLine
 62
7
  6
BYLAYER
 10
28.8314574555
 20
29.3441407629
 11
29.0227405308
 21
32.4622932762
  0
LINE
  5
26F
100
AcDbEntity
  8
0
100
AcDbLine
 62
7
  6
BYLAYER
 10
31.6828096111
 20
39.3206398759
 11
28.218707996
 21
41.3206398759
  0
LINE
  5
270
100
AcDbEntity
  8
0
100
AcDbLine
 62
7
  6
BYLAYER
 10
31.6828096111
 20
35.3206398759
 11
31.6828096111
 21
39.3206398759
  0
LINE
  5
271
100
AcDbEntity
  8
0
100
AcDbLine
 62
7
  6
BYLAYER
 10
32.9423488141
 20
35.9288002941
 11
33.0770545957
 21
38.1246724107
  0
LINE
  5
272
100
AcDbEntity
  8
0
100
AcDbLine
 62
7
  6
BYLAYER
 10
33.8185562627
 20
46.9456956882
 11
34.7400739608
 21
61.9675826062
  0
LINE
  5
273
100
AcDbEntity
  8
0
100
AcDbLine
 62
7
  6
BYLAYER
 10
28.218707996
 20
33.3206398759
 11
31.6828096111
 21
35.3206398759
  0
LINE
  5
274
100
AcDbEntity
  8
0
100
AcDbLine
 62
7
  6
BYLAYER
 10
29.6105475777
 20
42.044280694
 11
27.4146754612
 21
42.1789864756
  0
LINE
  5
275
100
AcDbEntity
  8
0
100
AcDbLine
 62
7
  6
BYLAYER
 10
33.7511294525
 20
15.8206398759
 11
33.7511294525
 21
16.4206398759
  0
LINE
  5
276
100
AcDbEntity
  8
0
100
AcDbLine
 62
7
  6
BYLAYER
 10
35.1397332054
 20
15.4206398759
 11
35.13974669
 21
15.8206398759
  0
LINE
  5
277
100
AcDbEntity
  8
0
100
AcDbLine
 62
7
  6
BYLAYER
 10
35.3251311469
 20
15.8206398759
 11
35.3251311469
 21
15.4258759966
  0
LINE
  5
278
100
AcDbEntity
  8
0
100
AcDbLine
 62
7
  6
BYLAYER
 10
35.5372628443
 20
15.4245759876
 11
35.5372628838
 21
15.8206398759
  0
LINE
  5
279
100
AcDbEntity
  8
0
100
AcDbLine
 62
7
  6
BYLAYER
 10
35.1397332054
 20
15.4206398759
 11
35.0776940765
 21
10.3940510094
  0
LINE
  5
27A
100
AcDbEntity
  8
0
100
AcDbLine
 62
7
  6
BYLAYER
 10
35.2687150813
 20
10.8550327842
 11
35.3251311469
 21
15.4258759966
  0
LINE
  5
27B
100
AcDbEntity
  8
0
100
AcDbLine
 62
7
  6
BYLAYER
 10
29.7808633401
 20
44.8206398759
 11
27.5767276969
 21
44.8206398759
  0
LINE
  5
27C
100
AcDbEntity
  8
0
100
AcDbLine
 62
7
  6
BYLAYER
 10
14.768707996
 20
44.8206398759
 11
23.2604772252
 21
44.8206398759
  0
LINE
  5
27D
100
AcDbEntity
  8
0
100
AcDbLine
 62
7
  6
BYLAYER
 10
33.9999531764
 20
44.8206398759
 11
41.668707996
 21
44.8206398759
  0
LINE
  5
27E
100
AcDbEntity
  8
0
100
AcDbLine
 62
7
  6
BYLAYER
 10
27.6412260938
 20
45.8720441262
 11
29.8370982104
 21
45.7373383446
  0
LINE
  5
27F
100
AcDbEntity
  8
0
100
AcDbLine
 62
7
  6
BYLAYER
 10
35.718707996
 20
44.8206398759
 11
35.718707996
 21
40.0699791133
  0
LINE
  5
280
100
AcDbEntity
  8
0
100
AcDbLine
 62
7
  6
BYLAYER
 10
35.718707996
 20
37.9626201749
 11
35.718707996
 21
35.7584845318
  0
LINE
  5
281
100
AcDbEntity
  8
0
100
AcDbLine
 62
7
  6
BYLAYER
 10
35.718707996
 20
34.7809899682
 11
35.718707996
 21
26.9206398759
  0
LINE
  5
282
100
AcDbEntity
  8
0
100
AcDbLine
 62
7
  6
BYLAYER
 10
35.8468534712
 20
15.8206398759
 11
35.8468399866
 21
15.4206398759
  0
LINE
  5
283
100
AcDbEntity
  8
0
100
AcDbLine
 62
7
  6
BYLAYER
 10
36.5847333998
 20
44.8206398759
 11
36.5847333998
 21
26.9206398759
  0
LINE
  5
284
100
AcDbEntity
  8
0
100
AcDbLine
 62
7
  6
BYLAYER
 10
36.718707996
 20
15.8206398759
 11
36.718707996
 21
11.1206398759
  0
LINE
  5
285
100
AcDbEntity
  8
0
100
AcDbLine
 62
7
  6
BYLAYER
 10
37.7010699058
 20
16.4206398759
 11
37.7010699058
 21
15.8206398759
  0
LINE
  5
286
100
AcDbEntity
  8
0
100
AcDbLine
 62
7
  6
BYLAYER
 10
35.5372628443
 20
15.4245759876
 11
35.4808308344
 21
10.8523901405
  0
LINE
  5
287
100
AcDbEntity
  8
0
100
AcDbLine
 62
7
  6
BYLAYER
 10
35.7848008577
 20
10.3940510094
 11
35.8468399866
 21
15.4206398759
  0
LINE
  5
288
100
AcDbEntity
  8
0
100
AcDbLine
 62
7
  6
BYLAYER
 10
35.3697262658
 20
26.6467865987
 11
35.218707996
 21
24.9206398759
  0
LINE
  5
289
100
AcDbEntity
  8
0
100
AcDbLine
 62
7
  6
BYLAYER
 10
16.918707996
 20
16.1206398759
 11
16.718707996
 21
15.9206398759
  0
LINE
  5
28A
100
AcDbEntity
  8
0
100
AcDbLine
 62
7
  6
BYLAYER
 10
41.0676897262
 20
26.6467865987
 11
41.218707996
 21
24.9206398759
  0
LINE
  5
28B
100
AcDbEntity
  8
0
100
AcDbLine
 62
7
  6
BYLAYER
 10
39.8571052174
 20
16.4206398759
 11
39.8653096309
 21
15.8206398759
  0
LINE
  5
28C
100
AcDbEntity
  8
0
100
AcDbLine
 62
7
  6
BYLAYER
 10
38.9993889703
 20
15.8206398759
 11
38.9993889703
 21
16.4206398759
  0
LINE
  5
28D
100
AcDbEntity
  8
0
100
AcDbLine
 62
7
  6
BYLAYER
 10
39.518707996
 20
16.4206398759
 11
39.518707996
 21
16.1206398759
  0
LINE
  5
28E
100
AcDbEntity
  8
0
100
AcDbLine
 62
7
  6
BYLAYER
 10
39.718707996
 20
15.9206398759
 11
39.718707996
 21
10.5206398759
  0
LINE
  5
28F
100
AcDbEntity
  8
0
100
AcDbLine
 62
7
  6
BYLAYER
 10
40.0600491421
 20
16.4206398759
 11
40.0600491421
 21
15.8206398759
  0
LINE
  5
290
100
AcDbEntity
  8
0
100
AcDbLine
 62
7
  6
BYLAYER
 10
40.218707996
 20
16.4206398759
 11
40.218707996
 21
15.8206398759
  0
LINE
  5
291
100
AcDbEntity
  8
0
100
AcDbLine
 62
7
  6
BYLAYER
 10
38.4309685609
 20
10.3940510094
 11
38.4401602038
 21
10.9206398759
  0
LINE
  5
292
100
AcDbEntity
  8
0
100
AcDbLine
 62
7
  6
BYLAYER
 10
34.1360578661
 20
6.2945926492
 11
34.4704868664
 21
8.9768482291
  0
LINE
  5
293
100
AcDbEntity
  8
0
100
AcDbLine
 62
7
  6
BYLAYER
 10
34.6848210186
 20
8.9813810341
 11
34.3465702589
 21
6.2684968835
  0
LINE
  5
294
100
AcDbEntity
  8
0
100
AcDbLine
 62
7
  6
BYLAYER
 10
23.9558476568
 20
49.4901534995
 11
33.9370845503
 21
48.8778544923
  0
LINE
  5
295
100
AcDbEntity
  8
0
100
AcDbLine
 62
7
  6
BYLAYER
 10
41.0188036274
 20
22.9206398759
 11
41.018803627
 21
16.4206398759
  0
LINE
  5
296
100
AcDbEntity
  8
0
100
AcDbLine
 62
7
  6
BYLAYER
 10
41.668707996
 20
22.9206398759
 11
41.668707996
 21
44.8206398759
  0
LINE
  5
297
100
AcDbEntity
  8
0
100
AcDbLine
 62
7
  6
BYLAYER
 10
41.718707996
 20
16.4206398759
 11
41.718707996
 21
22.9206398759
  0
LINE
  5
298
100
AcDbEntity
  8
0
100
AcDbLine
 62
7
  6
BYLAYER
 10
19.518707996
 20
10.9206398759
 11
19.718707996
 21
11.1206398759
  0
LINE
  5
299
100
AcDbEntity
  8
0
100
AcDbLine
 62
7
  6
BYLAYER
 10
38.3640574153
 20
10.1527772127
 11
38.4309685609
 21
10.3940510094
  0
LINE
  5
29A
100
AcDbEntity
  8
0
100
AcDbLine
 62
7
  6
BYLAYER
 10
24.4666443359
 20
57.8167759481
 11
34.4478812295
 21
57.2044769408
  0
LINE
  5
29B
100
AcDbEntity
  8
0
100
AcDbLine
 62
7
  6
BYLAYER
 10
37.7970201595
 20
9.1706398759
 11
38.3640574153
 21
10.1527772127
  0
LINE
  5
29C
100
AcDbEntity
  8
0
100
AcDbLine
 62
7
  6
BYLAYER
 10
39.518707996
 20
10.9206398759
 11
39.718707996
 21
11.1206398759
  0
LINE
  5
29D
100
AcDbEntity
  8
0
100
AcDbLine
 62
7
  6
BYLAYER
 10
39.518707996
 20
10.3206398759
 11
39.718707996
 21
10.5206398759
  0
ARC
  5
29E
100
AcDbEntity
  8
0
100
AcDbCircle
 62
7
  6
BYLAYER
 10
19.0734085344
 20
9.4206398759
 40
0.5
100
AcDbArc
 50
210.0
 51
270.0
  0
ARC
  5
29F
100
AcDbEntity
  8
0
100
AcDbCircle
 62
7
  6
BYLAYER
 10
20.7688313167
 20
26.6206398759
 40
0.3
100
AcDbArc
 50
5.0
 51
90.0
  0
ARC
  5
2A0
100
AcDbEntity
  8
0
100
AcDbCircle
 62
7
  6
BYLAYER
 10
15.6685846752
 20
26.6206398759
 40
0.3
100
AcDbArc
 50
90.0
 51
175.0
  0
ARC
  5
2A1
100
AcDbEntity
  8
0
100
AcDbCircle
 62
7
  6
BYLAYER
 10
13.8560824755
 20
48.1702937026
 40
10.0
100
AcDbArc
 50
322.932279548
 51
356.4895892936
  0
ARC
  5
2A2
100
AcDbEntity
  8
0
100
AcDbCircle
 62
7
  6
BYLAYER
 10
28.218707996
 20
37.3206398759
 40
8.0
100
AcDbArc
 50
4.392797027
 51
30.0468990757
  0
ARC
  5
2A3
100
AcDbEntity
  8
0
100
AcDbCircle
 62
7
  6
BYLAYER
 10
28.218707996
 20
37.3206398759
 40
8.0
100
AcDbArc
 50
274.392797027
 51
348.5863815601
  0
ARC
  5
2A4
100
AcDbEntity
  8
0
100
AcDbCircle
 62
7
  6
BYLAYER
 10
28.218707996
 20
37.3206398759
 40
8.0
100
AcDbArc
 50
184.392797027
 51
258.5863815601
  0
ARC
  5
2A5
100
AcDbEntity
  8
0
100
AcDbCircle
 62
7
  6
BYLAYER
 10
28.218707996
 20
37.3206398759
 40
8.0
100
AcDbArc
 50
142.9322795112
 51
168.5863815601
  0
ARC
  5
2A6
100
AcDbEntity
  8
0
100
AcDbCircle
 62
7
  6
BYLAYER
 10
28.218707996
 20
37.3206398759
 40
7.0125
100
AcDbArc
 50
74.9684403836
 51
98.8628462676
  0
ARC
  5
2A7
100
AcDbEntity
  8
0
100
AcDbCircle
 62
7
  6
BYLAYER
 10
28.218707996
 20
37.3206398759
 40
7.0125
100
AcDbArc
 50
340.8990237033
 51
9.5745164271
  0
ARC
  5
2A8
100
AcDbEntity
  8
0
100
AcDbCircle
 62
7
  6
BYLAYER
 10
28.218707996
 20
37.3206398759
 40
7.0125
100
AcDbArc
 50
254.9684403836
 51
278.8628462676
  0
ARC
  5
2A9
100
AcDbEntity
  8
0
100
AcDbCircle
 62
7
  6
BYLAYER
 10
28.218707996
 20
37.3206398759
 40
7.0125
100
AcDbArc
 50
160.8990237033
 51
189.5745164271
  0
ARC
  5
2AA
100
AcDbEntity
  8
0
100
AcDbCircle
 62
7
  6
BYLAYER
 10
28.218707996
 20
37.3206398759
 40
6.5125
100
AcDbArc
 50
74.3562570798
 51
99.510490961
  0
ARC
  5
2AB
100
AcDbEntity
  8
0
100
AcDbCircle
 62
7
  6
BYLAYER
 10
28.218707996
 20
37.3206398759
 40
6.5125
100
AcDbArc
 50
340.28358371
 51
10.7798382556
  0
ARC
  5
2AC
100
AcDbEntity
  8
0
100
AcDbCircle
 62
7
  6
BYLAYER
 10
28.218707996
 20
37.3206398759
 40
6.5125
100
AcDbArc
 50
254.3562570798
 51
279.510490961
  0
ARC
  5
2AD
100
AcDbEntity
  8
0
100
AcDbCircle
 62
7
  6
BYLAYER
 10
28.218707996
 20
37.3206398759
 40
6.5125
100
AcDbArc
 50
160.28358371
 51
190.7798382556
  0
ARC
  5
2AE
100
AcDbEntity
  8
0
100
AcDbCircle
 62
7
  6
BYLAYER
 10
28.218707996
 20
37.3206398759
 40
6.02
100
AcDbArc
 50
75.8190654425
 51
97.0622610851
  0
ARC
  5
2AF
100
AcDbEntity
  8
0
100
AcDbCircle
 62
7
  6
BYLAYER
 10
28.218707996
 20
37.3206398759
 40
6.02
100
AcDbArc
 50
345.8710763676
 51
7.2130394438
  0
ARC
  5
2B0
100
AcDbEntity
  8
0
100
AcDbCircle
 62
7
  6
BYLAYER
 10
28.218707996
 20
37.3206398759
 40
6.02
100
AcDbArc
 50
255.8190654425
 51
277.0622610851
  0
ARC
  5
2B1
100
AcDbEntity
  8
0
100
AcDbCircle
 62
7
  6
BYLAYER
 10
28.218707996
 20
37.3206398759
 40
6.02
100
AcDbArc
 50
165.8710763676
 51
187.2130394438
  0
ARC
  5
2B2
100
AcDbEntity
  8
0
100
AcDbCircle
 62
7
  6
BYLAYER
 10
28.218707996
 20
37.3206398759
 40
6.0
100
AcDbArc
 50
276.1255029797
 51
277.1753610093
  0
ARC
  5
2B3
100
AcDbEntity
  8
0
100
AcDbCircle
 62
7
  6
BYLAYER
 10
28.218707996
 20
37.3206398759
 40
6.0
100
AcDbArc
 50
352.0631308781
 51
2.3836169581
  0
ARC
  5
2B4
100
AcDbEntity
  8
0
100
AcDbCircle
 62
7
  6
BYLAYER
 10
28.218707996
 20
37.3206398759
 40
6.0
100
AcDbArc
 50
77.114161212
 51
93.5104107064
  0
ARC
  5
2B5
100
AcDbEntity
  8
0
100
AcDbCircle
 62
7
  6
BYLAYER
 10
28.218707996
 20
37.3206398759
 40
6.0
100
AcDbArc
 50
96.1255029797
 51
97.1753610093
  0
ARC
  5
2B6
100
AcDbEntity
  8
0
100
AcDbCircle
 62
7
  6
BYLAYER
 10
28.218707996
 20
37.3206398759
 40
6.0
100
AcDbArc
 50
172.0631308781
 51
182.3836169581
  0
ARC
  5
2B7
100
AcDbEntity
  8
0
100
AcDbCircle
 62
7
  6
BYLAYER
 10
28.218707996
 20
37.3206398759
 40
6.0
100
AcDbArc
 50
257.114161212
 51
273.5104107064
  0
ARC
  5
2B8
100
AcDbEntity
  8
0
100
AcDbCircle
 62
7
  6
BYLAYER
 10
28.218707996
 20
37.3206398759
 40
5.0
100
AcDbArc
 50
252.1315792252
 51
281.7087374256
  0
ARC
  5
2B9
100
AcDbEntity
  8
0
100
AcDbCircle
 62
7
  6
BYLAYER
 10
28.218707996
 20
37.3206398759
 40
5.0
100
AcDbArc
 50
338.6021924733
 51
360.0
  0
ARC
  5
2BA
100
AcDbEntity
  8
0
100
AcDbCircle
 62
7
  6
BYLAYER
 10
28.218707996
 20
37.3206398759
 40
5.0
100
AcDbArc
 50
72.1315792252
 51
101.7087374256
  0
ARC
  5
2BB
100
AcDbEntity
  8
0
100
AcDbCircle
 62
7
  6
BYLAYER
 10
28.218707996
 20
37.3206398759
 40
5.0
100
AcDbArc
 50
158.6021924733
 51
180.0
  0
CIRCLE
  5
2BC
100
AcDbEntity
  8
0
100
AcDbCircle
 62
7
  6
BYLAYER
 10
28.218707996
 20
37.3206398759
 40
3.2
  0
CIRCLE
  5
2BD
100
AcDbEntity
  8
0
100
AcDbCircle
 62
7
  6
BYLAYER
 10
28.218707996
 20
37.3206398759
 40
2.525
  0
CIRCLE
  5
2BE
100
AcDbEntity
  8
0
100
AcDbCircle
 62
7
  6
BYLAYER
 10
28.218707996
 20
37.3206398759
 40
2.499985739
  0
CIRCLE
  5
2BF
100
AcDbEntity
  8
0
100
AcDbCircle
 62
7
  6
BYLAYER
 10
28.218707996
 20
37.3206398759
 40
2.0999858102
  0
ARC
  5
2C0
100
AcDbEntity
  8
0
100
AcDbCircle
 62
7
  6
BYLAYER
 10
32.7480323385
 20
10.9758341886
 40
2.5324939996
100
AcDbArc
 50
340.182925217
 51
346.6831654631
  0
ARC
  5
2C1
100
AcDbEntity
  8
0
100
AcDbCircle
 62
7
  6
BYLAYER
 10
37.3640074576
 20
9.4206398759
 40
0.5
100
AcDbArc
 50
270.0
 51
330.0
  0
ARC
  5
2C2
100
AcDbEntity
  8
0
100
AcDbCircle
 62
7
  6
BYLAYER
 10
40.7688313167
 20
26.6206398759
 40
0.3
100
AcDbArc
 50
5.0
 51
90.0
  0
ARC
  5
2C3
100
AcDbEntity
  8
0
100
AcDbCircle
 62
7
  6
BYLAYER
 10
35.6685846752
 20
26.6206398759
 40
0.3
100
AcDbArc
 50
90.0
 51
175.0
  0
ARC
  5
2C4
100
AcDbEntity
  8
0
100
AcDbCircle
 62
7
  6
BYLAYER
 10
43.7997931563
 20
46.333396681
 40
10.0
100
AcDbArc
 50
176.4895892936
 51
210.0468990393
  0
ARC
  5
2C5
100
AcDbEntity
  8
0
100
AcDbCircle
 62
7
  6
BYLAYER
 10
29.749455514
 20
62.2737321098
 40
9.5
100
AcDbArc
 50
298.7300531152
 51
235.3339347593
  0
ARC
  5
2C6
100
AcDbEntity
  8
0
100
AcDbCircle
 62
7
  6
BYLAYER
 10
29.749455514
 20
62.2737321098
 40
5.0
100
AcDbArc
 50
356.4895892936
 51
176.4895892936
  0
CIRCLE
  5
2C7
100
AcDbEntity
  8
0
100
AcDbCircle
 62
7
  6
BYLAYER
 10
29.749455514
 20
62.2737321098
 40
2.125
  0
CIRCLE
  5
2C8
100
AcDbEntity
  8
0
100
AcDbCircle
 62
7
  6
BYLAYER
 10
29.749455514
 20
62.2737321098
 40
2.05
  0
CIRCLE
  5
2C9
100
AcDbEntity
  8
0
100
AcDbCircle
 62
7
  6
BYLAYER
 10
29.749455514
 20
62.2737321098
 40
1.3
  0
SPLINE
  5
2CA
100
AcDbEntity
  8
0
100
AcDbSpline
 62
7
  6
BYLAYER
 70
0
 71
3
 72
14
 73
10
 74
0
 42
0.0000001
 43
0.0000001
 44
0.0000000001
 40
0.0
 40
0.0
 40
0.0
 40
0.0
 40
0.1041126864
 40
0.2119832382
 40
0.3259503295
 40
0.4474886714
 40
0.5768563707
 40
0.713286252
 40
1.0
 40
1.0
 40
1.0
 40
1.0
 10
36.7596053824
 20
26.9206398759
 30
0.0
 10
36.7463101218
 20
26.9206398759
 30
0.0
 10
36.7191257385
 20
26.9170772139
 30
0.0
 10
36.6801098924
 20
26.901530559
 30
0.0
 10
36.6437778956
 20
26.8763823593
 30
0.0
 10
36.6113014362
 20
26.8425964034
 30
0.0
 10
36.5836986537
 20
26.8012618813
 30
0.0
 10
36.554113875
 20
26.7369860009
 30
0.0
 10
36.5425069474
 20
26.6832715684
 30
0.0
 10
36.539441285
 20
26.6467865987
 30
0.0
  0
LINE
  5
2CB
100
AcDbEntity
  8
0
100
AcDbLine
 62
7
  6
BYLAYER
 10
36.539441285
 20
26.6467865987
 11
36.4952867994
 21
26.1206398759
  0
LINE
  5
2CC
100
AcDbEntity
  8
0
100
AcDbLine
 62
7
  6
BYLAYER
 10
35.892568889
 20
26.1206398759
 11
35.9172388538
 21
26.6467865987
  0
SPLINE
  5
2CD
100
AcDbEntity
  8
0
100
AcDbSpline
 62
7
  6
BYLAYER
 70
0
 71
3
 72
14
 73
10
 74
0
 42
0.0000001
 43
0.0000001
 44
0.0000000001
 40
0.0
 40
0.0
 40
0.0
 40
0.0
 40
0.2881500792
 40
0.4243676591
 40
0.5531173285
 40
0.6738925104
 40
0.7872772036
 40
0.8951001995
 40
1.0
 40
1.0
 40
1.0
 40
1.0
 10
35.9172388538
 20
26.6467865987
 30
0.0
 10
35.918945167
 20
26.6830966457
 30
0.0
 10
35.9284767986
 20
26.7367292309
 30
0.0
 10
35.9557379821
 20
26.8011921577
 30
0.0
 10
35.9818245645
 20
26.8425693131
 30
0.0
 10
36.0130898989
 20
26.8764016332
 30
0.0
 10
36.0485580074
 20
26.9015820476
 30
0.0
 10
36.0870722675
 20
26.9171220689
 30
0.0
 10
36.1140283794
 20
26.9206398759
 30
0.0
 10
36.1272614836
 20
26.9206398759
 30
0.0
  0
SPLINE
  5
2CE
100
AcDbEntity
  8
0
100
AcDbSpline
 62
7
  6
BYLAYER
 70
0
 71
3
 72
14
 73
10
 74
0
 42
0.0000001
 43
0.0000001
 44
0.0000000001
 40
0.0
 40
0.0
 40
0.0
 40
0.0
 40
0.1041126864
 40
0.2119832382
 40
0.3259503295
 40
0.4474886714
 40
0.5768563707
 40
0.713286252
 40
1.0
 40
1.0
 40
1.0
 40
1.0
 10
16.7596053824
 20
26.9206398759
 30
0.0
 10
16.7463101218
 20
26.9206398759
 30
0.0
 10
16.7191257385
 20
26.9170772139
 30
0.0
 10
16.6801098924
 20
26.901530559
 30
0.0
 10
16.6437778956
 20
26.8763823593
 30
0.0
 10
16.6113014362
 20
26.8425964034
 30
0.0
 10
16.5836986537
 20
26.8012618813
 30
0.0
 10
16.554113875
 20
26.7369860009
 30
0.0
 10
16.5425069474
 20
26.6832715684
 30
0.0
 10
16.539441285
 20
26.6467865987
 30
0.0
  0
LINE
  5
2CF
100
AcDbEntity
  8
0
100
AcDbLine
 62
7
  6
BYLAYER
 10
16.539441285
 20
26.6467865987
 11
16.4952867994
 21
26.1206398759
  0
LINE
  5
2D0
100
AcDbEntity
  8
0
100
AcDbLine
 62
7
  6
BYLAYER
 10
15.892568889
 20
26.1206398759
 11
15.9172388538
 21
26.6467865987
  0
SPLINE
  5
2D1
100
AcDbEntity
  8
0
100
AcDbSpline
 62
7
  6
BYLAYER
 70
0
 71
3
 72
14
 73
10
 74
0
 42
0.0000001
 43
0.0000001
 44
0.0000000001
 40
0.0
 40
0.0
 40
0.0
 40
0.0
 40
0.2881500792
 40
0.4243676591
 40
0.5531173285
 40
0.6738925104
 40
0.7872772036
 40
0.8951001995
 40
1.0
 40
1.0
 40
1.0
 40
1.0
 10
15.9172388538
 20
26.6467865987
 30
0.0
 10
15.918945167
 20
26.6830966457
 30
0.0
 10
15.9284767986
 20
26.7367292309
 30
0.0
 10
15.9557379821
 20
26.8011921577
 30
0.0
 10
15.9818245645
 20
26.8425693131
 30
0.0
 10
16.0130898989
 20
26.8764016332
 30
0.0
 10
16.0485580074
 20
26.9015820476
 30
0.0
 10
16.0870722675
 20
26.9171220689
 30
0.0
 10
16.1140283794
 20
26.9206398759
 30
0.0
 10
16.1272614836
 20
26.9206398759
 30
0.0
  0
SPLINE
  5
2D2
100
AcDbEntity
  8
0
100
AcDbSpline
 62
7
  6
BYLAYER
 70
0
 71
3
 72
9
 73
5
 74
0
 42
0.0000001
 43
0.0000001
 44
0.0000000001
 40
0.0
 40
0.0
 40
0.0
 40
0.0
 40
0.255887774
 40
1.0
 40
1.0
 40
1.0
 40
1.0
 10
35.0776940765
 20
10.3940510094
 30
0.0
 10
35.0774340935
 20
10.3730122899
 30
0.0
 10
35.0726877915
 20
10.2909126991
 30
0.0
 10
35.0534321521
 20
10.2094131972
 30
0.0
 10
35.0302824772
 20
10.1527772127
 30
0.0
  0
LINE
  5
2D3
100
AcDbEntity
  8
0
100
AcDbLine
 62
7
  6
BYLAYER
 10
34.6287869236
 20
9.1705838361
 11
35.0302824772
 21
10.1527772127
  0
SPLINE
  5
2D4
100
AcDbEntity
  8
0
100
AcDbSpline
 62
7
  6
BYLAYER
 70
0
 71
3
 72
12
 73
8
 74
0
 42
0.0000001
 43
0.0000001
 44
0.0000000001
 40
0.0
 40
0.0
 40
0.0
 40
0.0
 40
0.1107585567
 40
0.2235497186
 40
0.4598863495
 40
0.7182655907
 40
1.0
 40
1.0
 40
1.0
 40
1.0
 10
34.322144586
 20
8.9206398759
 30
0.0
 10
34.3375945738
 20
8.9206398759
 30
0.0
 10
34.368851848
 20
8.9235748169
 30
0.0
 10
34.4308870444
 20
8.9410552556
 30
0.0
 10
34.5049324024
 20
8.9856142868
 30
0.0
 10
34.5781605946
 20
9.0670363353
 30
0.0
 10
34.613915604
 20
9.1342063563
 30
0.0
 10
34.6287869236
 20
9.1705838361
 30
0.0
  0
LINE
  5
2D5
100
AcDbEntity
  8
0
100
AcDbLine
 62
7
  6
BYLAYER
 10
33.9167302619
 20
5.9835869949
 11
34.2835166468
 21
8.9206398759
  0
SPLINE
  5
2D6
100
AcDbEntity
  8
0
100
AcDbSpline
 62
7
  6
BYLAYER
 70
0
 71
3
 72
13
 73
9
 74
0
 42
0.0000001
 43
0.0000001
 44
0.0000000001
 40
0.0
 40
0.0
 40
0.0
 40
0.0
 40
0.1054185561
 40
0.2140216016
 40
0.32804698
 40
0.4491307815
 40
0.7127148268
 40
1.0
 40
1.0
 40
1.0
 40
1.0
 10
33.5678077722
 20
5.5706398759
 30
0.0
 10
33.588434617
 20
5.5706398759
 30
0.0
 10
33.6304779488
 20
5.5759009138
 30
0.0
 10
33.6909536294
 20
5.5990018057
 30
0.0
 10
33.7473550779
 20
5.6365588418
 30
0.0
 10
33.8167566485
 20
5.705898541
 30
0.0
 10
33.8833612346
 20
5.8219486001
 30
0.0
 10
33.9097638111
 20
5.9278083589
 30
0.0
 10
33.9167302619
 20
5.9835869949
 30
0.0
  0
LINE
  5
2D7
100
AcDbEntity
  8
0
100
AcDbLine
 62
7
  6
BYLAYER
 10
34.9463557308
 20
5.9838157871
 11
35.3148969722
 21
8.9206398759
  0
SPLINE
  5
2D8
100
AcDbEntity
  8
0
100
AcDbSpline
 62
7
  6
BYLAYER
 70
0
 71
3
 72
13
 73
9
 74
0
 42
0.0000001
 43
0.0000001
 44
0.0000000001
 40
0.0
 40
0.0
 40
0.0
 40
0.0
 40
0.1054791018
 40
0.2141153206
 40
0.3281177535
 40
0.4491367898
 40
0.7126322928
 40
1.0
 40
1.0
 40
1.0
 40
1.0
 10
34.5956329039
 20
5.5706398759
 30
0.0
 10
34.6163235742
 20
5.5706398759
 30
0.0
 10
34.6584886777
 20
5.5758951449
 30
0.0
 10
34.7191702248
 20
5.5989302406
 30
0.0
 10
34.7758303335
 20
5.6363804928
 30
0.0
 10
34.8456283781
 20
5.7056231505
 30
0.0
 10
34.9127597545
 20
5.8217663733
 30
0.0
 10
34.9393342417
 20
5.9278850507
 30
0.0
 10
34.9463557308
 20
5.9838157871
 30
0.0
  0
SPLINE
  5
2D9
100
AcDbEntity
  8
0
100
AcDbSpline
 62
7
  6
BYLAYER
 70
0
 71
3
 72
13
 73
9
 74
0
 42
0.0000001
 43
0.0000001
 44
0.0000000001
 40
0.0
 40
0.0
 40
0.0
 40
0.0
 40
0.2873719025
 40
0.5508652922
 40
0.6718822544
 40
0.7858834551
 40
0.8945201858
 40
1.0
 40
1.0
 40
1.0
 40
1.0
 10
21.4910602611
 20
5.9838157871
 30
0.0
 10
21.4980818531
 20
5.9278842318
 30
0.0
 10
21.524656636
 20
5.8217651739
 30
0.0
 10
21.5917882888
 20
5.7056220575
 30
0.0
 10
21.6615858724
 20
5.636380517
 30
0.0
 10
21.7182453303
 20
5.5989302438
 30
0.0
 10
21.7789270127
 20
5.5758955266
 30
0.0
 10
21.8210922978
 20
5.5706398759
 30
0.0
 10
21.8417831086
 20
5.5706398759
 30
0.0
  0
LINE
  5
2DA
100
AcDbEntity
  8
0
100
AcDbLine
 62
7
  6
BYLAYER
 10
21.1225190198
 20
8.9206398759
 11
21.4910602611
 21
5.9838157871
  0
LINE
  5
2DB
100
AcDbEntity
  8
0
100
AcDbLine
 62
7
  6
BYLAYER
 10
33.9006834098
 20
8.9206398759
 11
33.5321421685
 21
5.9838157871
  0
SPLINE
  5
2DC
100
AcDbEntity
  8
0
100
AcDbSpline
 62
7
  6
BYLAYER
 70
0
 71
3
 72
13
 73
9
 74
0
 42
0.0000001
 43
0.0000001
 44
0.0000000001
 40
0.0
 40
0.0
 40
0.0
 40
0.0
 40
0.2873719025
 40
0.5508652922
 40
0.6718822544
 40
0.785883455
 40
0.8945201858
 40
1.0
 40
1.0
 40
1.0
 40
1.0
 10
33.5321421685
 20
5.9838157871
 30
0.0
 10
33.5251205765
 20
5.9278842318
 30
0.0
 10
33.4985457936
 20
5.821765174
 30
0.0
 10
33.4314141409
 20
5.7056220577
 30
0.0
 10
33.3616165574
 20
5.6363805171
 30
0.0
 10
33.3049570994
 20
5.5989302439
 30
0.0
 10
33.2442754171
 20
5.5758955266
 30
0.0
 10
33.2021101321
 20
5.5706398759
 30
0.0
 10
33.1814193212
 20
5.5706398759
 30
0.0
  0
LINE
  5
2DD
100
AcDbEntity
  8
0
100
AcDbLine
 62
7
  6
BYLAYER
 10
35.7373892584
 20
10.1527772127
 11
35.3358937093
 21
9.1705838465
  0
SPLINE
  5
2DE
100
AcDbEntity
  8
0
100
AcDbSpline
 62
7
  6
BYLAYER
 70
0
 71
3
 72
12
 73
8
 74
0
 42
0.0000001
 43
0.0000001
 44
0.0000000001
 40
0.0
 40
0.0
 40
0.0
 40
0.0
 40
0.2817340484
 40
0.54011336
 40
0.7764502495
 40
0.8892416546
 40
1.0
 40
1.0
 40
1.0
 40
1.0
 10
35.3358937093
 20
9.1705838465
 30
0.0
 10
35.3210226204
 20
9.1342069313
 30
0.0
 10
35.2852682445
 20
9.0670379029
 30
0.0
 10
35.212041671
 20
8.9856164745
 30
0.0
 10
35.1379978207
 20
8.9410574913
 30
0.0
 10
35.0759640412
 20
8.923575404
 30
0.0
 10
35.0447072025
 20
8.9206398759
 30
0.0
 10
35.0292574641
 20
8.9206398759
 30
0.0
  0
SPLINE
  5
2DF
100
AcDbEntity
  8
0
100
AcDbSpline
 62
7
  6
BYLAYER
 70
0
 71
3
 72
9
 73
5
 74
0
 42
0.0000001
 43
0.0000001
 44
0.0000000001
 40
0.0
 40
0.0
 40
0.0
 40
0.0
 40
0.2432904811
 40
1.0
 40
1.0
 40
1.0
 40
1.0
 10
35.7373892584
 20
10.1527772127
 30
0.0
 10
35.7449590207
 20
10.1712967359
 30
0.0
 10
35.7721138217
 20
10.2490013249
 30
0.0
 10
35.7840319481
 20
10.3318281971
 30
0.0
 10
35.7848008577
 20
10.3940510094
 30
0.0
  0
SPLINE
  5
2E0
100
AcDbEntity
  8
0
100
AcDbSpline
 62
7
  6
BYLAYER
 70
0
 71
3
 72
13
 73
9
 74
0
 42
0.0000001
 43
0.0000001
 44
0.0000000001
 40
0.0
 40
0.0
 40
0.0
 40
0.0
 40
0.2872443062
 40
0.550891665
 40
0.6719327354
 40
0.7860320448
 40
0.8947022412
 40
1.0
 40
1.0
 40
1.0
 40
1.0
 10
34.3465702589
 20
6.2684968835
 30
0.0
 10
34.3424005273
 20
6.2350539525
 30
0.0
 10
34.326613093
 20
6.1715724351
 30
0.0
 10
34.2867856058
 20
6.1019205743
 30
0.0
 10
34.2452070964
 20
6.0602926789
 30
0.0
 10
34.2114178897
 20
6.0376997214
 30
0.0
 10
34.1751553782
 20
6.0238398824
 30
0.0
 10
34.1499561851
 20
6.020642567
 30
0.0
 10
34.1376017826
 20
6.020642567
 30
0.0
  0
SPLINE
  5
2E1
100
AcDbEntity
  8
0
100
AcDbSpline
 62
7
  6
BYLAYER
 70
0
 71
3
 72
10
 73
6
 74
0
 42
0.0000001
 43
0.0000001
 44
0.0000000001
 40
0.0
 40
0.0
 40
0.0
 40
0.0
 40
0.4714127891
 40
0.730729978
 40
1.0
 40
1.0
 40
1.0
 40
1.0
 10
34.7954185919
 20
9.2156826225
 30
0.0
 10
34.7646794217
 20
9.1879414374
 30
0.0
 10
34.727208482
 20
9.133169647
 30
0.0
 10
34.6969127975
 20
9.0506253202
 30
0.0
 10
34.6877472296
 20
9.0048504277
 30
0.0
 10
34.6848210186
 20
8.9813810341
 30
0.0
  0
SPLINE
  5
2E2
100
AcDbEntity
  8
0
100
AcDbSpline
 62
7
  6
BYLAYER
 70
0
 71
3
 72
12
 73
8
 74
0
 42
0.0000001
 43
0.0000001
 44
0.0000000001
 40
0.0
 40
0.0
 40
0.0
 40
0.0
 40
0.2675871726
 40
0.3977234859
 40
0.5248918214
 40
0.7693284118
 40
1.0
 40
1.0
 40
1.0
 40
1.0
 10
35.4190693521
 20
10.3448622608
 30
0.0
 10
35.3921591631
 20
10.2313164009
 30
0.0
 10
35.3416003902
 20
10.0647254964
 30
0.0
 10
35.2531039054
 20
9.8534707432
 30
0.0
 10
35.1544936419
 20
9.6579685226
 30
0.0
 10
35.0108096987
 20
9.4368611294
 30
0.0
 10
34.8700967978
 20
9.2830774778
 30
0.0
 10
34.7954185919
 20
9.2156826225
 30
0.0
  0
SPLINE
  5
2E3
100
AcDbEntity
  8
0
100
AcDbSpline
 62
7
  6
BYLAYER
 70
0
 71
3
 72
9
 73
5
 74
0
 42
0.0000001
 43
0.0000001
 44
0.0000000001
 40
0.0
 40
0.0
 40
0.0
 40
0.0
 40
0.2522496353
 40
1.0
 40
1.0
 40
1.0
 40
1.0
 10
35.4808308344
 20
10.8523901405
 30
0.0
 10
35.480299677
 20
10.8093556403
 30
0.0
 10
35.4735869732
 20
10.6388489107
 30
0.0
 10
35.4484901752
 20
10.4690015841
 30
0.0
 10
35.4190693521
 20
10.3448622608
 30
0.0
  0
SPLINE
  5
2E4
100
AcDbEntity
  8
0
100
AcDbSpline
 62
7
  6
BYLAYER
 70
0
 71
3
 72
9
 73
5
 74
0
 42
0.0000001
 43
0.0000001
 44
0.0000000001
 40
0.0
 40
0.0
 40
0.0
 40
0.0
 40
0.500015665
 40
1.0
 40
1.0
 40
1.0
 40
1.0
 10
35.3251311469
 20
15.4258759966
 30
0.0
 10
35.3604889664
 20
15.4258624271
 30
0.0
 10
35.4311883101
 20
15.4257763069
 30
0.0
 10
35.5019439932
 20
15.4261803095
 30
0.0
 10
35.5372631813
 20
15.4245759772
 30
0.0
  0
SPLINE
  5
2E5
100
AcDbEntity
  8
0
100
AcDbSpline
 62
7
  6
BYLAYER
 70
0
 71
3
 72
11
 73
7
 74
0
 42
0.0000001
 43
0.0000001
 44
0.0000000001
 40
0.0
 40
0.0
 40
0.0
 40
0.0
 40
0.2309314821
 40
0.5015549313
 40
0.7713683469
 40
1.0
 40
1.0
 40
1.0
 40
1.0
 10
34.3465785193
 20
6.2685454226
 30
0.0
 10
34.3307078542
 20
6.2725029952
 30
0.0
 10
34.2958304323
 20
6.2794336538
 30
0.0
 10
34.2417629421
 20
6.2873946794
 30
0.0
 10
34.1875485449
 20
6.2928380683
 30
0.0
 10
34.1522516332
 20
6.2945926492
 30
0.0
 10
34.1360578661
 20
6.2945926492
 30
0.0
  0
SPLINE
  5
2E6
100
AcDbEntity
  8
0
100
AcDbSpline
 62
7
  6
BYLAYER
 70
0
 71
3
 72
13
 73
9
 74
0
 42
0.0000001
 43
0.0000001
 44
0.0000000001
 40
0.0
 40
0.0
 40
0.0
 40
0.0
 40
0.1032552214
 40
0.2106492466
 40
0.3245468651
 40
0.4464150668
 40
0.7129424449
 40
1.0
 40
1.0
 40
1.0
 40
1.0
 10
34.0316032301
 20
6.1706398759
 30
0.0
 10
34.038553579
 20
6.1706398759
 30
0.0
 10
34.0527976663
 20
6.1685870591
 30
0.0
 10
34.0730449234
 20
6.1597919495
 30
0.0
 10
34.0915151798
 20
6.1455780807
 30
0.0
 10
34.1135433701
 20
6.119660182
 30
0.0
 10
34.1326364422
 20
6.0774136143
 30
0.0
 10
34.1376692473
 20
6.0399623869
 30
0.0
 10
34.1376692473
 20
6.0206398759
 30
0.0
  0
SPLINE
  5
2E7
100
AcDbEntity
  8
0
100
AcDbSpline
 62
7
  6
BYLAYER
 70
0
 71
3
 72
12
 73
8
 74
0
 42
0.0000001
 43
0.0000001
 44
0.0000000001
 40
0.0
 40
0.0
 40
0.0
 40
0.0
 40
0.2875508071
 40
0.5515187942
 40
0.7858023867
 40
0.8945922416
 40
1.0
 40
1.0
 40
1.0
 40
1.0
 10
34.1360578661
 20
6.2945926492
 30
0.0
 10
34.1339731975
 20
6.277872766
 30
0.0
 10
34.1260511143
 20
6.2461014517
 30
0.0
 10
34.1029535277
 20
6.2055350622
 30
0.0
 10
34.0751273339
 20
6.1817090638
 30
0.0
 10
34.0503790097
 20
6.1722425383
 30
0.0
 10
34.0377797087
 20
6.1706398759
 30
0.0
 10
34.0316032301
 20
6.1706398759
 30
0.0
  0
SPLINE
  5
2E8
100
AcDbEntity
  8
0
100
AcDbSpline
 62
7
  6
BYLAYER
 70
0
 71
3
 72
11
 73
7
 74
0
 42
0.0000001
 43
0.0000001
 44
0.0000000001
 40
0.0
 40
0.0
 40
0.0
 40
0.0
 40
0.2524091709
 40
0.5212379852
 40
0.7794502784
 40
1.0
 40
1.0
 40
1.0
 40
1.0
 10
34.5064602276
 20
9.0065136315
 30
0.0
 10
34.5216108336
 20
9.0057049227
 30
0.0
 10
34.5528531929
 20
9.0031814684
 30
0.0
 10
34.5993803974
 20
8.9975770563
 30
0.0
 10
34.6437600515
 20
8.9904607383
 30
0.0
 10
34.6719615319
 20
8.9846243601
 30
0.0
 10
34.6848247506
 20
8.9814167364
 30
0.0
  0
SPLINE
  5
2E9
100
AcDbEntity
  8
0
100
AcDbSpline
 62
7
  6
BYLAYER
 70
0
 71
3
 72
10
 73
6
 74
0
 42
0.0000001
 43
0.0000001
 44
0.0000000001
 40
0.0
 40
0.0
 40
0.0
 40
0.0
 40
0.495146461
 40
0.7527450499
 40
1.0
 40
1.0
 40
1.0
 40
1.0
 10
34.6894874511
 20
9.3269730472
 30
0.0
 10
34.7125258053
 20
9.315483298
 30
0.0
 10
34.7442016704
 20
9.2907797049
 30
0.0
 10
34.7769987196
 20
9.2503346909
 30
0.0
 10
34.7901304997
 20
9.227401713
 30
0.0
 10
34.7954180842
 20
9.2156837475
 30
0.0
  0
SPLINE
  5
2EA
100
AcDbEntity
  8
0
100
AcDbSpline
 62
7
  6
BYLAYER
 70
0
 71
3
 72
9
 73
5
 74
0
 42
0.0000001
 43
0.0000001
 44
0.0000000001
 40
0.0
 40
0.0
 40
0.0
 40
0.0
 40
0.5157459563
 40
1.0
 40
1.0
 40
1.0
 40
1.0
 10
35.130551485
 20
10.1172723827
 30
0.0
 10
35.0871674443
 20
9.9972970941
 30
0.0
 10
34.9844395625
 20
9.7708278275
 30
0.0
 10
34.842005615
 20
9.5663422301
 30
0.0
 10
34.7633756106
 20
9.4759731657
 30
0.0
  0
SPLINE
  5
2EB
100
AcDbEntity
  8
0
100
AcDbSpline
 62
7
  6
BYLAYER
 70
0
 71
3
 72
9
 73
5
 74
0
 42
0.0000001
 43
0.0000001
 44
0.0000000001
 40
0.0
 40
0.0
 40
0.0
 40
0.0
 40
0.5000157701
 40
1.0
 40
1.0
 40
1.0
 40
1.0
 10
35.4808309613
 20
10.8524149233
 30
0.0
 10
35.4454848129
 20
10.8532874496
 30
0.0
 10
35.3747799043
 20
10.854371889
 30
0.0
 10
35.3040697671
 20
10.8550327842
 30
0.0
 10
35.2687150813
 20
10.8550327842
 30
0.0
  0
SPLINE
  5
2EC
100
AcDbEntity
  8
0
100
AcDbSpline
 62
7
  6
BYLAYER
 70
0
 71
3
 72
11
 73
7
 74
0
 42
0.0000001
 43
0.0000001
 44
0.0000000001
 40
0.0
 40
0.0
 40
0.0
 40
0.0
 40
0.2268567485
 40
0.4948415558
 40
0.7655278579
 40
1.0
 40
1.0
 40
1.0
 40
1.0
 10
35.2124307097
 20
10.3925104995
 30
0.0
 10
35.2285578277
 20
10.3925104995
 30
0.0
 10
35.2637118664
 20
10.3892998953
 30
0.0
 10
35.3172544878
 20
10.3792921994
 30
0.0
 10
35.3702918217
 20
10.364667833
 30
0.0
 10
35.4040026135
 20
10.3519810085
 30
0.0
 10
35.4190647273
 20
10.3448415857
 30
0.0
  0
SPLINE
  5
2ED
100
AcDbEntity
  8
0
100
AcDbSpline
 62
7
  6
BYLAYER
 70
0
 71
3
 72
9
 73
5
 74
0
 42
0.0000001
 43
0.0000001
 44
0.0000000001
 40
0.0
 40
0.0
 40
0.0
 40
0.0
 40
0.2522497865
 40
1.0
 40
1.0
 40
1.0
 40
1.0
 10
35.2687150813
 20
10.8550327842
 30
0.0
 10
35.2682310246
 20
10.8158143902
 30
0.0
 10
35.2621153606
 20
10.6604274477
 30
0.0
 10
35.2392426048
 20
10.5056416146
 30
0.0
 10
35.2124307097
 20
10.3925104995
 30
0.0
  0
LINE
  5
2EE
100
AcDbEntity
  8
0
100
AcDbLine
 62
7
  6
BYLAYER
 10
34.990623428
 20
8.9206398759
 11
34.6238353308
 21
5.9835732351
  0
SPLINE
  5
2EF
100
AcDbEntity
  8
0
100
AcDbSpline
 62
7
  6
BYLAYER
 70
0
 71
3
 72
13
 73
9
 74
0
 42
0.0000001
 43
0.0000001
 44
0.0000000001
 40
0.0
 40
0.0
 40
0.0
 40
0.0
 40
0.2872869874
 40
0.5508703586
 40
0.6719537314
 40
0.7859786792
 40
0.894580509
 40
1.0
 40
1.0
 40
1.0
 40
1.0
 10
34.6238353308
 20
5.9835732351
 30
0.0
 10
34.6168687144
 20
5.9277932732
 30
0.0
 10
34.5904612932
 20
5.8219322629
 30
0.0
 10
34.523851785
 20
5.7058820378
 30
0.0
 10
34.454445324
 20
5.6365452154
 30
0.0
 10
34.3980411617
 20
5.5989905975
 30
0.0
 10
34.3375615134
 20
5.5758963834
 30
0.0
 10
34.2955173944
 20
5.5706398759
 30
0.0
 10
34.2748900066
 20
5.5706398759
 30
0.0
  0
SPLINE
  5
2F0
100
AcDbEntity
  8
0
100
AcDbSpline
 62
7
  6
BYLAYER
 70
0
 71
3
 72
13
 73
9
 74
0
 42
0.0000001
 43
0.0000001
 44
0.0000000001
 40
0.0
 40
0.0
 40
0.0
 40
0.0
 40
0.1054791018
 40
0.2141153206
 40
0.3281177535
 40
0.4491367898
 40
0.7126322928
 40
1.0
 40
1.0
 40
1.0
 40
1.0
 10
23.2559966504
 20
5.5706398759
 30
0.0
 10
23.2353059802
 20
5.5706398759
 30
0.0
 10
23.1931408767
 20
5.5758951449
 30
0.0
 10
23.1324593296
 20
5.5989302406
 30
0.0
 10
23.0757992208
 20
5.6363804928
 30
0.0
 10
23.0060011762
 20
5.7056231505
 30
0.0
 10
22.9388697998
 20
5.8217663733
 30
0.0
 10
22.9122953126
 20
5.9278850507
 30
0.0
 10
22.9052738235
 20
5.9838157871
 30
0.0
  0
LINE
  5
2F1
100
AcDbEntity
  8
0
100
AcDbLine
 62
7
  6
BYLAYER
 10
22.9052738235
 20
5.9838157871
 11
22.5367325821
 21
8.9206398759
  0
SPLINE
  5
2F2
100
AcDbEntity
  8
0
100
AcDbSpline
 62
7
  6
BYLAYER
 70
0
 71
3
 72
13
 73
9
 74
0
 42
0.0000001
 43
0.0000001
 44
0.0000000001
 40
0.0
 40
0.0
 40
0.0
 40
0.0
 40
0.2874240746
 40
0.5508231523
 40
0.6717965089
 40
0.7857913986
 40
0.8944631013
 40
1.0
 40
1.0
 40
1.0
 40
1.0
 10
31.9942726987
 20
8.5074639647
 30
0.0
 10
32.0013450659
 20
8.5634943952
 30
0.0
 10
32.0281316813
 20
8.6697606222
 30
0.0
 10
32.0957018059
 20
8.7858976924
 30
0.0
 10
32.1657926479
 20
8.8550331481
 30
0.0
 10
32.2226304149
 20
8.8924079393
 30
0.0
 10
32.2834600252
 20
8.9153926344
 30
0.0
 10
32.3257122823
 20
8.9206398759
 30
0.0
 10
32.3464488825
 20
8.9206398759
 30
0.0
  0
SPLINE
  5
2F3
100
AcDbEntity
  8
0
100
AcDbSpline
 62
7
  6
BYLAYER
 70
0
 71
3
 72
13
 73
9
 74
0
 42
0.0000001
 43
0.0000001
 44
0.0000000001
 40
0.0
 40
0.0
 40
0.0
 40
0.0
 40
0.1055354659
 40
0.2142060305
 40
0.3282022816
 40
0.4491786461
 40
0.7125812945
 40
1.0
 40
1.0
 40
1.0
 40
1.0
 10
24.0909727484
 20
8.9206398759
 30
0.0
 10
24.1117088728
 20
8.9206398759
 30
0.0
 10
24.153960306
 20
8.9153923533
 30
0.0
 10
24.214788269
 20
8.8924058791
 30
0.0
 10
24.2716260225
 20
8.8550312047
 30
0.0
 10
24.3417164231
 20
8.7858942649
 30
0.0
 10
24.4092852598
 20
8.6697577658
 30
0.0
 10
24.4360711245
 20
8.5634928236
 30
0.0
 10
24.4431432932
 20
8.5074639647
 30
0.0
  0
SPLINE
  5
2F4
100
AcDbEntity
  8
0
100
AcDbSpline
 62
7
  6
BYLAYER
 70
0
 71
3
 72
13
 73
9
 74
0
 42
0.0000001
 43
0.0000001
 44
0.0000000001
 40
0.0
 40
0.0
 40
0.0
 40
0.0
 40
0.2875188514
 40
0.5508578875
 40
0.6717723286
 40
0.7857282923
 40
0.8944099026
 40
1.0
 40
1.0
 40
1.0
 40
1.0
 10
24.7619832704
 20
5.9838157871
 30
0.0
 10
24.7690851752
 20
5.927659639
 30
0.0
 10
24.7960065525
 20
5.8211860058
 30
0.0
 10
24.863969419
 20
5.7049563881
 30
0.0
 10
24.9343992499
 20
5.6359329902
 30
0.0
 10
24.9914624895
 20
5.5986937723
 30
0.0
 10
25.0524776312
 20
5.5758433703
 30
0.0
 10
25.0948226017
 20
5.5706398759
 30
0.0
 10
25.1156099806
 20
5.5706398759
 30
0.0
  0
SPLINE
  5
2F5
100
AcDbEntity
  8
0
100
AcDbSpline
 62
7
  6
BYLAYER
 70
0
 71
3
 72
13
 73
9
 74
0
 42
0.0000001
 43
0.0000001
 44
0.0000000001
 40
0.0
 40
0.0
 40
0.0
 40
0.0
 40
0.1055882996
 40
0.2142679225
 40
0.3282255071
 40
0.4491441132
 40
0.7124887302
 40
1.0
 40
1.0
 40
1.0
 40
1.0
 10
31.3218068595
 20
5.5706398759
 30
0.0
 10
31.3425938552
 20
5.5706398759
 30
0.0
 10
31.3849381522
 20
5.5758425866
 30
0.0
 10
31.4459524503
 20
5.5986937688
 30
0.0
 10
31.5030167009
 20
5.6359325448
 30
0.0
 10
31.5734475403
 20
5.704958082
 30
0.0
 10
31.6414102019
 20
5.821188027
 30
0.0
 10
31.6683310141
 20
5.9276611987
 30
0.0
 10
31.6754327215
 20
5.9838157871
 30
0.0
  0
LINE
  5
2F6
100
AcDbEntity
  8
0
100
AcDbLine
 62
7
  6
BYLAYER
 10
24.4431432932
 20
8.5074639647
 11
24.7619832704
 21
5.9838157871
  0
LINE
  5
2F7
100
AcDbEntity
  8
0
100
AcDbLine
 62
7
  6
BYLAYER
 10
31.6754327215
 20
5.9838157871
 11
31.9942726987
 21
8.5074639647
  0
ENDSEC
  0
SECTION
  2
OBJECTS
  0
DICTIONARY
  5
C
100
AcDbDictionary
280
0
281
1
  3
ACAD_GROUP
350
D
  3
ACAD_MLINESTYLE
350
17
  3
ACAD_LAYOUT
350
1A
  3
ACAD_PLOTSETTINGS
350
19
  3
ACAD_PLOTSTYLENAME
350
E
  0
DICTIONARY
  5
D
102
{ACAD_REACTORS
330
C
102
}
100
AcDbDictionary
280
0
281
1
  0
ACDBDICTIONARYWDFLT
  5
E
102
{ACAD_REACTORS
330
C
102
}
100
AcDbDictionary
281
1
  3
Normal
350
F
100
AcDbDictionaryWithDefault
340
F
  0
DICTIONARY
  5
17
102
{ACAD_REACTORS
330
C
102
}
100
AcDbDictionary
280
0
281
1
  3
Standard
350
18
  0
DICTIONARY
  5
19
102
{ACAD_REACTORS
330
C
102
}
100
AcDbDictionary
281
1
  0
DICTIONARY
  5
1A
102
{ACAD_REACTORS
330
C
102
}
100
AcDbDictionary
281
1
  3
Model
350
2F8
  3
Layout1
350
2F9
  0
ACDBPLACEHOLDER
  5
F
102
{ACAD_REACTORS
330
E
102
}
  0
MLINESTYLE
  5
18
102
{ACAD_REACTORS
330
17
102
}
100
AcDbMlineStyle
  2
STANDARD
 70
0
  3

 62
256
 51
90.0
 52
90.0
 71
2
 49
0.5
 62
256
  6
BYLAYER
 49
-0.5
 62
256
  6
BYLAYER
  0
LAYOUT
  5
2F8
102
{ACAD_REACTORS
330
1A
102
}
100
AcDbPlotSettings
  1

  2
none_device
  4

  6

 40
0.0
 41
0.0
 42
0.0
 43
0.0
 44
210.0
 45
297.0
 46
0.0
 47
0.0
 48
0.0
 49
0.0
140
0.0
141
0.0
142
1.0
143
1.0
 70
1024
 72
1
 73
0
 74
0
  7

 75
0
147
1.0
148
0.0
149
0.0
100
AcDbLayout
  1
Model
 70
0
 71
0
 10
0.0
 20
0.0
 11
210.0
 21
297.0
 12
0.0
 22
0.0
 32
0.0
 14
0.0
 24
0.0
 34
0.0
 15
0.0
 25
0.0
 35
0.0
146
0.0
 13
0.0
 23
0.0
 33
0.0
 16
1.0
 26
0.0
 36
0.0
 17
0.0
 27
1.0
 37
0.0
 76
0
330
210
345
0
346
0
  0
LAYOUT
  5
2F9
102
{ACAD_REACTORS
330
1A
102
}
100
AcDbPlotSettings
  1

  2
none_device
  4

  6

 40
0.0
 41
0.0
 42
0.0
 43
0.0
 44
210.0
 45
297.0
 46
0.0
 47
0.0
 48
0.0
 49
0.0
140
0.0
141
0.0
142
1.0
143
1.0
 70
0
 72
1
 73
0
 74
0
  7

 75
0
147
1.0
148
0.0
149
0.0
100
AcDbLayout
  1
Layout1
 70
0
 71
1
 10
0.0
 20
0.0
 11
210.0
 21
297.0
 12
0.0
 22
0.0
 32
0.0
 14
0.0
 24
0.0
 34
0.0
 15
0.0
 25
0.0
 35
0.0
146
0.0
 13
0.0
 23
0.0
 33
0.0
 16
1.0
 26
0.0
 36
0.0
 17
0.0
 27
1.0
 37
0.0
 76
0
330
211
345
0
346
0
  0
ENDSEC
  0
EOF
