999
DXF file: C:\Users\sesa63760\Dev\_Creo\CAD\MCADID0003703_3D-CAD\drw0001_1.dxf
999
Pro/ENGINEER 2019471 by Parametric Technology Corporation
  0
SECTION
  2
HEADER
  9
$ACADVER
  1
AC1024
  9
$DWGCODEPAGE
  3
ANSI_1252
  9
$EXTMAX
 10
65.5038576281
 20
92.641170074
 30
0.0
  9
$EXTMIN
 10
0.0
 20
0.0
 30
0.0
  9
$LIMMIN
 10
0.0
 20
0.0
  9
$LIMMAX
 10
65.5038576281
 20
92.641170074
  9
$VIEWCTR
 10
32.751928814
 20
46.320585037
  9
$VIEWSIZE
 40
92.641170074
  9
$CLAYER
  8
0
  9
$LTSCALE
 40
6.038831827
  9
$CELTYPE
  6
BYLAYER
  9
$DIMSCALE
 40
1.0
  9
$DIMASZ
 40
0.7798078289
  9
$DIMEXO
 40
1.0
  9
$DIMDLI
 40
4.1722838078
  9
$DIMEXE
 40
1.0
  9
$DIMCEN
 40
0.9881724808
  9
$DIMLFAC
 40
1.0
  9
$DIMBLK
  1
_FILLED
  9
$DIMALT
 70
0
  9
$DIMALTF
 40
0.0393700787
  9
$DIMTXT
 40
1.0917309605
  9
$DIMTOL
 70
1
  9
$DIMLIM
 70
0
  9
$DIMTFAC
 40
1.0
  9
$DIMTP
 40
0.01
  9
$DIMTM
 40
0.01
  9
$DIMGAP
 40
0.625
  9
$DIMDSEP
 70
46
  9
$AUNITS
 70
0
  9
$PDMODE
 70
3
  9
$PDSIZE
 40
0.3125
  9
$HANDSEED
  5
29F
  9
$TILEMODE
 70
1
  9
$MEASUREMENT
 70
1
  9
$INSUNITS
 70
4
  0
ENDSEC
  0
SECTION
  2
CLASSES
  0
CLASS
  1
ACDBDICTIONARYWDFLT
  2
AcDbDictionaryWithDefault
  3
AutoCAD 2000
 90
0
 91
1
280
0
281
0
  0
CLASS
  1
ACDBPLACEHOLDER
  2
AcDbPlaceHolder
  3
AutoCAD 2000
 90
0
 91
1
280
0
281
0
  0
CLASS
  1
LAYOUT
  2
AcDbLayout
  3
AutoCAD 2000
 90
0
 91
0
280
0
281
0
  0
ENDSEC
  0
SECTION
  2
TABLES
  0
TABLE
  2
VPORT
  5
8
100
AcDbSymbolTable
 70
2
  0
VPORT
  5
1F4
100
AcDbSymbolTableRecord
100
AcDbViewportTableRecord
  2
*ACTIVE
 70
0
 10
0.0
 20
0.0
 11
1.0
 21
1.0
 12
32.751928814
 22
46.320585037
 13
0.0
 23
0.0
 14
1.0
 24
1.0
 15
0.0
 25
0.0
 16
0.0
 26
0.0
 36
1.0
 17
0.0
 27
0.0
 37
0.0
 40
92.641170074
 41
0.7070707071
 42
50.0
 43
0.0
 44
0.0
 50
0.0
 51
0.0
 71
0
 72
100
 73
1
 74
1
 75
0
 76
0
 77
0
 78
0
  0
ENDTAB
  0
TABLE
  2
LTYPE
  5
5
100
AcDbSymbolTable
 70
6
  0
LTYPE
  5
14
100
AcDbSymbolTableRecord
100
AcDbLinetypeTableRecord
  2
BYBLOCK
 70
0
  3

 72
65
 73
0
 40
0.0
  0
LTYPE
  5
15
100
AcDbSymbolTableRecord
100
AcDbLinetypeTableRecord
  2
BYLAYER
 70
0
  3

 72
65
 73
0
 40
0.0
  0
LTYPE
  5
16
100
AcDbSymbolTableRecord
100
AcDbLinetypeTableRecord
  2
CONTINUOUS
 70
64
  3
Solid line
 72
65
 73
0
 40
0.0
  0
LTYPE
  5
1F5
100
AcDbSymbolTableRecord
100
AcDbLinetypeTableRecord
  2
CENTER
 70
64
  3
____ _ ____ _ ____ _ ____ _ ____ _ ____ _ ____
 72
65
 73
4
 40
0.6
 49
0.375
 74
0
 49
-0.075
 74
0
 49
0.075
 74
0
 49
-0.075
 74
0
  0
LTYPE
  5
1F6
100
AcDbSymbolTableRecord
100
AcDbLinetypeTableRecord
  2
HIDDEN
 70
64
  3
- - - - - - - - - - - - - - - - - - - -
 72
65
 73
2
 40
0.2
 49
0.1
 74
0
 49
-0.1
 74
0
  0
LTYPE
  5
1F7
100
AcDbSymbolTableRecord
100
AcDbLinetypeTableRecord
  2
PHANTOM
 70
64
  3
_____ _ _ _____ _ _ _____ _ _ _____
 72
65
 73
6
 40
0.8
 49
0.45
 74
0
 49
-0.05
 74
0
 49
0.1
 74
0
 49
-0.05
 74
0
 49
0.1
 74
0
 49
-0.05
 74
0
  0
LTYPE
  5
1F8
100
AcDbSymbolTableRecord
100
AcDbLinetypeTableRecord
  2
DOT
 70
64
  3
. . . . . . . . . . . . . . . . . . . .
 72
65
 73
2
 40
0.2
 49
0.1
 74
0
 49
-0.1
 74
0
  0
LTYPE
  5
1F9
100
AcDbSymbolTableRecord
100
AcDbLinetypeTableRecord
  2
DASHED
 70
64
  3
- - - - - - - - - - - - - - - - - - - -
 72
65
 73
2
 40
0.2
 49
0.1
 74
0
 49
-0.1
 74
0
  0
ENDTAB
  0
TABLE
  2
LAYER
  5
2
100
AcDbSymbolTable
 70
36
  0
LAYER
  5
10
100
AcDbSymbolTableRecord
100
AcDbLayerTableRecord
  2
0
 70
0
 62
7
  6
CONTINUOUS
370
-3
390
F
  0
LAYER
  5
1FA
100
AcDbSymbolTableRecord
100
AcDbLayerTableRecord
  2
DEFAULT_1
 70
0
 62
7
  6
CENTER
370
-3
390
F
  0
LAYER
  5
1FB
100
AcDbSymbolTableRecord
100
AcDbLayerTableRecord
  2
DEFAULT_2
 70
0
 62
7
  6
HIDDEN
370
-3
390
F
  0
LAYER
  5
1FC
100
AcDbSymbolTableRecord
100
AcDbLayerTableRecord
  2
DEFAULT_3
 70
0
 62
7
  6
PHANTOM
370
-3
390
F
  0
LAYER
  5
1FD
100
AcDbSymbolTableRecord
100
AcDbLayerTableRecord
  2
00_COMPONENTS
 70
0
 62
7
  6
CONTINUOUS
370
-3
390
F
  0
LAYER
  5
1FE
100
AcDbSymbolTableRecord
100
AcDbLayerTableRecord
  2
01_1_DEFAULT_DATUMS
 70
0
 62
7
  6
CONTINUOUS
370
-3
390
F
  0
LAYER
  5
1FF
100
AcDbSymbolTableRecord
100
AcDbLayerTableRecord
  2
01_PLANES
 70
0
 62
7
  6
CONTINUOUS
370
-3
390
F
  0
LAYER
  5
200
100
AcDbSymbolTableRecord
100
AcDbLayerTableRecord
  2
02_COORD_SYS
 70
0
 62
7
  6
CONTINUOUS
370
-3
390
F
  0
LAYER
  5
201
100
AcDbSymbolTableRecord
100
AcDbLayerTableRecord
  2
03_AXES
 70
0
 62
7
  6
CONTINUOUS
370
-3
390
F
  0
LAYER
  5
202
100
AcDbSymbolTableRecord
100
AcDbLayerTableRecord
  2
04_POINTS
 70
0
 62
7
  6
CONTINUOUS
370
-3
390
F
  0
LAYER
  5
203
100
AcDbSymbolTableRecord
100
AcDbLayerTableRecord
  2
05_CURVES
 70
0
 62
7
  6
CONTINUOUS
370
-3
390
F
  0
LAYER
  5
204
100
AcDbSymbolTableRecord
100
AcDbLayerTableRecord
  2
06_SURFS
 70
0
 62
7
  6
CONTINUOUS
370
-3
390
F
  0
LAYER
  5
205
100
AcDbSymbolTableRecord
100
AcDbLayerTableRecord
  2
07_COSMETICS
 70
0
 62
7
  6
CONTINUOUS
370
-3
390
F
  0
LAYER
  5
206
100
AcDbSymbolTableRecord
100
AcDbLayerTableRecord
  2
10_NOTES
 70
0
 62
7
  6
CONTINUOUS
370
-3
390
F
  0
LAYER
  5
207
100
AcDbSymbolTableRecord
100
AcDbLayerTableRecord
  2
11_NOTES_PUB
 70
0
 62
7
  6
CONTINUOUS
370
-3
390
F
  0
LAYER
  5
208
100
AcDbSymbolTableRecord
100
AcDbLayerTableRecord
  2
13_REF_GTOL
 70
0
 62
7
  6
CONTINUOUS
370
-3
390
F
  0
LAYER
  5
209
100
AcDbSymbolTableRecord
100
AcDbLayerTableRecord
  2
16_MISC
 70
0
 62
7
  6
CONTINUOUS
370
-3
390
F
  0
LAYER
  5
20A
100
AcDbSymbolTableRecord
100
AcDbLayerTableRecord
  2
17_NO_PRINT
 70
0
 62
7
  6
CONTINUOUS
370
-3
390
F
  0
LAYER
  5
20B
100
AcDbSymbolTableRecord
100
AcDbLayerTableRecord
  2
18_DATUM_CAMS_JOINTS
 70
0
 62
7
  6
CONTINUOUS
370
-3
390
F
  0
LAYER
  5
20C
100
AcDbSymbolTableRecord
100
AcDbLayerTableRecord
  2
19_DATUM_FUNCTIONAL
 70
0
 62
7
  6
CONTINUOUS
370
-3
390
F
  0
LAYER
  5
20D
100
AcDbSymbolTableRecord
100
AcDbLayerTableRecord
  2
20_DATUM_KINEMATIC_SCHEME
 70
0
 62
7
  6
CONTINUOUS
370
-3
390
F
  0
ENDTAB
  0
TABLE
  2
STYLE
  5
3
100
AcDbSymbolTable
 70
1
  0
STYLE
  5
11
100
AcDbSymbolTableRecord
100
AcDbTextStyleTableRecord
  2
STANDARD
 70
0
 40
0.0
 41
1.0
 50
0.0
 71
0
 42
0.2
  3
ARIAL.TTF
  4

  0
STYLE
  5
20E
100
AcDbSymbolTableRecord
100
AcDbTextStyleTableRecord
  2
TEXTSTYLE_1
 70
0
 40
0.0
 41
0.8
 50
0.0
 71
0
 42
0.2
  3
gdt
  4

  0
ENDTAB
  0
TABLE
  2
VIEW
  5
6
100
AcDbSymbolTable
 70
0
  0
ENDTAB
  0
TABLE
  2
UCS
  5
7
100
AcDbSymbolTable
 70
0
  0
ENDTAB
  0
TABLE
  2
APPID
  5
9
100
AcDbSymbolTable
 70
1
  0
APPID
  5
20F
100
AcDbSymbolTableRecord
100
AcDbRegAppTableRecord
  2
ACAD
 70
0
  0
ENDTAB
  0
TABLE
  2
BLOCK_RECORD
  5
1
100
AcDbSymbolTable
 70
0
  0
BLOCK_RECORD
  5
210
100
AcDbSymbolTableRecord
100
AcDbBlockTableRecord
  2
*Model_Space
  0
BLOCK_RECORD
  5
211
100
AcDbSymbolTableRecord
100
AcDbBlockTableRecord
  2
*Paper_Space
  0
BLOCK_RECORD
  5
212
100
AcDbSymbolTableRecord
100
AcDbBlockTableRecord
  2
_FILLED
  0
ENDTAB
  0
TABLE
  2
DIMSTYLE
  5
A
100
AcDbSymbolTable
 70
1
100
AcDbDimStyleTable
 71
0
  0
DIMSTYLE
105
213
100
AcDbSymbolTableRecord
100
AcDbDimStyleTableRecord
  2
STANDARD
 70
0
  3

  4

 40
1.0
 41
0.7798078289
 42
1.0
 43
0.38
 44
1.0
 45
0.0
 46
0.0
 47
0.01
 48
0.01
140
1.0917309605
141
0.09
142
0.0
143
25.4
144
1.0
145
0.0
146
1.0
147
0.625
 71
1
 72
0
 73
0
 74
0
 75
0
 76
0
 77
1
 78
8
 79
2
170
0
171
1
172
0
173
0
174
0
175
0
176
0
177
0
178
0
270
2
179
2
271
2
272
2
273
2
274
2
275
0
280
0
281
0
282
0
283
1
284
8
285
0
286
0
287
3
288
0
340
11
278
46
341
212
342
212
343
212
344
212
  0
ENDTAB
  0
ENDSEC
  0
SECTION
  2
BLOCKS
  0
BLOCK
  5
20
100
AcDbEntity
  8
0
100
AcDbBlockBegin
  2
*Model_Space
 70
0
 10
0.0
 20
0.0
 30
0.0
  3
*Model_Space
  1

  0
ENDBLK
  5
21
100
AcDbEntity
  8
0
100
AcDbBlockEnd
  0
BLOCK
  5
1C
100
AcDbEntity
  8
0
100
AcDbBlockBegin
  2
*Paper_Space
 70
0
 10
0.0
 20
0.0
 30
0.0
  3
*Paper_Space
  1

  0
ENDBLK
  5
1D
100
AcDbEntity
  8
0
100
AcDbBlockEnd
  0
BLOCK
  5
214
100
AcDbEntity
  8
0
100
AcDbBlockBegin
  2
_FILLED
 70
64
 10
0.0
 20
0.0
  3
_FILLED
  1

  0
SOLID
  5
215
100
AcDbEntity
  8
0
  6
BYBLOCK
 62
0
100
AcDbTrace
 10
0.0
 20
0.0
 11
-1.0
 21
0.25
 12
-1.0
 22
-0.25
 13
-1.0
 23
-0.25
  0
ENDBLK
  5
216
100
AcDbEntity
  8
0
  6
BYBLOCK
 62
0
100
AcDbBlockEnd
  0
ENDSEC
  0
SECTION
  2
ENTITIES
  0
LINE
  5
217
100
AcDbEntity
  8
0
100
AcDbLine
 62
7
  6
BYLAYER
 10
8.6347609426
 20
55.1667700023
 11
10.048968617
 21
55.98325831
  0
LINE
  5
218
100
AcDbEntity
  8
0
100
AcDbLine
 62
7
  6
BYLAYER
 10
11.1347497504
 20
54.9191486072
 11
12.5489574248
 21
55.735636915
  0
LINE
  5
219
100
AcDbEntity
  8
0
100
AcDbLine
 62
7
  6
BYLAYER
 10
20.6807310399
 20
49.4078984212
 11
20.6807310399
 21
47.7748935869
  0
LINE
  5
21A
100
AcDbEntity
  8
0
100
AcDbLine
 62
7
  6
BYLAYER
 10
11.1347497504
 20
48.7953804787
 11
12.5489574248
 21
49.6118687865
  0
LINE
  5
21B
100
AcDbEntity
  8
0
100
AcDbLine
 62
7
  6
BYLAYER
 10
22.0949387143
 20
50.2243867289
 11
22.0949387143
 21
48.5913818947
  0
LINE
  5
21C
100
AcDbEntity
  8
0
100
AcDbLine
 62
7
  6
BYLAYER
 10
22.8020602153
 20
46.5501713234
 11
22.8020602153
 21
46.9584225319
  0
LINE
  5
21D
100
AcDbEntity
  8
0
100
AcDbLine
 62
7
  6
BYLAYER
 10
50.6319327901
 20
64.9135968563
 11
46.9142975315
 21
63.4106951668
  0
LINE
  5
21E
100
AcDbEntity
  8
0
100
AcDbLine
 62
7
  6
BYLAYER
 10
42.954687382
 20
28.3832904825
 11
11.1347497504
 21
46.7541244359
  0
LINE
  5
21F
100
AcDbEntity
  8
0
100
AcDbLine
 62
7
  6
BYLAYER
 10
16.0845060505
 20
47.5706650139
 11
14.6702983761
 21
46.7541767061
  0
LINE
  5
220
100
AcDbEntity
  8
0
100
AcDbLine
 62
7
  6
BYLAYER
 10
22.0949387143
 20
50.2243867289
 11
20.6807310399
 21
49.4078984212
  0
LINE
  5
221
100
AcDbEntity
  8
0
100
AcDbLine
 62
7
  6
BYLAYER
 10
11.1347497504
 20
48.7953804787
 11
14.6702983761
 21
46.7541767061
  0
LINE
  5
222
100
AcDbEntity
  8
0
100
AcDbLine
 62
7
  6
BYLAYER
 10
39.4191387563
 20
32.4657502979
 11
42.954687382
 21
30.4245465253
  0
LINE
  5
223
100
AcDbEntity
  8
0
100
AcDbLine
 62
7
  6
BYLAYER
 10
31.9590513745
 20
54.7763313124
 11
46.9142975315
 21
63.4106951668
  0
LINE
  5
224
100
AcDbEntity
  8
0
100
AcDbLine
 62
7
  6
BYLAYER
 10
24.5698198083
 20
50.0202889594
 11
31.6762133723
 21
54.1231427058
  0
LINE
  5
225
100
AcDbEntity
  8
0
100
AcDbLine
 62
7
  6
BYLAYER
 10
22.0949387143
 20
48.5913818947
 11
20.6807310399
 21
47.7748935869
  0
LINE
  5
226
100
AcDbEntity
  8
0
100
AcDbLine
 62
7
  6
BYLAYER
 10
12.5489574248
 20
49.6118687865
 11
16.0845060505
 21
47.5706650139
  0
LINE
  5
227
100
AcDbEntity
  8
0
100
AcDbLine
 62
7
  6
BYLAYER
 10
40.8333464307
 20
33.2822386057
 11
44.3688950564
 21
31.2410348331
  0
LINE
  5
228
100
AcDbEntity
  8
0
100
AcDbLine
 62
7
  6
BYLAYER
 10
26.8447177335
 20
42.6508311593
 11
25.6361340579
 21
45.3222062521
  0
LINE
  5
229
100
AcDbEntity
  8
0
100
AcDbLine
 62
7
  6
BYLAYER
 10
25.806844858
 20
45.3869469481
 11
27.0154285336
 21
42.7155718552
  0
LINE
  5
22A
100
AcDbEntity
  8
0
100
AcDbLine
 62
7
  6
BYLAYER
 10
31.9590513745
 20
54.7763313124
 11
31.6762133723
 21
54.1231427058
  0
LINE
  5
22B
100
AcDbEntity
  8
0
100
AcDbLine
 62
7
  6
BYLAYER
 10
38.5704881498
 20
56.3889048985
 11
48.8234937894
 21
62.3084451296
  0
LINE
  5
22C
100
AcDbEntity
  8
0
100
AcDbLine
 62
7
  6
BYLAYER
 10
39.9847320386
 20
55.5724092802
 11
48.8234937894
 21
60.6754402953
  0
LINE
  5
22D
100
AcDbEntity
  8
0
100
AcDbLine
 62
7
  6
BYLAYER
 10
42.954687382
 20
34.507058611
 11
39.4191387563
 21
36.5482623836
  0
LINE
  5
22E
100
AcDbEntity
  8
0
100
AcDbLine
 62
7
  6
BYLAYER
 10
14.6702983761
 20
50.8366887918
 11
11.1347497504
 21
52.8778925644
  0
LINE
  5
22F
100
AcDbEntity
  8
0
100
AcDbLine
 62
7
  6
BYLAYER
 10
20.6807310399
 20
47.7748935869
 11
22.8020602153
 21
46.5501713234
  0
LINE
  5
230
100
AcDbEntity
  8
0
100
AcDbLine
 62
7
  6
BYLAYER
 10
31.2873769171
 20
41.6512822691
 11
33.4087060925
 21
40.4265600056
  0
LINE
  5
231
100
AcDbEntity
  8
0
100
AcDbLine
 62
7
  6
BYLAYER
 10
22.8020602153
 20
46.9584225319
 11
25.6361340579
 21
45.3222062521
  0
LINE
  5
232
100
AcDbEntity
  8
0
100
AcDbLine
 62
7
  6
BYLAYER
 10
28.4533030744
 20
43.6957497575
 11
31.2873769171
 21
42.0595334777
  0
LINE
  5
233
100
AcDbEntity
  8
0
100
AcDbLine
 62
7
  6
BYLAYER
 10
31.2873769171
 20
41.6512822691
 11
31.2873769171
 21
42.0595334777
  0
LINE
  5
234
100
AcDbEntity
  8
0
100
AcDbLine
 62
7
  6
BYLAYER
 10
30.0503518674
 20
46.6928754891
 11
30.550949385
 21
48.3774261457
  0
LINE
  5
235
100
AcDbEntity
  8
0
100
AcDbLine
 62
7
  6
BYLAYER
 10
30.7216601851
 20
48.4421668416
 11
30.2210626674
 21
46.757616185
  0
LINE
  5
236
100
AcDbEntity
  8
0
100
AcDbLine
 62
7
  6
BYLAYER
 10
27.0154285336
 20
42.7155718552
 11
30.3509485523
 21
48.492894068
  0
LINE
  5
237
100
AcDbEntity
  8
0
100
AcDbLine
 62
7
  6
BYLAYER
 10
27.2154293662
 20
42.6001039329
 11
30.550949385
 21
48.3774261457
  0
LINE
  5
238
100
AcDbEntity
  8
0
100
AcDbLine
 62
7
  6
BYLAYER
 10
52.3420003531
 20
62.8172849969
 11
53.1879669258
 21
63.4113046889
  0
LINE
  5
239
100
AcDbEntity
  8
0
100
AcDbLine
 62
7
  6
BYLAYER
 10
56.2491494023
 20
61.6439701445
 11
55.2217888493
 21
61.1562744222
  0
LINE
  5
23A
100
AcDbEntity
  8
0
100
AcDbLine
 62
7
  6
BYLAYER
 10
22.0949387143
 20
48.5913818947
 11
23.0488110148
 21
48.0406759238
  0
LINE
  5
23B
100
AcDbEntity
  8
0
100
AcDbLine
 62
7
  6
BYLAYER
 10
11.1347497504
 20
54.9191486072
 11
20.6807310399
 21
49.4078984212
  0
LINE
  5
23C
100
AcDbEntity
  8
0
100
AcDbLine
 62
7
  6
BYLAYER
 10
32.7015845915
 20
42.4677705769
 11
42.954687382
 21
36.5483146538
  0
LINE
  5
23D
100
AcDbEntity
  8
0
100
AcDbLine
 62
7
  6
BYLAYER
 10
12.5489574248
 20
55.735636915
 11
22.0949387143
 21
50.2243867289
  0
LINE
  5
23E
100
AcDbEntity
  8
0
100
AcDbLine
 62
7
  6
BYLAYER
 10
34.8229137669
 20
42.8760531476
 11
44.3688950564
 21
37.3648029615
  0
LINE
  5
23F
100
AcDbEntity
  8
0
100
AcDbLine
 62
7
  6
BYLAYER
 10
32.7015845915
 20
42.8760217854
 11
32.7015845915
 21
42.4677705769
  0
LINE
  5
240
100
AcDbEntity
  8
0
100
AcDbLine
 62
7
  6
BYLAYER
 10
33.4087060925
 20
40.4265600056
 11
33.4087060925
 21
42.0595648398
  0
LINE
  5
241
100
AcDbEntity
  8
0
100
AcDbLine
 62
7
  6
BYLAYER
 10
27.2154293662
 20
42.6001039329
 11
28.4240130418
 21
43.8759583758
  0
LINE
  5
242
100
AcDbEntity
  8
0
100
AcDbLine
 62
7
  6
BYLAYER
 10
28.4533030744
 20
43.6957497575
 11
27.2447193989
 21
42.4198953146
  0
LINE
  5
243
100
AcDbEntity
  8
0
100
AcDbLine
 62
7
  6
BYLAYER
 10
54.3389496456
 20
59.1241672443
 11
44.085944006
 21
53.2046270132
  0
LINE
  5
244
100
AcDbEntity
  8
0
100
AcDbLine
 62
7
  6
BYLAYER
 10
41.2928997464
 20
47.7545485185
 11
40.1615300741
 21
47.5912488173
  0
LINE
  5
245
100
AcDbEntity
  8
0
100
AcDbLine
 62
7
  6
BYLAYER
 10
33.0551365101
 20
45.1213999052
 11
30.2210626674
 21
46.757616185
  0
LINE
  5
246
100
AcDbEntity
  8
0
100
AcDbLine
 62
7
  6
BYLAYER
 10
27.403893651
 20
48.3840726796
 11
24.5698198083
 21
50.0202889594
  0
LINE
  5
247
100
AcDbEntity
  8
0
100
AcDbLine
 62
7
  6
BYLAYER
 10
33.0551365101
 20
45.1213999052
 11
40.1615300741
 21
49.2242536516
  0
LINE
  5
248
100
AcDbEntity
  8
0
100
AcDbLine
 62
7
  6
BYLAYER
 10
41.2928997464
 20
49.3875533528
 11
56.2481459035
 21
58.0219172071
  0
LINE
  5
249
100
AcDbEntity
  8
0
100
AcDbLine
 62
7
  6
BYLAYER
 10
40.1615300741
 20
49.2242536516
 11
41.2928997464
 21
49.3875533528
  0
LINE
  5
24A
100
AcDbEntity
  8
0
100
AcDbLine
 62
7
  6
BYLAYER
 10
27.4331836836
 20
48.2038640614
 11
30.3509485523
 21
48.492894068
  0
LINE
  5
24B
100
AcDbEntity
  8
0
100
AcDbLine
 62
7
  6
BYLAYER
 10
33.0551365101
 20
43.4883950709
 11
40.1615300741
 21
47.5912488173
  0
LINE
  5
24C
100
AcDbEntity
  8
0
100
AcDbLine
 62
7
  6
BYLAYER
 10
56.2481459035
 20
56.3889123729
 11
41.2928997464
 21
47.7545485185
  0
LINE
  5
24D
100
AcDbEntity
  8
0
100
AcDbLine
 62
7
  6
BYLAYER
 10
32.7015845915
 20
42.4677705769
 11
31.2873769171
 21
41.6512822691
  0
LINE
  5
24E
100
AcDbEntity
  8
0
100
AcDbLine
 62
7
  6
BYLAYER
 10
34.8229137669
 20
42.8760531476
 11
33.4087060925
 21
42.0595648398
  0
LINE
  5
24F
100
AcDbEntity
  8
0
100
AcDbLine
 62
7
  6
BYLAYER
 10
27.403893651
 20
48.3840726796
 11
30.3216585197
 21
48.6731026863
  0
LINE
  5
250
100
AcDbEntity
  8
0
100
AcDbLine
 62
7
  6
BYLAYER
 10
56.2481459035
 20
58.0219172071
 11
58.8512542466
 21
60.1682767544
  0
LINE
  5
251
100
AcDbEntity
  8
0
100
AcDbLine
 62
7
  6
BYLAYER
 10
40.1615300741
 20
49.2242536516
 11
40.1615300741
 21
47.5912488173
  0
LINE
  5
252
100
AcDbEntity
  8
0
100
AcDbLine
 62
7
  6
BYLAYER
 10
41.2928997464
 20
49.3875533528
 11
41.2928997464
 21
47.7545485185
  0
LINE
  5
253
100
AcDbEntity
  8
0
100
AcDbLine
 62
7
  6
BYLAYER
 10
52.2510059965
 20
62.6706164835
 11
52.3420003531
 21
62.8172849969
  0
LINE
  5
254
100
AcDbEntity
  8
0
100
AcDbLine
 62
7
  6
BYLAYER
 10
53.1879669258
 20
63.4113046889
 11
53.2802148293
 21
63.5588504141
  0
LINE
  5
255
100
AcDbEntity
  8
0
100
AcDbLine
 62
7
  6
BYLAYER
 10
58.8512542466
 20
58.5352719201
 11
56.2481459035
 21
56.3889123729
  0
LINE
  5
256
100
AcDbEntity
  8
0
100
AcDbLine
 62
7
  6
BYLAYER
 10
44.085944006
 20
53.2046270132
 11
38.5704881498
 21
56.3889048985
  0
LINE
  5
257
100
AcDbEntity
  8
0
100
AcDbLine
 62
7
  6
BYLAYER
 10
44.3688950564
 20
37.3648029615
 11
42.954687382
 21
36.5483146538
  0
LINE
  5
258
100
AcDbEntity
  8
0
100
AcDbLine
 62
7
  6
BYLAYER
 10
48.8234937894
 20
62.3084451296
 11
48.8234937894
 21
60.6754402953
  0
LINE
  5
259
100
AcDbEntity
  8
0
100
AcDbLine
 62
7
  6
BYLAYER
 10
58.8512542466
 20
60.1682767544
 11
58.9235353172
 21
60.3007359363
  0
LINE
  5
25A
100
AcDbEntity
  8
0
100
AcDbLine
 62
7
  6
BYLAYER
 10
58.9235353172
 20
58.6677311021
 11
58.8512542466
 21
58.5352719201
  0
LINE
  5
25B
100
AcDbEntity
  8
0
100
AcDbLine
 62
7
  6
BYLAYER
 10
39.4191387563
 20
32.4657502979
 11
40.8333464307
 21
33.2822386057
  0
LINE
  5
25C
100
AcDbEntity
  8
0
100
AcDbLine
 62
7
  6
BYLAYER
 10
52.3420003531
 20
62.5446220243
 11
52.3420003531
 21
62.8172849969
  0
LINE
  5
25D
100
AcDbEntity
  8
0
100
AcDbLine
 62
7
  6
BYLAYER
 10
44.3688950564
 20
31.2410348331
 11
42.954687382
 21
30.4245465253
  0
LINE
  5
25E
100
AcDbEntity
  8
0
100
AcDbLine
 62
7
  6
BYLAYER
 10
53.1892162072
 20
63.4121819077
 11
53.1892162072
 21
62.0332752876
  0
LINE
  5
25F
100
AcDbEntity
  8
0
100
AcDbLine
 62
7
  6
BYLAYER
 10
53.2802449552
 20
61.9807210044
 11
53.2802449552
 21
63.5588503776
  0
LINE
  5
260
100
AcDbEntity
  8
0
100
AcDbLine
 62
7
  6
BYLAYER
 10
48.8234937894
 20
60.6754402953
 11
52.9247057568
 21
58.3076580284
  0
LINE
  5
261
100
AcDbEntity
  8
0
100
AcDbLine
 62
7
  6
BYLAYER
 10
56.2481459035
 20
56.3889123729
 11
56.2481459035
 21
58.0219172071
  0
LINE
  5
262
100
AcDbEntity
  8
0
100
AcDbLine
 62
7
  6
BYLAYER
 10
45.4546761898
 20
28.1356690874
 11
46.8688838642
 21
28.9521573952
  0
LINE
  5
263
100
AcDbEntity
  8
0
100
AcDbLine
 62
7
  6
BYLAYER
 10
48.8234937894
 20
62.3084451296
 11
54.3389496456
 21
59.1241672443
  0
LINE
  5
264
100
AcDbEntity
  8
0
100
AcDbLine
 62
7
  6
BYLAYER
 10
52.3681300703
 20
62.5073188655
 11
54.6833844694
 21
61.1706363547
  0
LINE
  5
265
100
AcDbEntity
  8
0
100
AcDbLine
 62
7
  6
BYLAYER
 10
58.8512542466
 20
60.1682767544
 11
58.8512542466
 21
58.5352719201
  0
LINE
  5
266
100
AcDbEntity
  8
0
100
AcDbLine
 62
7
  6
BYLAYER
 10
58.8064340085
 20
60.4640335386
 11
56.7875537822
 21
61.629608212
  0
LINE
  5
267
100
AcDbEntity
  8
0
100
AcDbLine
 62
7
  6
BYLAYER
 10
53.1630864901
 20
63.7221480392
 11
51.1442062637
 21
64.8877227125
  0
LINE
  5
268
100
AcDbEntity
  8
0
100
AcDbLine
 62
7
  6
BYLAYER
 10
52.3695209946
 20
62.5065158331
 11
52.2510059965
 21
62.6706164835
  0
LINE
  5
269
100
AcDbEntity
  8
0
100
AcDbLine
 62
7
  6
BYLAYER
 10
58.9235924736
 20
58.6677310428
 11
58.9235924736
 21
60.3007358771
  0
LINE
  5
26A
100
AcDbEntity
  8
0
100
AcDbLine
 62
7
  6
BYLAYER
 10
53.2802148293
 20
63.5588504141
 11
53.1630864901
 21
63.7221480392
  0
SPLINE
  5
26B
100
AcDbEntity
  8
0
100
AcDbSpline
 62
7
  6
BYLAYER
 70
0
 71
3
 72
9
 73
5
 74
0
 42
0.0000001
 43
0.0000001
 44
0.0000000001
 40
0.0
 40
0.0
 40
0.0
 40
0.0
 40
0.2411581656
 40
1.0
 40
1.0
 40
1.0
 40
1.0
 10
39.0945902057
 20
36.6955790891
 30
0.0
 10
39.0897089697
 20
36.6676315013
 30
0.0
 10
39.0722708612
 20
36.5512594012
 30
0.0
 10
39.0655721178
 20
36.4333692353
 30
0.0
 10
39.0655721178
 20
36.3440965348
 30
0.0
  0
SPLINE
  5
26C
100
AcDbEntity
  8
0
100
AcDbSpline
 62
7
  6
BYLAYER
 70
0
 71
3
 72
13
 73
9
 74
0
 42
0.0000001
 43
0.0000001
 44
0.0000000001
 40
0.0
 40
0.0
 40
0.0
 40
0.0
 40
0.1080947724
 40
0.2182340858
 40
0.3322580584
 40
0.4516863355
 40
0.7106233083
 40
1.0
 40
1.0
 40
1.0
 40
1.0
 10
38.1691535408
 20
36.6720571662
 30
0.0
 10
38.2101405926
 20
36.6957209118
 30
0.0
 10
38.297156765
 20
36.7364975905
 30
0.0
 10
38.437978825
 20
36.7753897705
 30
0.0
 10
38.5880760366
 20
36.7921573314
 30
0.0
 10
38.8041910334
 20
36.7846525499
 30
0.0
 10
39.0913317481
 20
36.7154624643
 30
0.0
 10
39.3094133112
 20
36.6116109657
 30
0.0
 10
39.4191387563
 20
36.5482623836
 30
0.0
  0
SPLINE
  5
26D
100
AcDbEntity
  8
0
100
AcDbSpline
 62
7
  6
BYLAYER
 70
0
 71
3
 72
9
 73
5
 74
0
 42
0.0000001
 43
0.0000001
 44
0.0000000001
 40
0.0
 40
0.0
 40
0.0
 40
0.0
 40
0.2411581656
 40
1.0
 40
1.0
 40
1.0
 40
1.0
 10
10.8102011998
 20
53.0252092699
 30
0.0
 10
10.8053199639
 20
52.9972616822
 30
0.0
 10
10.7878818553
 20
52.880889582
 30
0.0
 10
10.7811831119
 20
52.7629994161
 30
0.0
 10
10.7811831119
 20
52.6737267156
 30
0.0
  0
SPLINE
  5
26E
100
AcDbEntity
  8
0
100
AcDbSpline
 62
7
  6
BYLAYER
 70
0
 71
3
 72
15
 73
11
 74
0
 42
0.0000001
 43
0.0000001
 44
0.0000000001
 40
0.0
 40
0.0
 40
0.0
 40
0.0
 40
0.148525705
 40
0.2895006365
 40
0.4227411389
 40
0.5486444378
 40
0.6679950214
 40
0.7819390827
 40
0.8919879708
 40
1.0
 40
1.0
 40
1.0
 40
1.0
 10
47.9044436821
 20
31.2410871033
 30
0.0
 10
47.9044436821
 20
31.1109233119
 30
0.0
 10
47.8939003054
 20
30.8570416686
 30
0.0
 10
47.843991077
 20
30.4893517637
 30
0.0
 10
47.7604689627
 20
30.1480465329
 30
0.0
 10
47.6441491807
 20
29.8364963467
 30
0.0
 10
47.4958023708
 20
29.5577180304
 30
0.0
 10
47.3167468826
 20
29.3144230145
 30
0.0
 10
47.1084477433
 20
29.1095011918
 30
0.0
 10
46.9508565871
 20
28.9994939429
 30
0.0
 10
46.8688795962
 20
28.9521647876
 30
0.0
  0
SPLINE
  5
26F
100
AcDbEntity
  8
0
100
AcDbSpline
 62
7
  6
BYLAYER
 70
0
 71
3
 72
15
 73
11
 74
0
 42
0.0000001
 43
0.0000001
 44
0.0000000001
 40
0.0
 40
0.0
 40
0.0
 40
0.0
 40
0.1141546703
 40
0.2373261017
 40
0.3669753162
 40
0.4999989361
 40
0.6330227034
 40
0.7626723508
 40
0.8858444607
 40
1.0
 40
1.0
 40
1.0
 40
1.0
 10
44.3688950564
 20
37.3648029615
 30
0.0
 10
44.6109316608
 20
37.2250662241
 30
0.0
 10
45.0889974103
 20
36.8899506824
 30
0.0
 10
45.7467902416
 20
36.2745404883
 30
0.0
 10
46.3529818752
 20
35.5470788731
 30
0.0
 10
46.8847397859
 20
34.7348552538
 30
0.0
 10
47.3222716813
 20
33.8682287074
 30
0.0
 10
47.649181798
 20
32.9795193825
 30
0.0
 10
47.8532528921
 20
32.1021455877
 30
0.0
 10
47.9044436821
 20
31.5205674478
 30
0.0
 10
47.9044436821
 20
31.2410871033
 30
0.0
  0
SPLINE
  5
270
100
AcDbEntity
  8
0
100
AcDbSpline
 62
7
  6
BYLAYER
 70
0
 71
3
 72
13
 73
9
 74
0
 42
0.0000001
 43
0.0000001
 44
0.0000000001
 40
0.0
 40
0.0
 40
0.0
 40
0.0
 40
0.1080947724
 40
0.2182340858
 40
0.3322580584
 40
0.4516863355
 40
0.7106233083
 40
1.0
 40
1.0
 40
1.0
 40
1.0
 10
9.8847645349
 20
53.001687347
 30
0.0
 10
9.9257515867
 20
53.0253510926
 30
0.0
 10
10.0127677592
 20
53.0661277714
 30
0.0
 10
10.1535898192
 20
53.1050199513
 30
0.0
 10
10.3036870307
 20
53.1217875123
 30
0.0
 10
10.5198020276
 20
53.1142827307
 30
0.0
 10
10.8069427423
 20
53.0450926451
 30
0.0
 10
11.0250243053
 20
52.9412411465
 30
0.0
 10
11.1347497504
 20
52.8778925644
 30
0.0
  0
SPLINE
  5
271
100
AcDbEntity
  8
0
100
AcDbSpline
 62
7
  6
BYLAYER
 70
0
 71
3
 72
15
 73
11
 74
0
 42
0.0000001
 43
0.0000001
 44
0.0000000001
 40
0.0
 40
0.0
 40
0.0
 40
0.0
 40
0.1141474765
 40
0.2373368178
 40
0.3669776594
 40
0.5000010819
 40
0.633024354
 40
0.7626647561
 40
0.8858534048
 40
1.0
 40
1.0
 40
1.0
 40
1.0
 10
10.7811831119
 20
52.6737267156
 30
0.0
 10
10.7811831119
 20
52.5339966723
 30
0.0
 10
10.8067950916
 20
52.2431992338
 30
0.0
 10
10.9088048198
 20
51.8045061172
 30
0.0
 10
11.0722958672
 20
51.3601549534
 30
0.0
 10
11.2910355089
 20
50.9268428271
 30
0.0
 10
11.55692663
 20
50.5207543859
 30
0.0
 10
11.8600014158
 20
50.1569941928
 30
0.0
 10
12.1889161012
 20
49.849308378
 30
0.0
 10
12.4279479075
 20
49.6817320833
 30
0.0
 10
12.5489574248
 20
49.6118687865
 30
0.0
  0
SPLINE
  5
272
100
AcDbEntity
  8
0
100
AcDbSpline
 62
7
  6
BYLAYER
 70
0
 71
3
 72
15
 73
11
 74
0
 42
0.0000001
 43
0.0000001
 44
0.0000000001
 40
0.0
 40
0.0
 40
0.0
 40
0.0
 40
0.1080125436
 40
0.2180618663
 40
0.332006219
 40
0.451356913
 40
0.5772601256
 40
0.7105003496
 40
0.8514748396
 40
1.0
 40
1.0
 40
1.0
 40
1.0
 10
10.048972885
 20
55.9832509176
 30
0.0
 10
10.1309480699
 20
56.0305790302
 30
0.0
 10
10.3050090362
 20
56.112050935
 30
0.0
 10
10.5866195412
 20
56.1899806576
 30
0.0
 10
10.8868394839
 20
56.2233999433
 30
0.0
 10
11.2024338481
 20
56.2124849549
 30
0.0
 10
11.5303954895
 20
56.1574496483
 30
0.0
 10
11.867726641
 20
56.0591349654
 30
0.0
 10
12.2111011025
 20
55.9185199955
 30
0.0
 10
12.4362350708
 20
55.8007157241
 30
0.0
 10
12.5489574248
 20
55.735636915
 30
0.0
  0
SPLINE
  5
273
100
AcDbEntity
  8
0
100
AcDbSpline
 62
7
  6
BYLAYER
 70
0
 71
3
 72
15
 73
11
 74
0
 42
0.0000001
 43
0.0000001
 44
0.0000000001
 40
0.0
 40
0.0
 40
0.0
 40
0.0
 40
0.1080120351
 40
0.2180609276
 40
0.3320049916
 40
0.4513555801
 40
0.5772588794
 40
0.7104993721
 40
0.8514742921
 40
1.0
 40
1.0
 40
1.0
 40
1.0
 10
8.6347652106
 20
55.1667626098
 30
0.0
 10
8.5527882108
 20
55.1194334594
 30
0.0
 10
8.3951970533
 20
55.0094261942
 30
0.0
 10
8.1868979039
 20
54.804504367
 30
0.0
 10
8.0078424103
 20
54.5612093402
 30
0.0
 10
7.8594956096
 20
54.2824310108
 30
0.0
 10
7.7431758317
 20
53.9708808272
 30
0.0
 10
7.6596537236
 20
53.6295756135
 30
0.0
 10
7.6097444935
 20
53.2618857246
 30
0.0
 10
7.5992011246
 20
53.0080040883
 30
0.0
 10
7.5992011246
 20
52.8778402942
 30
0.0
  0
SPLINE
  5
274
100
AcDbEntity
  8
0
100
AcDbSpline
 62
7
  6
BYLAYER
 70
0
 71
3
 72
9
 73
5
 74
0
 42
0.0000001
 43
0.0000001
 44
0.0000000001
 40
0.0
 40
0.0
 40
0.0
 40
0.0
 40
0.2589309717
 40
1.0
 40
1.0
 40
1.0
 40
1.0
 10
16.0845060505
 20
47.5706650139
 30
0.0
 10
16.1108833573
 20
47.5554364132
 30
0.0
 10
16.2138832551
 20
47.4986273529
 30
0.0
 10
16.321513885
 20
47.4500163476
 30
0.0
 10
16.4033793097
 20
47.420069138
 30
0.0
  0
SPLINE
  5
275
100
AcDbEntity
  8
0
100
AcDbSpline
 62
7
  6
BYLAYER
 70
0
 71
3
 72
15
 73
11
 74
0
 42
0.0000001
 43
0.0000001
 44
0.0000000001
 40
0.0
 40
0.0
 40
0.0
 40
0.0
 40
0.1141474765
 40
0.2373368178
 40
0.3669776594
 40
0.5000010819
 40
0.633024354
 40
0.7626647561
 40
0.8858534048
 40
1.0
 40
1.0
 40
1.0
 40
1.0
 10
39.0655721178
 20
36.3440965348
 30
0.0
 10
39.0655721178
 20
36.2043664915
 30
0.0
 10
39.0911840975
 20
35.913569053
 30
0.0
 10
39.1931938257
 20
35.4748759363
 30
0.0
 10
39.356684873
 20
35.0305247726
 30
0.0
 10
39.5754245148
 20
34.5972126463
 30
0.0
 10
39.8413156359
 20
34.1911242051
 30
0.0
 10
40.1443904217
 20
33.827364012
 30
0.0
 10
40.4733051071
 20
33.5196781972
 30
0.0
 10
40.7123369134
 20
33.3521019025
 30
0.0
 10
40.8333464307
 20
33.2822386057
 30
0.0
  0
SPLINE
  5
276
100
AcDbEntity
  8
0
100
AcDbSpline
 62
7
  6
BYLAYER
 70
0
 71
3
 72
11
 73
7
 74
0
 42
0.0000001
 43
0.0000001
 44
0.0000000001
 40
0.0
 40
0.0
 40
0.0
 40
0.0
 40
0.2176504336
 40
0.4508373832
 40
0.7105818393
 40
1.0
 40
1.0
 40
1.0
 40
1.0
 10
58.9235823295
 20
60.3007359322
 30
0.0
 10
58.923586303
 20
60.3159615677
 30
0.0
 10
58.9179556276
 20
60.3477086505
 30
0.0
 10
58.8938960236
 20
60.3919866518
 30
0.0
 10
58.8557888657
 20
60.4319465049
 30
0.0
 10
58.823967757
 20
60.4539106532
 30
0.0
 10
58.8064340085
 20
60.4640335386
 30
0.0
  0
SPLINE
  5
277
100
AcDbEntity
  8
0
100
AcDbSpline
 62
7
  6
BYLAYER
 70
0
 71
3
 72
9
 73
5
 74
0
 42
0.0000001
 43
0.0000001
 44
0.0000000001
 40
0.0
 40
0.0
 40
0.0
 40
0.0
 40
0.2589309717
 40
1.0
 40
1.0
 40
1.0
 40
1.0
 10
44.3688950564
 20
31.2410348331
 30
0.0
 10
44.3952723632
 20
31.2258062324
 30
0.0
 10
44.498272261
 20
31.1689971721
 30
0.0
 10
44.6059028909
 20
31.1203861668
 30
0.0
 10
44.6877683156
 20
31.0904389572
 30
0.0
  0
SPLINE
  5
278
100
AcDbEntity
  8
0
100
AcDbSpline
 62
7
  6
BYLAYER
 70
0
 71
3
 72
15
 73
11
 74
0
 42
0.0000001
 43
0.0000001
 44
0.0000000001
 40
0.0
 40
0.0
 40
0.0
 40
0.0
 40
0.1141475829
 40
0.2373370756
 40
0.3669780685
 40
0.5000016033
 40
0.6330249151
 40
0.7626652568
 40
0.8858537231
 40
1.0
 40
1.0
 40
1.0
 40
1.0
 10
22.8020602153
 20
46.9584225319
 30
0.0
 10
22.8020602153
 20
47.0981526219
 30
0.0
 10
22.8276719947
 20
47.3889501959
 30
0.0
 10
22.9296808576
 20
47.8276437284
 30
0.0
 10
23.0931705163
 20
48.2719956207
 30
0.0
 10
23.3119083013
 20
48.7053087555
 30
0.0
 10
23.5777971657
 20
49.111398442
 30
0.0
 10
23.8808693766
 20
49.4751600691
 30
0.0
 10
24.2097812637
 20
49.7828474552
 30
0.0
 10
24.4488112047
 20
49.9504250266
 30
0.0
 10
24.5698198083
 20
50.0202889594
 30
0.0
  0
SPLINE
  5
279
100
AcDbEntity
  8
0
100
AcDbSpline
 62
7
  6
BYLAYER
 70
0
 71
3
 72
15
 73
11
 74
0
 42
0.0000001
 43
0.0000001
 44
0.0000000001
 40
0.0
 40
0.0
 40
0.0
 40
0.0
 40
0.1485251574
 40
0.289499659
 40
0.4227398928
 40
0.5486431049
 40
0.667993794
 40
0.7819381439
 40
0.8919874623
 40
1.0
 40
1.0
 40
1.0
 40
1.0
 10
42.954687382
 20
28.3832904825
 30
0.0
 10
43.0674097337
 20
28.3182116747
 30
0.0
 10
43.2925437119
 20
28.2004074067
 30
0.0
 10
43.6359181864
 20
28.0597924273
 30
0.0
 10
43.9732493558
 20
27.9614777412
 30
0.0
 10
44.3012110016
 20
27.9064424369
 30
0.0
 10
44.6168053589
 20
27.895527463
 30
0.0
 10
44.9170252895
 20
27.9289467494
 30
0.0
 10
45.1986357856
 20
28.0068764655
 30
0.0
 10
45.3726967371
 20
28.0883483774
 30
0.0
 10
45.4546719218
 20
28.1356764799
 30
0.0
  0
SPLINE
  5
27A
100
AcDbEntity
  8
0
100
AcDbSpline
 62
7
  6
BYLAYER
 70
0
 71
3
 72
15
 73
11
 74
0
 42
0.0000001
 43
0.0000001
 44
0.0000000001
 40
0.0
 40
0.0
 40
0.0
 40
0.0
 40
0.1141555516
 40
0.2373276756
 40
0.3669773296
 40
0.5000011
 40
0.6330247168
 40
0.7626739247
 40
0.885845342
 40
1.0
 40
1.0
 40
1.0
 40
1.0
 10
7.5992011246
 20
52.8778402942
 30
0.0
 10
7.5992011246
 20
52.5983599196
 30
0.0
 10
7.6503919315
 20
52.0167817156
 30
0.0
 10
7.8544630553
 20
51.1394078444
 30
0.0
 10
8.1813732219
 20
50.2506984754
 30
0.0
 10
8.6189051465
 20
49.384071926
 30
0.0
 10
9.1506630693
 20
48.5718483336
 30
0.0
 10
9.7568546897
 20
47.8443867836
 30
0.0
 10
10.4146474696
 20
47.2289766534
 30
0.0
 10
10.8927131721
 20
46.8938611583
 30
0.0
 10
11.1347497504
 20
46.7541244359
 30
0.0
  0
SPLINE
  5
27B
100
AcDbEntity
  8
0
100
AcDbSpline
 62
7
  6
BYLAYER
 70
0
 71
3
 72
15
 73
11
 74
0
 42
0.0000001
 43
0.0000001
 44
0.0000000001
 40
0.0
 40
0.0
 40
0.0
 40
0.0
 40
0.1141465952
 40
0.2373352439
 40
0.366975646
 40
0.4999989181
 40
0.6330223406
 40
0.7626631822
 40
0.8858525235
 40
1.0
 40
1.0
 40
1.0
 40
1.0
 10
14.6702983761
 20
50.8366887918
 30
0.0
 10
14.7913078934
 20
50.7668254949
 30
0.0
 10
15.0303396997
 20
50.5992492003
 30
0.0
 10
15.3592543851
 20
50.2915633855
 30
0.0
 10
15.6623291709
 20
49.9278031924
 30
0.0
 10
15.928220292
 20
49.5217147512
 30
0.0
 10
16.1469599337
 20
49.0884026249
 30
0.0
 10
16.3104509811
 20
48.6440514611
 30
0.0
 10
16.4124607093
 20
48.2053583445
 30
0.0
 10
16.438072689
 20
47.914560906
 30
0.0
 10
16.438072689
 20
47.7748308627
 30
0.0
  0
SPLINE
  5
27C
100
AcDbEntity
  8
0
100
AcDbSpline
 62
7
  6
BYLAYER
 70
0
 71
3
 72
13
 73
9
 74
0
 42
0.0000001
 43
0.0000001
 44
0.0000000001
 40
0.0
 40
0.0
 40
0.0
 40
0.0
 40
0.2893776722
 40
0.5483149914
 40
0.6677431632
 40
0.7817668512
 40
0.8919057346
 40
1.0
 40
1.0
 40
1.0
 40
1.0
 10
16.438072689
 20
47.7748308627
 30
0.0
 10
16.438072689
 20
47.6481277264
 30
0.0
 10
16.4189716778
 20
47.4073305807
 30
0.0
 10
16.3353216114
 20
47.1240555332
 30
0.0
 10
16.2337618006
 20
46.9331363802
 30
0.0
 10
16.1441902839
 20
46.81152887
 30
0.0
 10
16.0400952454
 20
46.7090170606
 30
0.0
 10
15.9612715487
 20
46.6540461918
 30
0.0
 10
15.9202835916
 20
46.6303819235
 30
0.0
  0
SPLINE
  5
27D
100
AcDbEntity
  8
0
100
AcDbSpline
 62
7
  6
BYLAYER
 70
0
 71
3
 72
15
 73
11
 74
0
 42
0.0000001
 43
0.0000001
 44
0.0000000001
 40
0.0
 40
0.0
 40
0.0
 40
0.0
 40
0.1141465952
 40
0.2373352439
 40
0.366975646
 40
0.4999989181
 40
0.6330223406
 40
0.7626631822
 40
0.8858525235
 40
1.0
 40
1.0
 40
1.0
 40
1.0
 10
42.954687382
 20
34.507058611
 30
0.0
 10
43.0756968993
 20
34.4371953141
 30
0.0
 10
43.3147287056
 20
34.2696190195
 30
0.0
 10
43.643643391
 20
33.9619332047
 30
0.0
 10
43.9467181768
 20
33.5981730115
 30
0.0
 10
44.2126092979
 20
33.1920845704
 30
0.0
 10
44.4313489396
 20
32.758772444
 30
0.0
 10
44.594839987
 20
32.3144212803
 30
0.0
 10
44.6968497152
 20
31.8757281637
 30
0.0
 10
44.7224616949
 20
31.5849307252
 30
0.0
 10
44.7224616949
 20
31.4452006818
 30
0.0
  0
SPLINE
  5
27E
100
AcDbEntity
  8
0
100
AcDbSpline
 62
7
  6
BYLAYER
 70
0
 71
3
 72
13
 73
9
 74
0
 42
0.0000001
 43
0.0000001
 44
0.0000000001
 40
0.0
 40
0.0
 40
0.0
 40
0.0
 40
0.2893776722
 40
0.5483149914
 40
0.6677431632
 40
0.7817668512
 40
0.8919057346
 40
1.0
 40
1.0
 40
1.0
 40
1.0
 10
44.7224616949
 20
31.4452006818
 30
0.0
 10
44.7224616949
 20
31.3184975456
 30
0.0
 10
44.7033606837
 20
31.0777003999
 30
0.0
 10
44.6197106173
 20
30.7944253524
 30
0.0
 10
44.5181508065
 20
30.6035061994
 30
0.0
 10
44.4285792898
 20
30.4818986892
 30
0.0
 10
44.3244842513
 20
30.3793868798
 30
0.0
 10
44.2456605546
 20
30.324416011
 30
0.0
 10
44.2046725974
 20
30.3007517427
 30
0.0
  0
SPLINE
  5
27F
100
AcDbEntity
  8
0
100
AcDbSpline
 62
7
  6
BYLAYER
 70
0
 71
3
 72
11
 73
7
 74
0
 42
0.0000001
 43
0.0000001
 44
0.0000000001
 40
0.0
 40
0.0
 40
0.0
 40
0.0
 40
0.2327133696
 40
0.4901154221
 40
0.7527964819
 40
1.0
 40
1.0
 40
1.0
 40
1.0
 10
51.1442062637
 20
64.8877227125
 30
0.0
 10
51.1087711171
 20
64.9081807411
 30
0.0
 10
51.0272550326
 20
64.9395018679
 30
0.0
 10
50.8955149702
 20
64.9590031302
 30
0.0
 10
50.7599507782
 20
64.9524612441
 30
0.0
 10
50.6722290394
 20
64.9298871314
 30
0.0
 10
50.6319327901
 20
64.9135968563
 30
0.0
  0
SPLINE
  5
280
100
AcDbEntity
  8
0
100
AcDbSpline
 62
7
  6
BYLAYER
 70
0
 71
3
 72
11
 73
7
 74
0
 42
0.0000001
 43
0.0000001
 44
0.0000000001
 40
0.0
 40
0.0
 40
0.0
 40
0.0
 40
0.2427380951
 40
0.5055187771
 40
0.7653293286
 40
1.0
 40
1.0
 40
1.0
 40
1.0
 10
55.2217888493
 20
61.1562744222
 30
0.0
 10
55.1811623717
 20
61.13698873
 30
0.0
 10
55.090547164
 20
61.1090785445
 30
0.0
 10
54.9481798701
 20
61.0982688659
 30
0.0
 10
54.8081176216
 20
61.1163435408
 30
0.0
 10
54.7210368735
 20
61.1488982209
 30
0.0
 10
54.6833844694
 20
61.1706363547
 30
0.0
  0
SPLINE
  5
281
100
AcDbEntity
  8
0
100
AcDbSpline
 62
7
  6
BYLAYER
 70
0
 71
3
 72
11
 73
7
 74
0
 42
0.0000001
 43
0.0000001
 44
0.0000000001
 40
0.0
 40
0.0
 40
0.0
 40
0.0
 40
0.2346706714
 40
0.4944812229
 40
0.7572619049
 40
1.0
 40
1.0
 40
1.0
 40
1.0
 10
56.7875537822
 20
61.629608212
 30
0.0
 10
56.7499013781
 20
61.6513463458
 30
0.0
 10
56.66282063
 20
61.6839010258
 30
0.0
 10
56.5227583815
 20
61.7019757008
 30
0.0
 10
56.3803910876
 20
61.6911660222
 30
0.0
 10
56.2897758798
 20
61.6632558367
 30
0.0
 10
56.2491494023
 20
61.6439701445
 30
0.0
  0
SPLINE
  5
282
100
AcDbEntity
  8
0
100
AcDbSpline
 62
7
  6
BYLAYER
 70
0
 71
3
 72
13
 73
9
 74
0
 42
0.0000001
 43
0.0000001
 44
0.0000000001
 40
0.0
 40
0.0
 40
0.0
 40
0.0
 40
0.114176888
 40
0.2375715548
 40
0.5000017735
 40
0.762431024
 40
0.8858245003
 40
1.0
 40
1.0
 40
1.0
 40
1.0
 10
32.7015845915
 20
42.8760217854
 30
0.0
 10
32.7015845915
 20
42.9039497791
 30
0.0
 10
32.706731957
 20
42.9621153887
 30
0.0
 10
32.7344717905
 20
43.0815309346
 30
0.0
 10
32.7991065399
 20
43.2279668045
 30
0.0
 10
32.8936055578
 20
43.3571603173
 30
0.0
 10
32.9831516881
 20
43.4408911425
 30
0.0
 10
33.0309504161
 20
43.4744313064
 30
0.0
 10
33.0551365101
 20
43.4883950709
 30
0.0
  0
SPLINE
  5
283
100
AcDbEntity
  8
0
100
AcDbSpline
 62
7
  6
BYLAYER
 70
0
 71
3
 72
15
 73
11
 74
0
 42
0.0000001
 43
0.0000001
 44
0.0000000001
 40
0.0
 40
0.0
 40
0.0
 40
0.0
 40
0.1141555516
 40
0.2373276756
 40
0.3669773296
 40
0.5000011
 40
0.6330247168
 40
0.7626739247
 40
0.885845342
 40
1.0
 40
1.0
 40
1.0
 40
1.0
 10
46.4902360077
 20
30.4245987955
 30
0.0
 10
46.4902360077
 20
30.7040791702
 30
0.0
 10
46.4390452009
 20
31.2856573741
 30
0.0
 10
46.2349740771
 20
32.1630312453
 30
0.0
 10
45.9080639105
 20
33.0517406143
 30
0.0
 10
45.4705319859
 20
33.9183671637
 30
0.0
 10
44.9387740631
 20
34.7305907562
 30
0.0
 10
44.3325824427
 20
35.4580523061
 30
0.0
 10
43.6747896627
 20
36.0734624363
 30
0.0
 10
43.1967239603
 20
36.4085779314
 30
0.0
 10
42.954687382
 20
36.5483146538
 30
0.0
  0
SPLINE
  5
284
100
AcDbEntity
  8
0
100
AcDbSpline
 62
7
  6
BYLAYER
 70
0
 71
3
 72
15
 73
11
 74
0
 42
0.0000001
 43
0.0000001
 44
0.0000000001
 40
0.0
 40
0.0
 40
0.0
 40
0.0
 40
0.1485251574
 40
0.289499659
 40
0.4227398928
 40
0.5486431049
 40
0.667993794
 40
0.7819381439
 40
0.8919874623
 40
1.0
 40
1.0
 40
1.0
 40
1.0
 10
11.1347497504
 20
54.9191486072
 30
0.0
 10
11.0220273987
 20
54.984227415
 30
0.0
 10
10.7968934204
 20
55.1020316831
 30
0.0
 10
10.453518946
 20
55.2426466624
 30
0.0
 10
10.1161877765
 20
55.3409613485
 30
0.0
 10
9.7882261308
 20
55.3959966528
 30
0.0
 10
9.4726317735
 20
55.4069116267
 30
0.0
 10
9.1724118428
 20
55.3734923403
 30
0.0
 10
8.8908013467
 20
55.2955626243
 30
0.0
 10
8.7167403952
 20
55.2140907123
 30
0.0
 10
8.6347652106
 20
55.1667626098
 30
0.0
  0
SPLINE
  5
285
100
AcDbEntity
  8
0
100
AcDbSpline
 62
7
  6
BYLAYER
 70
0
 71
3
 72
13
 73
9
 74
0
 42
0.0000001
 43
0.0000001
 44
0.0000000001
 40
0.0
 40
0.0
 40
0.0
 40
0.0
 40
0.2893776722
 40
0.5483149914
 40
0.6677431632
 40
0.7817668512
 40
0.8919057346
 40
1.0
 40
1.0
 40
1.0
 40
1.0
 10
9.3669754375
 20
51.8572384079
 30
0.0
 10
9.3669754375
 20
51.9839415441
 30
0.0
 10
9.3860764487
 20
52.2247386898
 30
0.0
 10
9.4697265151
 20
52.5080137374
 30
0.0
 10
9.5712863259
 20
52.6989328903
 30
0.0
 10
9.6608578426
 20
52.8205404006
 30
0.0
 10
9.764952881
 20
52.9230522099
 30
0.0
 10
9.8437765778
 20
52.9780230787
 30
0.0
 10
9.8847645349
 20
53.001687347
 30
0.0
  0
SPLINE
  5
286
100
AcDbEntity
  8
0
100
AcDbSpline
 62
7
  6
BYLAYER
 70
0
 71
3
 72
15
 73
11
 74
0
 42
0.0000001
 43
0.0000001
 44
0.0000000001
 40
0.0
 40
0.0
 40
0.0
 40
0.0
 40
0.1141465952
 40
0.2373352439
 40
0.366975646
 40
0.4999989181
 40
0.6330223406
 40
0.7626631822
 40
0.8858525235
 40
1.0
 40
1.0
 40
1.0
 40
1.0
 10
11.1347497504
 20
48.7953804787
 30
0.0
 10
11.0137402331
 20
48.8652437756
 30
0.0
 10
10.7747084268
 20
49.0328200702
 30
0.0
 10
10.4457937413
 20
49.340505885
 30
0.0
 10
10.1427189556
 20
49.7042660782
 30
0.0
 10
9.8768278345
 20
50.1103545193
 30
0.0
 10
9.6580881927
 20
50.5436666457
 30
0.0
 10
9.4945971454
 20
50.9880178094
 30
0.0
 10
9.3925874172
 20
51.426710926
 30
0.0
 10
9.3669754375
 20
51.7175083646
 30
0.0
 10
9.3669754375
 20
51.8572384079
 30
0.0
  0
SPLINE
  5
287
100
AcDbEntity
  8
0
100
AcDbSpline
 62
7
  6
BYLAYER
 70
0
 71
3
 72
15
 73
11
 74
0
 42
0.0000001
 43
0.0000001
 44
0.0000000001
 40
0.0
 40
0.0
 40
0.0
 40
0.0
 40
0.1080120351
 40
0.2180609276
 40
0.3320049916
 40
0.4513555801
 40
0.5772588794
 40
0.7104993721
 40
0.8514742921
 40
1.0
 40
1.0
 40
1.0
 40
1.0
 10
45.4546719218
 20
28.1356764799
 30
0.0
 10
45.5366489216
 20
28.1830056303
 30
0.0
 10
45.694240079
 20
28.2930128955
 30
0.0
 10
45.9025392284
 20
28.4979347228
 30
0.0
 10
46.0815947221
 20
28.7412297495
 30
0.0
 10
46.2299415228
 20
29.0200080789
 30
0.0
 10
46.3462613006
 20
29.3315582625
 30
0.0
 10
46.4297834088
 20
29.6728634762
 30
0.0
 10
46.4796926389
 20
30.0405533652
 30
0.0
 10
46.4902360077
 20
30.2944350014
 30
0.0
 10
46.4902360077
 20
30.4245987955
 30
0.0
  0
SPLINE
  5
288
100
AcDbEntity
  8
0
100
AcDbSpline
 62
7
  6
BYLAYER
 70
0
 71
3
 72
13
 73
9
 74
0
 42
0.0000001
 43
0.0000001
 44
0.0000000001
 40
0.0
 40
0.0
 40
0.0
 40
0.0
 40
0.2893776722
 40
0.5483149914
 40
0.6677431632
 40
0.7817668512
 40
0.8919057346
 40
1.0
 40
1.0
 40
1.0
 40
1.0
 10
37.6513644434
 20
35.5276082271
 30
0.0
 10
37.6513644434
 20
35.6543113633
 30
0.0
 10
37.6704654545
 20
35.895108509
 30
0.0
 10
37.754115521
 20
36.1783835565
 30
0.0
 10
37.8556753318
 20
36.3693027095
 30
0.0
 10
37.9452468485
 20
36.4909102197
 30
0.0
 10
38.0493418869
 20
36.5934220291
 30
0.0
 10
38.1281655836
 20
36.6483928979
 30
0.0
 10
38.1691535408
 20
36.6720571662
 30
0.0
  0
SPLINE
  5
289
100
AcDbEntity
  8
0
100
AcDbSpline
 62
7
  6
BYLAYER
 70
0
 71
3
 72
15
 73
11
 74
0
 42
0.0000001
 43
0.0000001
 44
0.0000000001
 40
0.0
 40
0.0
 40
0.0
 40
0.0
 40
0.1141465952
 40
0.2373352439
 40
0.366975646
 40
0.4999989181
 40
0.6330223406
 40
0.7626631822
 40
0.8858525235
 40
1.0
 40
1.0
 40
1.0
 40
1.0
 10
39.4191387563
 20
32.4657502979
 30
0.0
 10
39.298129239
 20
32.5356135948
 30
0.0
 10
39.0590974326
 20
32.7031898894
 30
0.0
 10
38.7301827472
 20
33.0108757042
 30
0.0
 10
38.4271079614
 20
33.3746358974
 30
0.0
 10
38.1612168404
 20
33.7807243385
 30
0.0
 10
37.9424771986
 20
34.2140364649
 30
0.0
 10
37.7789861513
 20
34.6583876286
 30
0.0
 10
37.6769764231
 20
35.0970807452
 30
0.0
 10
37.6513644434
 20
35.3878781838
 30
0.0
 10
37.6513644434
 20
35.5276082271
 30
0.0
  0
SPLINE
  5
28A
100
AcDbEntity
  8
0
100
AcDbSpline
 62
7
  6
BYLAYER
 70
0
 71
3
 72
10
 73
6
 74
0
 42
0.0000001
 43
0.0000001
 44
0.0000000001
 40
0.0
 40
0.0
 40
0.0
 40
0.0
 40
0.2653738772
 40
0.5280877415
 40
1.0
 40
1.0
 40
1.0
 40
1.0
 10
27.2447193989
 20
42.4198953146
 30
0.0
 10
27.2349613665
 20
42.4334964137
 30
0.0
 10
27.2184821882
 20
42.4628391693
 30
0.0
 10
27.1997423385
 20
42.523323701
 30
0.0
 10
27.2037116132
 20
42.5727396164
 30
0.0
 10
27.2154293662
 20
42.6001039329
 30
0.0
  0
SPLINE
  5
28B
100
AcDbEntity
  8
0
100
AcDbSpline
 62
7
  6
BYLAYER
 70
0
 71
3
 72
15
 73
11
 74
0
 42
0.0000001
 43
0.0000001
 44
0.0000000001
 40
0.0
 40
0.0
 40
0.0
 40
0.0
 40
0.1562530644
 40
0.3121021237
 40
0.462081242
 40
0.5987767089
 40
0.7166815998
 40
0.8173801842
 40
0.908959495
 40
1.0
 40
1.0
 40
1.0
 40
1.0
 10
26.8447177335
 20
42.6508311593
 30
0.0
 10
26.8563774343
 20
42.6250576982
 30
0.0
 10
26.88217163
 20
42.5746556118
 30
0.0
 10
26.9285091314
 20
42.5047567596
 30
0.0
 10
26.9818991505
 20
42.4445672054
 30
0.0
 10
27.040200807
 20
42.3993105044
 30
0.0
 10
27.1001536969
 20
42.3734880696
 30
0.0
 10
27.157535334
 20
42.3697662594
 30
0.0
 10
27.2072374294
 20
42.3867090452
 30
0.0
 10
27.2333845406
 20
42.4079295961
 30
0.0
 10
27.2447193989
 20
42.4198953146
 30
0.0
  0
SPLINE
  5
28C
100
AcDbEntity
  8
0
100
AcDbSpline
 62
7
  6
BYLAYER
 70
0
 71
3
 72
10
 73
6
 74
0
 42
0.0000001
 43
0.0000001
 44
0.0000000001
 40
0.0
 40
0.0
 40
0.0
 40
0.0
 40
0.5589981825
 40
0.8055371785
 40
1.0
 40
1.0
 40
1.0
 40
1.0
 10
27.0154285133
 20
42.7155718634
 30
0.0
 10
26.9845912765
 20
42.7011092187
 30
0.0
 10
26.9394435664
 20
42.6816782436
 30
0.0
 10
26.8820264661
 20
42.6612605928
 30
0.0
 10
26.8562412356
 20
42.6535870753
 30
0.0
 10
26.844717425
 20
42.6508310015
 30
0.0
  0
SPLINE
  5
28D
100
AcDbEntity
  8
0
100
AcDbSpline
 62
7
  6
BYLAYER
 70
0
 71
3
 72
10
 73
6
 74
0
 42
0.0000001
 43
0.0000001
 44
0.0000000001
 40
0.0
 40
0.0
 40
0.0
 40
0.0
 40
0.2653707744
 40
0.5280834013
 40
1.0
 40
1.0
 40
1.0
 40
1.0
 10
30.2210625884
 20
46.7576159076
 30
0.0
 10
30.204404787
 20
46.7592658395
 30
0.0
 10
30.1707537866
 20
46.7588654151
 30
0.0
 10
30.1090026518
 20
46.7448515013
 30
0.0
 10
30.0681918297
 20
46.7167058234
 30
0.0
 10
30.0503519421
 20
46.6928757404
 30
0.0
  0
SPLINE
  5
28E
100
AcDbEntity
  8
0
100
AcDbSpline
 62
7
  6
BYLAYER
 70
0
 71
3
 72
15
 73
11
 74
0
 42
0.0000001
 43
0.0000001
 44
0.0000000001
 40
0.0
 40
0.0
 40
0.0
 40
0.0
 40
0.0990947486
 40
0.2177399041
 40
0.3535791529
 40
0.500002777
 40
0.6464258997
 40
0.7822639882
 40
0.9009075189
 40
1.0
 40
1.0
 40
1.0
 40
1.0
 10
28.4533030744
 20
43.6957497575
 30
0.0
 10
28.5284296232
 20
43.7857155639
 30
0.0
 10
28.6871783899
 20
43.988692207
 30
0.0
 10
28.9295098684
 20
44.3296710708
 30
0.0
 10
29.188701395
 20
44.7268994498
 30
0.0
 10
29.4500779809
 20
45.1615140771
 30
0.0
 10
29.6957736763
 20
45.6051804232
 30
0.0
 10
29.910184052
 20
46.0282585639
 30
0.0
 10
30.084311173
 20
46.4086082666
 30
0.0
 10
30.1807154367
 20
46.6475738435
 30
0.0
 10
30.2210626674
 20
46.757616185
 30
0.0
  0
SPLINE
  5
28F
100
AcDbEntity
  8
0
100
AcDbSpline
 62
7
  6
BYLAYER
 70
0
 71
3
 72
10
 73
6
 74
0
 42
0.0000001
 43
0.0000001
 44
0.0000000001
 40
0.0
 40
0.0
 40
0.0
 40
0.0
 40
0.4719144649
 40
0.7346276964
 40
1.0
 40
1.0
 40
1.0
 40
1.0
 10
28.4240128499
 20
43.8759581732
 30
0.0
 10
28.4122956134
 20
43.8485935977
 30
0.0
 10
28.4083267626
 20
43.7991778997
 30
0.0
 10
28.4270664906
 20
43.7386935647
 30
0.0
 10
28.4435454476
 20
43.7093509906
 30
0.0
 10
28.4533033319
 20
43.6957499797
 30
0.0
  0
SPLINE
  5
290
100
AcDbEntity
  8
0
100
AcDbSpline
 62
7
  6
BYLAYER
 70
0
 71
3
 72
10
 73
6
 74
0
 42
0.0000001
 43
0.0000001
 44
0.0000000001
 40
0.0
 40
0.0
 40
0.0
 40
0.0
 40
0.1944610342
 40
0.4409993097
 40
1.0
 40
1.0
 40
1.0
 40
1.0
 10
30.3216584846
 20
48.6731029329
 30
0.0
 10
30.325033796
 20
48.6617452598
 30
0.0
 10
30.3312813587
 20
48.6355782907
 30
0.0
 10
30.3423083943
 20
48.5756453881
 30
0.0
 10
30.3480547999
 20
48.5268311161
 30
0.0
 10
30.350948514
 20
48.4928940761
 30
0.0
  0
SPLINE
  5
291
100
AcDbEntity
  8
0
100
AcDbSpline
 62
7
  6
BYLAYER
 70
0
 71
3
 72
15
 73
11
 74
0
 42
0.0000001
 43
0.0000001
 44
0.0000000001
 40
0.0
 40
0.0
 40
0.0
 40
0.0
 40
0.091034055
 40
0.1826089353
 40
0.2833057435
 40
0.401210745
 40
0.5379057689
 40
0.6878848474
 40
0.8437393715
 40
1.0
 40
1.0
 40
1.0
 40
1.0
 10
30.7216601851
 20
48.4421668416
 30
0.0
 10
30.7263542036
 20
48.4579650158
 30
0.0
 10
30.7316589809
 20
48.4912169798
 30
0.0
 10
30.721479571
 20
48.5427287877
 30
0.0
 10
30.6895681325
 20
48.5905615113
 30
0.0
 10
30.6372287185
 20
48.6295703929
 30
0.0
 10
30.5688844529
 20
48.6574310208
 30
0.0
 10
30.4900636844
 20
48.6735753018
 30
0.0
 10
30.4063586778
 20
48.6787543721
 30
0.0
 10
30.3498100628
 20
48.6758919001
 30
0.0
 10
30.3216585197
 20
48.6731026863
 30
0.0
  0
SPLINE
  5
292
100
AcDbEntity
  8
0
100
AcDbSpline
 62
7
  6
BYLAYER
 70
0
 71
3
 72
10
 73
6
 74
0
 42
0.0000001
 43
0.0000001
 44
0.0000000001
 40
0.0
 40
0.0
 40
0.0
 40
0.0
 40
0.4719141328
 40
0.7346274627
 40
1.0
 40
1.0
 40
1.0
 40
1.0
 10
30.5509493987
 20
48.3774261463
 30
0.0
 10
30.5687887536
 20
48.4012565697
 30
0.0
 10
30.6095995466
 20
48.4294027564
 30
0.0
 10
30.6713509272
 20
48.4434166425
 30
0.0
 10
30.7050022181
 20
48.4438169463
 30
0.0
 10
30.7216601832
 20
48.4421669171
 30
0.0
  0
SPLINE
  5
293
100
AcDbEntity
  8
0
100
AcDbSpline
 62
7
  6
BYLAYER
 70
0
 71
3
 72
15
 73
11
 74
0
 42
0.0000001
 43
0.0000001
 44
0.0000000001
 40
0.0
 40
0.0
 40
0.0
 40
0.0
 40
0.1243131396
 40
0.2491121297
 40
0.3743966042
 40
0.4999997114
 40
0.6256029121
 40
0.7508873126
 40
0.8756864571
 40
1.0
 40
1.0
 40
1.0
 40
1.0
 10
27.403893651
 20
48.3840726796
 30
0.0
 10
27.2321290951
 20
48.3630856768
 30
0.0
 10
26.8905294785
 20
48.291632366
 30
0.0
 10
26.407865124
 20
48.0849217723
 30
0.0
 10
25.9834677609
 20
47.7698757846
 30
0.0
 10
25.6560146132
 20
47.3519685533
 30
0.0
 10
25.4578262666
 20
46.8594311899
 30
0.0
 10
25.3971877674
 20
46.3343690359
 30
0.0
 10
25.4595062804
 20
45.8130135945
 30
0.0
 10
25.5684275535
 20
45.4814530433
 30
0.0
 10
25.6361340579
 20
45.3222062521
 30
0.0
  0
SPLINE
  5
294
100
AcDbEntity
  8
0
100
AcDbSpline
 62
7
  6
BYLAYER
 70
0
 71
3
 72
10
 73
6
 74
0
 42
0.0000001
 43
0.0000001
 44
0.0000000001
 40
0.0
 40
0.0
 40
0.0
 40
0.0
 40
0.5590027779
 40
0.8055399906
 40
1.0
 40
1.0
 40
1.0
 40
1.0
 10
27.4331844712
 20
48.2038641394
 30
0.0
 10
27.4302903617
 20
48.2378011722
 30
0.0
 10
27.4245434957
 20
48.2866153008
 30
0.0
 10
27.4135160467
 20
48.3465479438
 30
0.0
 10
27.4072683778
 20
48.3727146725
 30
0.0
 10
27.4038930492
 20
48.3840722388
 30
0.0
  0
SPLINE
  5
295
100
AcDbEntity
  8
0
100
AcDbSpline
 62
7
  6
BYLAYER
 70
0
 71
3
 72
10
 73
6
 74
0
 42
0.0000001
 43
0.0000001
 44
0.0000000001
 40
0.0
 40
0.0
 40
0.0
 40
0.0
 40
0.5590012374
 40
0.8055388647
 40
1.0
 40
1.0
 40
1.0
 40
1.0
 10
25.8068451521
 20
45.3869462981
 30
0.0
 10
25.77600785
 20
45.372484098
 30
0.0
 10
25.7308602602
 20
45.3530537483
 30
0.0
 10
25.6734435081
 20
45.3326368052
 30
0.0
 10
25.6476586355
 20
45.324963618
 30
0.0
 10
25.6361350131
 20
45.3222076712
 30
0.0
  0
SPLINE
  5
296
100
AcDbEntity
  8
0
100
AcDbSpline
 62
7
  6
BYLAYER
 70
0
 71
3
 72
15
 73
11
 74
0
 42
0.0000001
 43
0.0000001
 44
0.0000000001
 40
0.0
 40
0.0
 40
0.0
 40
0.0
 40
0.1252195465
 40
0.250132661
 40
0.3750978829
 40
0.5000017517
 40
0.6249054895
 40
0.7498703631
 40
0.8747830826
 40
1.0
 40
1.0
 40
1.0
 40
1.0
 10
27.4331841077
 20
48.2038590874
 30
0.0
 10
27.2714698146
 20
48.1878410303
 30
0.0
 10
26.9501648332
 20
48.1290545375
 30
0.0
 10
26.4944231523
 20
47.9477300556
 30
0.0
 10
26.0932671531
 20
47.6629663396
 30
0.0
 10
25.7856163736
 20
47.277135398
 30
0.0
 10
25.6053107215
 20
46.8177843847
 30
0.0
 10
25.5592785476
 20
46.3279920974
 30
0.0
 10
25.6301260972
 20
45.842651405
 30
0.0
 10
25.739867646
 20
45.5350045764
 30
0.0
 10
25.8068502352
 20
45.38694947
 30
0.0
  0
SPLINE
  5
297
100
AcDbEntity
  8
0
100
AcDbSpline
 62
7
  6
BYLAYER
 70
0
 71
3
 72
17
 73
13
 74
0
 42
0.0000001
 43
0.0000001
 44
0.0000000001
 40
0.0
 40
0.0
 40
0.0
 40
0.0
 40
0.162242182
 40
0.3128905271
 40
0.4462031755
 40
0.5044537576
 40
0.5569190619
 40
0.6053888427
 40
0.6529913796
 40
0.7537854063
 40
0.8692300724
 40
1.0
 40
1.0
 40
1.0
 40
1.0
 10
27.0154283262
 20
42.7155718499
 30
0.0
 10
27.0170418477
 20
42.6966463363
 30
0.0
 10
27.0216771687
 20
42.6602255467
 30
0.0
 10
27.0348303066
 20
42.6095055549
 30
0.0
 10
27.0524091842
 20
42.5729539936
 30
0.0
 10
27.0705716536
 20
42.5507217381
 30
0.0
 10
27.0852871529
 20
42.5389522284
 30
0.0
 10
27.1016724402
 20
42.532371851
 30
0.0
 10
27.124935014
 20
42.5303754121
 30
0.0
 10
27.1554084665
 20
42.5402221967
 30
0.0
 10
27.1875706413
 20
42.565735107
 30
0.0
 10
27.2062545624
 20
42.5878479737
 30
0.0
 10
27.2154293557
 20
42.6001038973
 30
0.0
  0
SPLINE
  5
298
100
AcDbEntity
  8
0
100
AcDbSpline
 62
7
  6
BYLAYER
 70
0
 71
3
 72
17
 73
13
 74
0
 42
0.0000001
 43
0.0000001
 44
0.0000000001
 40
0.0
 40
0.0
 40
0.0
 40
0.0
 40
0.1307699823
 40
0.2462162308
 40
0.3470101252
 40
0.3946127479
 40
0.4430834507
 40
0.4955507725
 40
0.5538038433
 40
0.6871192387
 40
0.8377636959
 40
1.0
 40
1.0
 40
1.0
 40
1.0
 10
30.5509494221
 20
48.377426166
 30
0.0
 10
30.5569757224
 20
48.3914997654
 30
0.0
 10
30.5667835904
 20
48.418737168
 30
0.0
 10
30.5727969552
 20
48.4593469177
 30
0.0
 10
30.5660870119
 20
48.4906611117
 30
0.0
 10
30.5527256828
 20
48.5098081693
 30
0.0
 10
30.5388333067
 20
48.5207072921
 30
0.0
 10
30.5212819344
 20
48.5275656283
 30
0.0
 10
30.4929461155
 20
48.5321774843
 30
0.0
 10
30.4525022651
 20
48.5291246677
 30
0.0
 10
30.4020020857
 20
48.5151552892
 30
0.0
 10
30.3681444901
 20
48.5009593242
 30
0.0
 10
30.3509484737
 20
48.4928942131
 30
0.0
  0
SPLINE
  5
299
100
AcDbEntity
  8
0
100
AcDbSpline
 62
7
  6
BYLAYER
 70
0
 71
3
 72
15
 73
11
 74
0
 42
0.0000001
 43
0.0000001
 44
0.0000000001
 40
0.0
 40
0.0
 40
0.0
 40
0.0
 40
0.0989791955
 40
0.2171890228
 40
0.3530700205
 40
0.5000040086
 40
0.6469372354
 40
0.7828167809
 40
0.9010223439
 40
1.0
 40
1.0
 40
1.0
 40
1.0
 10
28.4240140293
 20
43.8759606819
 30
0.0
 10
28.4983222578
 20
43.9544046115
 30
0.0
 10
28.6540688092
 20
44.133483823
 30
0.0
 10
28.8885270266
 20
44.4396423031
 30
0.0
 10
29.1354862815
 20
44.8013712775
 30
0.0
 10
29.3801385828
 20
45.2018958514
 30
0.0
 10
29.6046736628
 20
45.6140332163
 30
0.0
 10
29.7944547269
 20
46.0087655965
 30
0.0
 10
29.9423625771
 20
46.3648847285
 30
0.0
 10
30.0195718146
 20
46.5892997468
 30
0.0
 10
30.0503502524
 20
46.6928733318
 30
0.0
  0
SPLINE
  5
29A
100
AcDbEntity
  8
0
100
AcDbSpline
 62
7
  6
BYLAYER
 70
0
 71
3
 72
13
 73
9
 74
0
 42
0.0000001
 43
0.0000001
 44
0.0000000001
 40
0.0
 40
0.0
 40
0.0
 40
0.0
 40
0.1080947724
 40
0.2182340858
 40
0.3322580584
 40
0.4516863355
 40
0.7106233083
 40
1.0
 40
1.0
 40
1.0
 40
1.0
 10
15.9202835916
 20
46.6303819235
 30
0.0
 10
15.8792965398
 20
46.606718178
 30
0.0
 10
15.7922803673
 20
46.5659414992
 30
0.0
 10
15.6514583073
 20
46.5270493192
 30
0.0
 10
15.5013610957
 20
46.5102817583
 30
0.0
 10
15.2852460989
 20
46.5177865398
 30
0.0
 10
14.9981053842
 20
46.5869766254
 30
0.0
 10
14.7800238212
 20
46.690828124
 30
0.0
 10
14.6702983761
 20
46.7541767061
 30
0.0
  0
SPLINE
  5
29B
100
AcDbEntity
  8
0
100
AcDbSpline
 62
7
  6
BYLAYER
 70
0
 71
3
 72
13
 73
9
 74
0
 42
0.0000001
 43
0.0000001
 44
0.0000000001
 40
0.0
 40
0.0
 40
0.0
 40
0.0
 40
0.1080947724
 40
0.2182340858
 40
0.3322580584
 40
0.4516863355
 40
0.7106233083
 40
1.0
 40
1.0
 40
1.0
 40
1.0
 10
44.2046725974
 20
30.3007517427
 30
0.0
 10
44.1636855457
 20
30.2770879972
 30
0.0
 10
44.0766693732
 20
30.2363113184
 30
0.0
 10
43.9358473132
 20
30.1974191384
 30
0.0
 10
43.7857501016
 20
30.1806515775
 30
0.0
 10
43.5696351048
 20
30.188156359
 30
0.0
 10
43.2824943901
 20
30.2573464446
 30
0.0
 10
43.064412827
 20
30.3611979432
 30
0.0
 10
42.954687382
 20
30.4245465253
 30
0.0
  0
SPLINE
  5
29C
100
AcDbEntity
  8
0
100
AcDbSpline
 62
7
  6
BYLAYER
 70
0
 71
3
 72
15
 73
11
 74
0
 42
0.0000001
 43
0.0000001
 44
0.0000000001
 40
0.0
 40
0.0
 40
0.0
 40
0.0
 40
0.1141462769
 40
0.2373347432
 40
0.3669750849
 40
0.4999983967
 40
0.6330219315
 40
0.7626629244
 40
0.8858524171
 40
1.0
 40
1.0
 40
1.0
 40
1.0
 10
33.0551365101
 20
45.1213999052
 30
0.0
 10
32.9341279065
 20
45.0515359723
 30
0.0
 10
32.6950979655
 20
44.883958401
 30
0.0
 10
32.3661860784
 20
44.5762710148
 30
0.0
 10
32.0631138674
 20
44.2125093878
 30
0.0
 10
31.7972250031
 20
43.8064197012
 30
0.0
 10
31.5784872181
 20
43.3731065664
 30
0.0
 10
31.4149975593
 20
42.9287546741
 30
0.0
 10
31.3129886965
 20
42.4900611416
 30
0.0
 10
31.2873769171
 20
42.1992635676
 30
0.0
 10
31.2873769171
 20
42.0595334777
 30
0.0
  0
ENDSEC
  0
SECTION
  2
OBJECTS
  0
DICTIONARY
  5
C
100
AcDbDictionary
280
0
281
1
  3
ACAD_GROUP
350
D
  3
ACAD_MLINESTYLE
350
17
  3
ACAD_LAYOUT
350
1A
  3
ACAD_PLOTSETTINGS
350
19
  3
ACAD_PLOTSTYLENAME
350
E
  0
DICTIONARY
  5
D
102
{ACAD_REACTORS
330
C
102
}
100
AcDbDictionary
280
0
281
1
  0
ACDBDICTIONARYWDFLT
  5
E
102
{ACAD_REACTORS
330
C
102
}
100
AcDbDictionary
281
1
  3
Normal
350
F
100
AcDbDictionaryWithDefault
340
F
  0
DICTIONARY
  5
17
102
{ACAD_REACTORS
330
C
102
}
100
AcDbDictionary
280
0
281
1
  3
Standard
350
18
  0
DICTIONARY
  5
19
102
{ACAD_REACTORS
330
C
102
}
100
AcDbDictionary
281
1
  0
DICTIONARY
  5
1A
102
{ACAD_REACTORS
330
C
102
}
100
AcDbDictionary
281
1
  3
Model
350
29D
  3
Layout1
350
29E
  0
ACDBPLACEHOLDER
  5
F
102
{ACAD_REACTORS
330
E
102
}
  0
MLINESTYLE
  5
18
102
{ACAD_REACTORS
330
17
102
}
100
AcDbMlineStyle
  2
STANDARD
 70
0
  3

 62
256
 51
90.0
 52
90.0
 71
2
 49
0.5
 62
256
  6
BYLAYER
 49
-0.5
 62
256
  6
BYLAYER
  0
LAYOUT
  5
29D
102
{ACAD_REACTORS
330
1A
102
}
100
AcDbPlotSettings
  1

  2
none_device
  4

  6

 40
0.0
 41
0.0
 42
0.0
 43
0.0
 44
210.0
 45
297.0
 46
0.0
 47
0.0
 48
0.0
 49
0.0
140
0.0
141
0.0
142
1.0
143
1.0
 70
1024
 72
1
 73
0
 74
0
  7

 75
0
147
1.0
148
0.0
149
0.0
100
AcDbLayout
  1
Model
 70
0
 71
0
 10
0.0
 20
0.0
 11
210.0
 21
297.0
 12
0.0
 22
0.0
 32
0.0
 14
0.0
 24
0.0
 34
0.0
 15
0.0
 25
0.0
 35
0.0
146
0.0
 13
0.0
 23
0.0
 33
0.0
 16
1.0
 26
0.0
 36
0.0
 17
0.0
 27
1.0
 37
0.0
 76
0
330
210
345
0
346
0
  0
LAYOUT
  5
29E
102
{ACAD_REACTORS
330
1A
102
}
100
AcDbPlotSettings
  1

  2
none_device
  4

  6

 40
0.0
 41
0.0
 42
0.0
 43
0.0
 44
210.0
 45
297.0
 46
0.0
 47
0.0
 48
0.0
 49
0.0
140
0.0
141
0.0
142
1.0
143
1.0
 70
0
 72
1
 73
0
 74
0
  7

 75
0
147
1.0
148
0.0
149
0.0
100
AcDbLayout
  1
Layout1
 70
0
 71
1
 10
0.0
 20
0.0
 11
210.0
 21
297.0
 12
0.0
 22
0.0
 32
0.0
 14
0.0
 24
0.0
 34
0.0
 15
0.0
 25
0.0
 35
0.0
146
0.0
 13
0.0
 23
0.0
 33
0.0
 16
1.0
 26
0.0
 36
0.0
 17
0.0
 27
1.0
 37
0.0
 76
0
330
211
345
0
346
0
  0
ENDSEC
  0
EOF
