999
DXF file: C:\Users\sesa63760\Dev\_Creo\CAD\MCADID0004742_3D-CAD\drw0001_2.dxf
999
Pro/ENGINEER 2019471 by Parametric Technology Corporation
  0
SECTION
  2
HEADER
  9
$ACADVER
  1
AC1024
  9
$DWGCODEPAGE
  3
ANSI_1252
  9
$EXTMAX
 10
38.134217997
 20
53.9326797386
 30
0.0
  9
$EXTMIN
 10
0.0
 20
0.0
 30
0.0
  9
$LIMMIN
 10
0.0
 20
0.0
  9
$LIMMAX
 10
38.134217997
 20
53.9326797386
  9
$VIEWCTR
 10
19.0671089985
 20
26.9663398693
  9
$VIEWSIZE
 40
53.9326797386
  9
$CLAYER
  8
0
  9
$LTSCALE
 40
3.5156117163
  9
$CELTYPE
  6
BYLAYER
  9
$DIMSCALE
 40
1.0
  9
$DIMASZ
 40
0.4539787857
  9
$DIMEXO
 40
1.0
  9
$DIMDLI
 40
2.4289680949
  9
$DIMEXE
 40
1.0
  9
$DIMCEN
 40
0.5752819172
  9
$DIMLFAC
 40
1.0
  9
$DIMBLK
  1
_FILLED
  9
$DIMALT
 70
0
  9
$DIMALTF
 40
0.0393700787
  9
$DIMTXT
 40
0.6355702999
  9
$DIMTOL
 70
1
  9
$DIMLIM
 70
0
  9
$DIMTFAC
 40
1.0
  9
$DIMTP
 40
0.01
  9
$DIMTM
 40
0.01
  9
$DIMGAP
 40
0.625
  9
$DIMDSEP
 70
46
  9
$AUNITS
 70
0
  9
$PDMODE
 70
3
  9
$PDSIZE
 40
0.3125
  9
$HANDSEED
  5
297
  9
$TILEMODE
 70
1
  9
$MEASUREMENT
 70
1
  9
$INSUNITS
 70
4
  0
ENDSEC
  0
SECTION
  2
CLASSES
  0
CLASS
  1
ACDBDICTIONARYWDFLT
  2
AcDbDictionaryWithDefault
  3
AutoCAD 2000
 90
0
 91
1
280
0
281
0
  0
CLASS
  1
ACDBPLACEHOLDER
  2
AcDbPlaceHolder
  3
AutoCAD 2000
 90
0
 91
1
280
0
281
0
  0
CLASS
  1
LAYOUT
  2
AcDbLayout
  3
AutoCAD 2000
 90
0
 91
0
280
0
281
0
  0
ENDSEC
  0
SECTION
  2
TABLES
  0
TABLE
  2
VPORT
  5
8
100
AcDbSymbolTable
 70
2
  0
VPORT
  5
1F4
100
AcDbSymbolTableRecord
100
AcDbViewportTableRecord
  2
*ACTIVE
 70
0
 10
0.0
 20
0.0
 11
1.0
 21
1.0
 12
19.0671089985
 22
26.9663398693
 13
0.0
 23
0.0
 14
1.0
 24
1.0
 15
0.0
 25
0.0
 16
0.0
 26
0.0
 36
1.0
 17
0.0
 27
0.0
 37
0.0
 40
53.9326797386
 41
0.7070707071
 42
50.0
 43
0.0
 44
0.0
 50
0.0
 51
0.0
 71
0
 72
100
 73
1
 74
1
 75
0
 76
0
 77
0
 78
0
  0
ENDTAB
  0
TABLE
  2
LTYPE
  5
5
100
AcDbSymbolTable
 70
6
  0
LTYPE
  5
14
100
AcDbSymbolTableRecord
100
AcDbLinetypeTableRecord
  2
BYBLOCK
 70
0
  3

 72
65
 73
0
 40
0.0
  0
LTYPE
  5
15
100
AcDbSymbolTableRecord
100
AcDbLinetypeTableRecord
  2
BYLAYER
 70
0
  3

 72
65
 73
0
 40
0.0
  0
LTYPE
  5
16
100
AcDbSymbolTableRecord
100
AcDbLinetypeTableRecord
  2
CONTINUOUS
 70
64
  3
Solid line
 72
65
 73
0
 40
0.0
  0
LTYPE
  5
1F5
100
AcDbSymbolTableRecord
100
AcDbLinetypeTableRecord
  2
CENTER
 70
64
  3
____ _ ____ _ ____ _ ____ _ ____ _ ____ _ ____
 72
65
 73
4
 40
0.6
 49
0.375
 74
0
 49
-0.075
 74
0
 49
0.075
 74
0
 49
-0.075
 74
0
  0
LTYPE
  5
1F6
100
AcDbSymbolTableRecord
100
AcDbLinetypeTableRecord
  2
HIDDEN
 70
64
  3
- - - - - - - - - - - - - - - - - - - -
 72
65
 73
2
 40
0.2
 49
0.1
 74
0
 49
-0.1
 74
0
  0
LTYPE
  5
1F7
100
AcDbSymbolTableRecord
100
AcDbLinetypeTableRecord
  2
PHANTOM
 70
64
  3
_____ _ _ _____ _ _ _____ _ _ _____
 72
65
 73
6
 40
0.8
 49
0.45
 74
0
 49
-0.05
 74
0
 49
0.1
 74
0
 49
-0.05
 74
0
 49
0.1
 74
0
 49
-0.05
 74
0
  0
LTYPE
  5
1F8
100
AcDbSymbolTableRecord
100
AcDbLinetypeTableRecord
  2
DOT
 70
64
  3
. . . . . . . . . . . . . . . . . . . .
 72
65
 73
2
 40
0.2
 49
0.1
 74
0
 49
-0.1
 74
0
  0
LTYPE
  5
1F9
100
AcDbSymbolTableRecord
100
AcDbLinetypeTableRecord
  2
DASHED
 70
64
  3
- - - - - - - - - - - - - - - - - - - -
 72
65
 73
2
 40
0.2
 49
0.1
 74
0
 49
-0.1
 74
0
  0
ENDTAB
  0
TABLE
  2
LAYER
  5
2
100
AcDbSymbolTable
 70
36
  0
LAYER
  5
10
100
AcDbSymbolTableRecord
100
AcDbLayerTableRecord
  2
0
 70
0
 62
7
  6
CONTINUOUS
370
-3
390
F
  0
LAYER
  5
1FA
100
AcDbSymbolTableRecord
100
AcDbLayerTableRecord
  2
DEFAULT_1
 70
0
 62
7
  6
CENTER
370
-3
390
F
  0
LAYER
  5
1FB
100
AcDbSymbolTableRecord
100
AcDbLayerTableRecord
  2
DEFAULT_2
 70
0
 62
7
  6
HIDDEN
370
-3
390
F
  0
LAYER
  5
1FC
100
AcDbSymbolTableRecord
100
AcDbLayerTableRecord
  2
DEFAULT_3
 70
0
 62
7
  6
PHANTOM
370
-3
390
F
  0
LAYER
  5
1FD
100
AcDbSymbolTableRecord
100
AcDbLayerTableRecord
  2
00_COMPONENTS
 70
0
 62
7
  6
CONTINUOUS
370
-3
390
F
  0
LAYER
  5
1FE
100
AcDbSymbolTableRecord
100
AcDbLayerTableRecord
  2
01_1_DEFAULT_DATUMS
 70
0
 62
7
  6
CONTINUOUS
370
-3
390
F
  0
LAYER
  5
1FF
100
AcDbSymbolTableRecord
100
AcDbLayerTableRecord
  2
01_PLANES
 70
0
 62
7
  6
CONTINUOUS
370
-3
390
F
  0
LAYER
  5
200
100
AcDbSymbolTableRecord
100
AcDbLayerTableRecord
  2
02_COORD_SYS
 70
0
 62
7
  6
CONTINUOUS
370
-3
390
F
  0
LAYER
  5
201
100
AcDbSymbolTableRecord
100
AcDbLayerTableRecord
  2
03_AXES
 70
0
 62
7
  6
CONTINUOUS
370
-3
390
F
  0
LAYER
  5
202
100
AcDbSymbolTableRecord
100
AcDbLayerTableRecord
  2
04_POINTS
 70
0
 62
7
  6
CONTINUOUS
370
-3
390
F
  0
LAYER
  5
203
100
AcDbSymbolTableRecord
100
AcDbLayerTableRecord
  2
05_CURVES
 70
0
 62
7
  6
CONTINUOUS
370
-3
390
F
  0
LAYER
  5
204
100
AcDbSymbolTableRecord
100
AcDbLayerTableRecord
  2
06_SURFS
 70
0
 62
7
  6
CONTINUOUS
370
-3
390
F
  0
LAYER
  5
205
100
AcDbSymbolTableRecord
100
AcDbLayerTableRecord
  2
07_COSMETICS
 70
0
 62
7
  6
CONTINUOUS
370
-3
390
F
  0
LAYER
  5
206
100
AcDbSymbolTableRecord
100
AcDbLayerTableRecord
  2
10_NOTES
 70
0
 62
7
  6
CONTINUOUS
370
-3
390
F
  0
LAYER
  5
207
100
AcDbSymbolTableRecord
100
AcDbLayerTableRecord
  2
11_NOTES_PUB
 70
0
 62
7
  6
CONTINUOUS
370
-3
390
F
  0
LAYER
  5
208
100
AcDbSymbolTableRecord
100
AcDbLayerTableRecord
  2
13_REF_GTOL
 70
0
 62
7
  6
CONTINUOUS
370
-3
390
F
  0
LAYER
  5
209
100
AcDbSymbolTableRecord
100
AcDbLayerTableRecord
  2
16_MISC
 70
0
 62
7
  6
CONTINUOUS
370
-3
390
F
  0
LAYER
  5
20A
100
AcDbSymbolTableRecord
100
AcDbLayerTableRecord
  2
17_NO_PRINT
 70
0
 62
7
  6
CONTINUOUS
370
-3
390
F
  0
LAYER
  5
20B
100
AcDbSymbolTableRecord
100
AcDbLayerTableRecord
  2
18_DATUM_CAMS_JOINTS
 70
0
 62
7
  6
CONTINUOUS
370
-3
390
F
  0
LAYER
  5
20C
100
AcDbSymbolTableRecord
100
AcDbLayerTableRecord
  2
19_DATUM_FUNCTIONAL
 70
0
 62
7
  6
CONTINUOUS
370
-3
390
F
  0
LAYER
  5
20D
100
AcDbSymbolTableRecord
100
AcDbLayerTableRecord
  2
20_DATUM_KINEMATIC_SCHEME
 70
0
 62
7
  6
CONTINUOUS
370
-3
390
F
  0
ENDTAB
  0
TABLE
  2
STYLE
  5
3
100
AcDbSymbolTable
 70
1
  0
STYLE
  5
11
100
AcDbSymbolTableRecord
100
AcDbTextStyleTableRecord
  2
STANDARD
 70
0
 40
0.0
 41
1.0
 50
0.0
 71
0
 42
0.2
  3
ARIAL.TTF
  4

  0
STYLE
  5
20E
100
AcDbSymbolTableRecord
100
AcDbTextStyleTableRecord
  2
TEXTSTYLE_1
 70
0
 40
0.0
 41
0.8
 50
0.0
 71
0
 42
0.2
  3
gdt
  4

  0
ENDTAB
  0
TABLE
  2
VIEW
  5
6
100
AcDbSymbolTable
 70
0
  0
ENDTAB
  0
TABLE
  2
UCS
  5
7
100
AcDbSymbolTable
 70
0
  0
ENDTAB
  0
TABLE
  2
APPID
  5
9
100
AcDbSymbolTable
 70
1
  0
APPID
  5
20F
100
AcDbSymbolTableRecord
100
AcDbRegAppTableRecord
  2
ACAD
 70
0
  0
ENDTAB
  0
TABLE
  2
BLOCK_RECORD
  5
1
100
AcDbSymbolTable
 70
0
  0
BLOCK_RECORD
  5
210
100
AcDbSymbolTableRecord
100
AcDbBlockTableRecord
  2
*Model_Space
  0
BLOCK_RECORD
  5
211
100
AcDbSymbolTableRecord
100
AcDbBlockTableRecord
  2
*Paper_Space
  0
BLOCK_RECORD
  5
212
100
AcDbSymbolTableRecord
100
AcDbBlockTableRecord
  2
_FILLED
  0
ENDTAB
  0
TABLE
  2
DIMSTYLE
  5
A
100
AcDbSymbolTable
 70
1
100
AcDbDimStyleTable
 71
0
  0
DIMSTYLE
105
213
100
AcDbSymbolTableRecord
100
AcDbDimStyleTableRecord
  2
STANDARD
 70
0
  3

  4

 40
1.0
 41
0.4539787857
 42
1.0
 43
0.38
 44
1.0
 45
0.0
 46
0.0
 47
0.01
 48
0.01
140
0.6355702999
141
0.09
142
0.0
143
25.4
144
1.0
145
0.0
146
1.0
147
0.625
 71
1
 72
0
 73
0
 74
0
 75
0
 76
0
 77
1
 78
8
 79
2
170
0
171
1
172
0
173
0
174
0
175
0
176
0
177
0
178
0
270
2
179
2
271
2
272
2
273
2
274
2
275
0
280
0
281
0
282
0
283
1
284
8
285
0
286
0
287
3
288
0
340
11
278
46
341
212
342
212
343
212
344
212
  0
ENDTAB
  0
ENDSEC
  0
SECTION
  2
BLOCKS
  0
BLOCK
  5
20
100
AcDbEntity
  8
0
100
AcDbBlockBegin
  2
*Model_Space
 70
0
 10
0.0
 20
0.0
 30
0.0
  3
*Model_Space
  1

  0
ENDBLK
  5
21
100
AcDbEntity
  8
0
100
AcDbBlockEnd
  0
BLOCK
  5
1C
100
AcDbEntity
  8
0
100
AcDbBlockBegin
  2
*Paper_Space
 70
0
 10
0.0
 20
0.0
 30
0.0
  3
*Paper_Space
  1

  0
ENDBLK
  5
1D
100
AcDbEntity
  8
0
100
AcDbBlockEnd
  0
BLOCK
  5
214
100
AcDbEntity
  8
0
100
AcDbBlockBegin
  2
_FILLED
 70
64
 10
0.0
 20
0.0
  3
_FILLED
  1

  0
SOLID
  5
215
100
AcDbEntity
  8
0
  6
BYBLOCK
 62
0
100
AcDbTrace
 10
0.0
 20
0.0
 11
-1.0
 21
0.25
 12
-1.0
 22
-0.25
 13
-1.0
 23
-0.25
  0
ENDBLK
  5
216
100
AcDbEntity
  8
0
  6
BYBLOCK
 62
0
100
AcDbBlockEnd
  0
ENDSEC
  0
SECTION
  2
ENTITIES
  0
LINE
  5
217
100
AcDbEntity
  8
0
100
AcDbLine
 62
7
  6
BYLAYER
 10
32.8311525515
 20
7.9173605316
 11
20.1311700206
 21
7.9173605316
  0
LINE
  5
218
100
AcDbEntity
  8
0
100
AcDbLine
 62
7
  6
BYLAYER
 10
20.1311700206
 20
10.3173605316
 11
32.8311525515
 21
10.3173605316
  0
LINE
  5
219
100
AcDbEntity
  8
0
100
AcDbLine
 62
7
  6
BYLAYER
 10
4.1811612861
 20
20.8317324176
 11
4.1811612861
 21
30.3359869268
  0
LINE
  5
21A
100
AcDbEntity
  8
0
100
AcDbLine
 62
7
  6
BYLAYER
 10
4.3811612861
 20
20.6347498379
 11
4.3811612861
 21
20.6966932585
  0
LINE
  5
21B
100
AcDbEntity
  8
0
100
AcDbLine
 62
7
  6
BYLAYER
 10
4.3811612861
 20
20.912363102
 11
4.3811612861
 21
21.0939720219
  0
LINE
  5
21C
100
AcDbEntity
  8
0
100
AcDbLine
 62
7
  6
BYLAYER
 10
4.3811612861
 20
21.5106141655
 11
4.3811612861
 21
21.799512237
  0
LINE
  5
21D
100
AcDbEntity
  8
0
100
AcDbLine
 62
7
  6
BYLAYER
 10
4.3811612861
 20
22.3887332071
 11
4.3811612861
 21
22.7652325041
  0
LINE
  5
21E
100
AcDbEntity
  8
0
100
AcDbLine
 62
7
  6
BYLAYER
 10
4.3811612861
 20
23.4868778654
 11
4.3811612861
 21
23.9253205829
  0
LINE
  5
21F
100
AcDbEntity
  8
0
100
AcDbLine
 62
7
  6
BYLAYER
 10
4.3811612861
 20
24.7302113965
 11
4.3811612861
 21
25.200718388
  0
LINE
  5
220
100
AcDbEntity
  8
0
100
AcDbLine
 62
7
  6
BYLAYER
 10
4.3811612861
 20
26.0340026751
 11
4.3811612861
 21
26.5045096666
  0
LINE
  5
221
100
AcDbEntity
  8
0
100
AcDbLine
 62
7
  6
BYLAYER
 10
4.3811612861
 20
27.3094004802
 11
4.3811612861
 21
27.7478431978
  0
LINE
  5
222
100
AcDbEntity
  8
0
100
AcDbLine
 62
7
  6
BYLAYER
 10
4.3811612861
 20
28.469488559
 11
4.3811612861
 21
28.845987856
  0
LINE
  5
223
100
AcDbEntity
  8
0
100
AcDbLine
 62
7
  6
BYLAYER
 10
4.3811612861
 20
29.4352088261
 11
4.3811612861
 21
29.7241068976
  0
LINE
  5
224
100
AcDbEntity
  8
0
100
AcDbLine
 62
7
  6
BYLAYER
 10
4.3811612861
 20
30.1407490412
 11
4.3811612861
 21
30.3223579611
  0
LINE
  5
225
100
AcDbEntity
  8
0
100
AcDbLine
 62
7
  6
BYLAYER
 10
4.3811612861
 20
30.5380278046
 11
4.3811612861
 21
30.5999712252
  0
LINE
  5
226
100
AcDbEntity
  8
0
100
AcDbLine
 62
7
  6
BYLAYER
 10
32.8311525515
 20
11.5173605316
 11
20.1311700206
 21
11.5173605316
  0
LINE
  5
227
100
AcDbEntity
  8
0
100
AcDbLine
 62
7
  6
BYLAYER
 10
5.9811612861
 20
20.11740828
 11
5.9811612861
 21
31.1173127832
  0
LINE
  5
228
100
AcDbEntity
  8
0
100
AcDbLine
 62
7
  6
BYLAYER
 10
6.4811612861
 20
16.6173678731
 11
6.4811612861
 21
34.6173574297
  0
LINE
  5
229
100
AcDbEntity
  8
0
100
AcDbLine
 62
7
  6
BYLAYER
 10
20.1311700206
 20
12.6673605316
 11
32.8311525515
 21
12.6673605316
  0
LINE
  5
22A
100
AcDbEntity
  8
0
100
AcDbLine
 62
7
  6
BYLAYER
 10
33.1811612861
 20
13.9673605316
 11
19.7811612861
 21
13.9673605316
  0
LINE
  5
22B
100
AcDbEntity
  8
0
100
AcDbLine
 62
7
  6
BYLAYER
 10
34.4811612861
 20
15.6173605316
 11
18.4811612861
 21
15.6173605316
  0
LINE
  5
22C
100
AcDbEntity
  8
0
100
AcDbLine
 62
7
  6
BYLAYER
 10
6.4811612861
 20
16.6173605316
 11
18.4811612861
 21
16.6173605316
  0
LINE
  5
22D
100
AcDbEntity
  8
0
100
AcDbLine
 62
7
  6
BYLAYER
 10
5.9811612861
 20
20.1173605316
 11
6.4811612861
 21
20.1173605316
  0
LINE
  5
22E
100
AcDbEntity
  8
0
100
AcDbLine
 62
7
  6
BYLAYER
 10
4.3811612861
 20
20.6347498379
 11
5.9811612861
 21
20.6347498379
  0
LINE
  5
22F
100
AcDbEntity
  8
0
100
AcDbLine
 62
7
  6
BYLAYER
 10
5.9811612861
 20
20.6966932585
 11
4.3811612861
 21
20.6966932585
  0
LINE
  5
230
100
AcDbEntity
  8
0
100
AcDbLine
 62
7
  6
BYLAYER
 10
4.3811612861
 20
20.912363102
 11
5.9811612861
 21
20.912363102
  0
LINE
  5
231
100
AcDbEntity
  8
0
100
AcDbLine
 62
7
  6
BYLAYER
 10
5.9811612861
 20
21.0939720219
 11
4.3811612861
 21
21.0939720219
  0
LINE
  5
232
100
AcDbEntity
  8
0
100
AcDbLine
 62
7
  6
BYLAYER
 10
26.4811587818
 20
21.4942549059
 11
6.4811612861
 21
21.4942549059
  0
LINE
  5
233
100
AcDbEntity
  8
0
100
AcDbLine
 62
7
  6
BYLAYER
 10
4.3811612861
 20
21.5106141655
 11
5.9811612861
 21
21.5106141655
  0
LINE
  5
234
100
AcDbEntity
  8
0
100
AcDbLine
 62
7
  6
BYLAYER
 10
5.9811612861
 20
21.799512237
 11
4.3811612861
 21
21.799512237
  0
LINE
  5
235
100
AcDbEntity
  8
0
100
AcDbLine
 62
7
  6
BYLAYER
 10
4.1811612861
 20
22.3463301743
 11
5.9811612861
 21
22.3463301743
  0
LINE
  5
236
100
AcDbEntity
  8
0
100
AcDbLine
 62
7
  6
BYLAYER
 10
4.3811612861
 20
22.3887332071
 11
5.9811612861
 21
22.3887332071
  0
LINE
  5
237
100
AcDbEntity
  8
0
100
AcDbLine
 62
7
  6
BYLAYER
 10
5.9811612861
 20
22.7652325041
 11
4.3811612861
 21
22.7652325041
  0
LINE
  5
238
100
AcDbEntity
  8
0
100
AcDbLine
 62
7
  6
BYLAYER
 10
4.1811612861
 20
23.204982252
 11
5.9811612861
 21
23.204982252
  0
LINE
  5
239
100
AcDbEntity
  8
0
100
AcDbLine
 62
7
  6
BYLAYER
 10
5.9811612861
 20
23.4542577483
 11
4.1811612861
 21
23.4542577483
  0
LINE
  5
23A
100
AcDbEntity
  8
0
100
AcDbLine
 62
7
  6
BYLAYER
 10
4.3811612861
 20
23.4868778654
 11
5.9811612861
 21
23.4868778654
  0
LINE
  5
23B
100
AcDbEntity
  8
0
100
AcDbLine
 62
7
  6
BYLAYER
 10
20.2345907226
 20
43.2845175313
 11
19.2675651147
 21
37.1502035326
  0
LWPOLYLINE
  5
23C
100
AcDbEntity
  8
0
100
AcDbPolyline
 62
7
  6
BYLAYER
 90
6
 70
0
 10
19.2675651175
 20
37.1502035321
 10
19.1295679965
 20
36.6088591949
 10
18.4782203351
 20
35.5501242771
 10
18.0026963628
 20
35.1445124959
 10
16.8544947021
 20
34.6682703742
 10
16.3041609334
 20
34.6173605294
  0
LINE
  5
23D
100
AcDbEntity
  8
0
100
AcDbLine
 62
7
  6
BYLAYER
 10
5.9811612861
 20
23.9253205829
 11
4.3811612861
 21
23.9253205829
  0
LINE
  5
23E
100
AcDbEntity
  8
0
100
AcDbLine
 62
7
  6
BYLAYER
 10
4.1811612861
 20
24.2280339228
 11
5.9811612861
 21
24.2280339228
  0
LINE
  5
23F
100
AcDbEntity
  8
0
100
AcDbLine
 62
7
  6
BYLAYER
 10
5.9811612861
 20
24.4597477064
 11
4.1811612861
 21
24.4597477064
  0
LINE
  5
240
100
AcDbEntity
  8
0
100
AcDbLine
 62
7
  6
BYLAYER
 10
4.1811612861
 20
24.601223898
 11
5.9811612861
 21
24.601223898
  0
LINE
  5
241
100
AcDbEntity
  8
0
100
AcDbLine
 62
7
  6
BYLAYER
 10
4.3811612861
 20
24.7302113965
 11
5.9811612861
 21
24.7302113965
  0
LINE
  5
242
100
AcDbEntity
  8
0
100
AcDbLine
 62
7
  6
BYLAYER
 10
5.9811612861
 20
25.200718388
 11
4.3811612861
 21
25.200718388
  0
LINE
  5
243
100
AcDbEntity
  8
0
100
AcDbLine
 62
7
  6
BYLAYER
 10
4.1811612861
 20
25.345765906
 11
5.9811612861
 21
25.345765906
  0
LINE
  5
244
100
AcDbEntity
  8
0
100
AcDbLine
 62
7
  6
BYLAYER
 10
18.4811612861
 20
16.6173605316
 11
18.4811612861
 21
15.6173605316
  0
LINE
  5
245
100
AcDbEntity
  8
0
100
AcDbLine
 62
7
  6
BYLAYER
 10
5.9811612861
 20
25.5441270654
 11
4.1811612861
 21
25.5441270654
  0
LINE
  5
246
100
AcDbEntity
  8
0
100
AcDbLine
 62
7
  6
BYLAYER
 10
4.1811612861
 20
25.6905939967
 11
5.9811612861
 21
25.6905939967
  0
LINE
  5
247
100
AcDbEntity
  8
0
100
AcDbLine
 62
7
  6
BYLAYER
 10
5.9811612861
 20
25.8889551571
 11
4.1811612861
 21
25.8889551571
  0
LINE
  5
248
100
AcDbEntity
  8
0
100
AcDbLine
 62
7
  6
BYLAYER
 10
4.3811612861
 20
26.0340026751
 11
5.9811612861
 21
26.0340026751
  0
LINE
  5
249
100
AcDbEntity
  8
0
100
AcDbLine
 62
7
  6
BYLAYER
 10
5.9811612861
 20
26.5045096666
 11
4.3811612861
 21
26.5045096666
  0
LINE
  5
24A
100
AcDbEntity
  8
0
100
AcDbLine
 62
7
  6
BYLAYER
 10
5.9811612861
 20
26.6334971641
 11
4.1811612861
 21
26.6334971641
  0
LINE
  5
24B
100
AcDbEntity
  8
0
100
AcDbLine
 62
7
  6
BYLAYER
 10
4.1811612861
 20
26.7749733558
 11
5.9811612861
 21
26.7749733558
  0
LINE
  5
24C
100
AcDbEntity
  8
0
100
AcDbLine
 62
7
  6
BYLAYER
 10
5.9811612861
 20
27.0066871403
 11
4.1811612861
 21
27.0066871403
  0
LINE
  5
24D
100
AcDbEntity
  8
0
100
AcDbLine
 62
7
  6
BYLAYER
 10
19.7811612861
 20
13.9673605316
 11
19.7811612861
 21
15.6173605316
  0
LINE
  5
24E
100
AcDbEntity
  8
0
100
AcDbLine
 62
7
  6
BYLAYER
 10
20.1311612861
 20
12.6673605316
 11
20.1311612861
 21
11.5173605316
  0
LINE
  5
24F
100
AcDbEntity
  8
0
100
AcDbLine
 62
7
  6
BYLAYER
 10
20.1311612861
 20
10.3173605316
 11
20.1311612861
 21
7.9173605316
  0
LINE
  5
250
100
AcDbEntity
  8
0
100
AcDbLine
 62
7
  6
BYLAYER
 10
20.8811612861
 20
11.5173605316
 11
20.8811612861
 21
10.3173605316
  0
LINE
  5
251
100
AcDbEntity
  8
0
100
AcDbLine
 62
7
  6
BYLAYER
 10
20.9811612861
 20
13.9673605316
 11
20.9811612861
 21
12.6673605316
  0
LINE
  5
252
100
AcDbEntity
  8
0
100
AcDbLine
 62
7
  6
BYLAYER
 10
4.3811612861
 20
27.3094004802
 11
5.9811612861
 21
27.3094004802
  0
LINE
  5
253
100
AcDbEntity
  8
0
100
AcDbLine
 62
7
  6
BYLAYER
 10
5.9811612861
 20
27.7478431978
 11
4.3811612861
 21
27.7478431978
  0
LINE
  5
254
100
AcDbEntity
  8
0
100
AcDbLine
 62
7
  6
BYLAYER
 10
4.1811612861
 20
27.780463314
 11
5.9811612861
 21
27.780463314
  0
LINE
  5
255
100
AcDbEntity
  8
0
100
AcDbLine
 62
7
  6
BYLAYER
 10
5.9811612861
 20
28.0297388112
 11
4.1811612861
 21
28.0297388112
  0
LINE
  5
256
100
AcDbEntity
  8
0
100
AcDbLine
 62
7
  6
BYLAYER
 10
4.3811612861
 20
28.469488559
 11
5.9811612861
 21
28.469488559
  0
LINE
  5
257
100
AcDbEntity
  8
0
100
AcDbLine
 62
7
  6
BYLAYER
 10
5.9811612861
 20
28.845987856
 11
4.3811612861
 21
28.845987856
  0
LINE
  5
258
100
AcDbEntity
  8
0
100
AcDbLine
 62
7
  6
BYLAYER
 10
5.9811612861
 20
28.8883908889
 11
4.1811612861
 21
28.8883908889
  0
LINE
  5
259
100
AcDbEntity
  8
0
100
AcDbLine
 62
7
  6
BYLAYER
 10
4.3811612861
 20
29.4352088261
 11
5.9811612861
 21
29.4352088261
  0
LINE
  5
25A
100
AcDbEntity
  8
0
100
AcDbLine
 62
7
  6
BYLAYER
 10
5.9811612861
 20
29.7241068976
 11
4.3811612861
 21
29.7241068976
  0
LINE
  5
25B
100
AcDbEntity
  8
0
100
AcDbLine
 62
7
  6
BYLAYER
 10
4.3811612861
 20
30.1407490412
 11
5.9811612861
 21
30.1407490412
  0
LINE
  5
25C
100
AcDbEntity
  8
0
100
AcDbLine
 62
7
  6
BYLAYER
 10
5.9811612861
 20
30.3223579611
 11
4.3811612861
 21
30.3223579611
  0
LINE
  5
25D
100
AcDbEntity
  8
0
100
AcDbLine
 62
7
  6
BYLAYER
 10
4.3811612861
 20
30.5380278046
 11
5.9811612861
 21
30.5380278046
  0
LINE
  5
25E
100
AcDbEntity
  8
0
100
AcDbLine
 62
7
  6
BYLAYER
 10
5.9811612861
 20
30.5999712252
 11
4.3811612861
 21
30.5999712252
  0
LINE
  5
25F
100
AcDbEntity
  8
0
100
AcDbLine
 62
7
  6
BYLAYER
 10
5.9811612861
 20
31.1173605316
 11
6.4811612861
 21
31.1173605316
  0
LINE
  5
260
100
AcDbEntity
  8
0
100
AcDbLine
 62
7
  6
BYLAYER
 10
6.4811612861
 20
32.0049867668
 11
26.481161286
 21
32.0049867668
  0
LINE
  5
261
100
AcDbEntity
  8
0
100
AcDbLine
 62
7
  6
BYLAYER
 10
34.4811612861
 20
32.1616612206
 11
30.505232579
 21
32.1616954528
  0
LINE
  5
262
100
AcDbEntity
  8
0
100
AcDbLine
 62
7
  6
BYLAYER
 10
26.5399347458
 20
32.3164361695
 11
26.481161157
 21
32.3164361695
  0
LINE
  5
263
100
AcDbEntity
  8
0
100
AcDbLine
 62
7
  6
BYLAYER
 10
26.481161237
 20
45.6053915308
 11
26.4811611512
 21
43.0926081377
  0
LINE
  5
264
100
AcDbEntity
  8
0
100
AcDbLine
 62
7
  6
BYLAYER
 10
26.4811613044
 20
32.3164268319
 11
26.4811587818
 21
21.4942549059
  0
LINE
  5
265
100
AcDbEntity
  8
0
100
AcDbLine
 62
7
  6
BYLAYER
 10
18.9486835331
 20
33.9637494762
 11
6.4811612861
 21
33.9637494762
  0
LINE
  5
266
100
AcDbEntity
  8
0
100
AcDbLine
 62
7
  6
BYLAYER
 10
6.4811612861
 20
34.6173605316
 11
16.3041609333
 21
34.6173605316
  0
LINE
  5
267
100
AcDbEntity
  8
0
100
AcDbLine
 62
7
  6
BYLAYER
 10
31.9811612861
 20
13.9673605316
 11
31.9811612861
 21
12.6673605316
  0
LINE
  5
268
100
AcDbEntity
  8
0
100
AcDbLine
 62
7
  6
BYLAYER
 10
32.0811612861
 20
11.5173605316
 11
32.0811612861
 21
10.3173605316
  0
LINE
  5
269
100
AcDbEntity
  8
0
100
AcDbLine
 62
7
  6
BYLAYER
 10
32.8311612861
 20
12.6673605316
 11
32.8311612861
 21
11.5173605316
  0
LINE
  5
26A
100
AcDbEntity
  8
0
100
AcDbLine
 62
7
  6
BYLAYER
 10
32.8311612861
 20
10.3173605316
 11
32.8311612861
 21
7.9173605316
  0
LINE
  5
26B
100
AcDbEntity
  8
0
100
AcDbLine
 62
7
  6
BYLAYER
 10
33.1811612861
 20
13.9673605316
 11
33.1811612861
 21
15.6173605316
  0
LINE
  5
26C
100
AcDbEntity
  8
0
100
AcDbLine
 62
7
  6
BYLAYER
 10
34.4811612861
 20
32.161661373
 11
34.4811612861
 21
15.6173605316
  0
LINE
  5
26D
100
AcDbEntity
  8
0
100
AcDbLine
 62
7
  6
BYLAYER
 10
32.7277318495
 20
43.2845175314
 11
34.4811612861
 21
32.161661373
  0
LWPOLYLINE
  5
26E
100
AcDbEntity
  8
0
100
AcDbPolyline
 62
7
  6
BYLAYER
 90
6
 70
0
 10
32.7277318478
 20
43.2845175311
 10
32.5917461722
 20
43.8202087736
 10
31.942516244
 20
44.8802455311
 10
31.467803616
 20
45.2868077752
 10
30.3205549515
 20
45.7653447929
 10
29.7643276673
 20
45.8173605311
  0
LWPOLYLINE
  5
26F
100
AcDbEntity
  8
0
100
AcDbPolyline
 62
7
  6
BYLAYER
 90
6
 70
0
 10
23.1979949049
 20
45.817360531
 10
22.6417676276
 20
45.7653447942
 10
21.4945189627
 20
45.2868077796
 10
21.0198063337
 20
44.8802455368
 10
20.3705764027
 20
43.820208781
 10
20.2345907244
 20
43.2845175311
  0
LINE
  5
270
100
AcDbEntity
  8
0
100
AcDbLine
 62
7
  6
BYLAYER
 10
23.1979949049
 20
45.8173605316
 11
29.7643276673
 21
45.8173605316
  0
ARC
  5
271
100
AcDbEntity
  8
0
100
AcDbCircle
 62
7
  6
BYLAYER
 10
26.4828072935
 20
83.7275351817
 40
51.7225382827
100
AcDbArc
 50
269.9981752442
 51
274.460360508
  0
SPLINE
  5
272
100
AcDbEntity
  8
0
100
AcDbSpline
 62
7
  6
BYLAYER
 70
0
 71
3
 72
13
 73
9
 74
0
 42
0.0000001
 43
0.0000001
 44
0.0000000001
 40
0.0
 40
0.0
 40
0.0
 40
0.0
 40
0.2635414332
 40
0.5188559489
 40
0.6426731575
 40
0.7636253193
 40
0.8825151437
 40
1.0
 40
1.0
 40
1.0
 40
1.0
 10
4.3811612861
 20
30.3223579611
 30
0.0
 10
4.3551234662
 20
30.3223579611
 30
0.0
 10
4.3034041468
 20
30.3133694507
 30
0.0
 10
4.247394696
 20
30.2802301809
 30
0.0
 10
4.2137610298
 20
30.2436375057
 30
0.0
 10
4.1951675417
 20
30.2125763839
 30
0.0
 10
4.1837579318
 20
30.1788948001
 30
0.0
 10
4.1811612861
 20
30.1554651878
 30
0.0
 10
4.1811612861
 20
30.1438577169
 30
0.0
  0
SPLINE
  5
273
100
AcDbEntity
  8
0
100
AcDbSpline
 62
7
  6
BYLAYER
 70
0
 71
3
 72
11
 73
7
 74
0
 42
0.0000001
 43
0.0000001
 44
0.0000000001
 40
0.0
 40
0.0
 40
0.0
 40
0.0
 40
0.2529849483
 40
0.5041878768
 40
0.7529305806
 40
1.0
 40
1.0
 40
1.0
 40
1.0
 10
4.3811612861
 20
30.5999712252
 30
0.0
 10
4.3550362038
 20
30.5999712252
 30
0.0
 10
4.3024011792
 20
30.5896995791
 30
0.0
 10
4.2359344621
 20
30.5457317128
 30
0.0
 10
4.1915203973
 20
30.4802752186
 30
0.0
 10
4.1811612861
 20
30.4285028469
 30
0.0
 10
4.1811612861
 20
30.4029886455
 30
0.0
  0
SPLINE
  5
274
100
AcDbEntity
  8
0
100
AcDbSpline
 62
7
  6
BYLAYER
 70
0
 71
3
 72
13
 73
9
 74
0
 42
0.0000001
 43
0.0000001
 44
0.0000000001
 40
0.0
 40
0.0
 40
0.0
 40
0.0
 40
0.2838799929
 40
0.5485235363
 40
0.6705631607
 40
0.7853190388
 40
0.8943780386
 40
1.0
 40
1.0
 40
1.0
 40
1.0
 10
4.3811612861
 20
29.7241068976
 30
0.0
 10
4.3552497466
 20
29.7241068976
 30
0.0
 10
4.3048882589
 20
29.7169934779
 30
0.0
 10
4.2485210053
 20
29.6900543004
 30
0.0
 10
4.2141813987
 20
29.6593695109
 30
0.0
 10
4.1954225788
 20
29.6336391905
 30
0.0
 10
4.1838225533
 20
29.6055779144
 30
0.0
 10
4.1811612861
 20
29.5858942762
 30
0.0
 10
4.1811612861
 20
29.5762534855
 30
0.0
  0
SPLINE
  5
275
100
AcDbEntity
  8
0
100
AcDbSpline
 62
7
  6
BYLAYER
 70
0
 71
3
 72
15
 73
11
 74
0
 42
0.0000001
 43
0.0000001
 44
0.0000000001
 40
0.0
 40
0.0
 40
0.0
 40
0.0
 40
0.1592906349
 40
0.314372953
 40
0.4606629413
 40
0.5949973818
 40
0.7152589167
 40
0.8209663235
 40
0.9142778552
 40
1.0
 40
1.0
 40
1.0
 40
1.0
 10
4.3811612861
 20
28.845987856
 30
0.0
 10
4.3680795676
 20
28.845987856
 30
0.0
 10
4.3422408801
 20
28.844628432
 30
0.0
 10
4.3048142763
 20
28.8386206102
 30
0.0
 10
4.2702956367
 20
28.8288480839
 30
0.0
 10
4.2399895516
 20
28.8156948917
 30
0.0
 10
4.2149347168
 20
28.7996620011
 30
0.0
 10
4.1960039078
 20
28.7811737548
 30
0.0
 10
4.1840108971
 20
28.7607024876
 30
0.0
 10
4.1811612861
 20
28.7458971593
 30
0.0
 10
4.1811612861
 20
28.7388572416
 30
0.0
  0
SPLINE
  5
276
100
AcDbEntity
  8
0
100
AcDbSpline
 62
7
  6
BYLAYER
 70
0
 71
3
 72
17
 73
13
 74
0
 42
0.0000001
 43
0.0000001
 44
0.0000000001
 40
0.0
 40
0.0
 40
0.0
 40
0.0
 40
0.1792755284
 40
0.3524043822
 40
0.5127648239
 40
0.655234585
 40
0.7757157837
 40
0.8716930304
 40
0.9106508513
 40
0.9441614041
 40
0.973346618
 40
1.0
 40
1.0
 40
1.0
 40
1.0
 10
4.3811612861
 20
27.7478431978
 30
0.0
 10
4.3680923693
 20
27.7478431978
 30
0.0
 10
4.342396404
 20
27.7470998953
 30
0.0
 10
4.3051376889
 20
27.7438143872
 30
0.0
 10
4.2708249731
 20
27.7384839574
 30
0.0
 10
4.2407555652
 20
27.7313421656
 30
0.0
 10
4.2160106786
 20
27.7227137407
 30
0.0
 10
4.1993811888
 20
27.7140158364
 30
0.0
 10
4.1898065708
 20
27.7062561591
 30
0.0
 10
4.1849229124
 20
27.7006152703
 30
0.0
 10
4.1818796963
 20
27.6947726315
 30
0.0
 10
4.1811612861
 20
27.690679147
 30
0.0
 10
4.1811612861
 20
27.6887361555
 30
0.0
  0
SPLINE
  5
277
100
AcDbEntity
  8
0
100
AcDbSpline
 62
7
  6
BYLAYER
 70
0
 71
3
 72
20
 73
16
 74
0
 42
0.0000001
 43
0.0000001
 44
0.0000000001
 40
0.0
 40
0.0
 40
0.0
 40
0.0
 40
0.1954595668
 40
0.3835484777
 40
0.5563260701
 40
0.707359925
 40
0.7729527263
 40
0.8310493847
 40
0.8811121284
 40
0.9227500207
 40
0.9555878887
 40
0.979343034
 40
0.9939525145
 40
0.9979125823
 40
1.0
 40
1.0
 40
1.0
 40
1.0
 10
4.3811612861
 20
26.5045096666
 30
0.0
 10
4.3680978956
 20
26.5045096666
 30
0.0
 10
4.3424636377
 20
26.5044212425
 30
0.0
 10
4.3052837282
 20
26.5040308079
 30
0.0
 10
4.2710767008
 20
26.5033975307
 30
0.0
 10
4.2450609482
 20
26.5026642301
 30
0.0
 10
4.2267133678
 20
26.5019546813
 30
0.0
 10
4.2151139841
 20
26.5014079172
 30
0.0
 10
4.2051175337
 20
26.5008257851
 30
0.0
 10
4.1968200695
 20
26.5002209146
 30
0.0
 10
4.1902726829
 20
26.499591738
 30
0.0
 10
4.1855788593
 20
26.4989805048
 30
0.0
 10
4.1827587898
 20
26.4983881425
 30
0.0
 10
4.1815038037
 20
26.4979220491
 30
0.0
 10
4.1811612861
 20
26.4975937547
 30
0.0
 10
4.1811612861
 20
26.4974542437
 30
0.0
  0
SPLINE
  5
278
100
AcDbEntity
  8
0
100
AcDbSpline
 62
7
  6
BYLAYER
 70
0
 71
3
 72
20
 73
16
 74
0
 42
0.0000001
 43
0.0000001
 44
0.0000000001
 40
0.0
 40
0.0
 40
0.0
 40
0.0
 40
0.0020872546
 40
0.0060466977
 40
0.0206543106
 40
0.0444079867
 40
0.0772448011
 40
0.1188807576
 40
0.168942426
 40
0.2270398711
 40
0.2926330817
 40
0.4436692162
 40
0.6164511344
 40
0.8045412392
 40
1.0
 40
1.0
 40
1.0
 40
1.0
 10
4.1811612861
 20
24.7372668194
 30
0.0
 10
4.1811612861
 20
24.7371273193
 30
0.0
 10
4.1815036987
 20
24.7367990286
 30
0.0
 10
4.1827585344
 20
24.7363329197
 30
0.0
 10
4.1855783068
 20
24.735740587
 30
0.0
 10
4.1902718592
 20
24.7351293982
 30
0.0
 10
4.196818944
 20
24.734500265
 30
0.0
 10
4.2051161382
 20
24.7338953728
 30
0.0
 10
4.2151124399
 20
24.7333132267
 30
0.0
 10
4.2267118339
 20
24.7327664606
 30
0.0
 10
4.2450596481
 20
24.7320568698
 30
0.0
 10
4.2710758738
 20
24.7313235494
 30
0.0
 10
4.3052834282
 20
24.7306902628
 30
0.0
 10
4.342463659
 20
24.7302998155
 30
0.0
 10
4.3680979473
 20
24.7302113965
 30
0.0
 10
4.3811612861
 20
24.7302113965
 30
0.0
  0
SPLINE
  5
279
100
AcDbEntity
  8
0
100
AcDbSpline
 62
7
  6
BYLAYER
 70
0
 71
3
 72
17
 73
13
 74
0
 42
0.0000001
 43
0.0000001
 44
0.0000000001
 40
0.0
 40
0.0
 40
0.0
 40
0.0
 40
0.0266528047
 40
0.0558362885
 40
0.089344911
 40
0.1283013078
 40
0.2242762823
 40
0.3447589521
 40
0.487230968
 40
0.6475953792
 40
0.8207252812
 40
1.0
 40
1.0
 40
1.0
 40
1.0
 10
4.1811612861
 20
23.5459849077
 30
0.0
 10
4.1811612861
 20
23.5440419572
 30
0.0
 10
4.1818794802
 20
23.5399486301
 30
0.0
 10
4.1849222946
 20
23.5341061047
 30
0.0
 10
4.1898057487
 20
23.5284655019
 30
0.0
 10
4.1993801226
 20
23.5207061928
 30
0.0
 10
4.2160091818
 20
23.512007856
 30
0.0
 10
4.2407542066
 20
23.5033793413
 30
0.0
 10
4.2708241164
 20
23.4962372173
 30
0.0
 10
4.305137391
 20
23.4909067498
 30
0.0
 10
4.3423964211
 20
23.4876211214
 30
0.0
 10
4.3680924212
 20
23.4868778654
 30
0.0
 10
4.3811612861
 20
23.4868778654
 30
0.0
  0
SPLINE
  5
27A
100
AcDbEntity
  8
0
100
AcDbSpline
 62
7
  6
BYLAYER
 70
0
 71
3
 72
15
 73
11
 74
0
 42
0.0000001
 43
0.0000001
 44
0.0000000001
 40
0.0
 40
0.0
 40
0.0
 40
0.0
 40
0.0857193605
 40
0.179026469
 40
0.2847325638
 40
0.4049961657
 40
0.5393330538
 40
0.685626728
 40
0.8407100518
 40
1.0
 40
1.0
 40
1.0
 40
1.0
 10
4.1811612861
 20
22.4958638215
 30
0.0
 10
4.1811612861
 20
22.4888241303
 30
0.0
 10
4.1840100665
 20
22.4740192338
 30
0.0
 10
4.1960032122
 20
22.4535487932
 30
0.0
 10
4.2149331331
 20
22.4350601923
 30
0.0
 10
4.2399881597
 20
22.4190269664
 30
0.0
 10
4.2702947315
 20
22.4058732118
 30
0.0
 10
4.3048139787
 20
22.3961005816
 30
0.0
 10
4.3422408893
 20
22.39009255
 30
0.0
 10
4.36807962
 20
22.3887332071
 30
0.0
 10
4.3811612861
 20
22.3887332071
 30
0.0
  0
SPLINE
  5
27B
100
AcDbEntity
  8
0
100
AcDbSpline
 62
7
  6
BYLAYER
 70
0
 71
3
 72
13
 73
9
 74
0
 42
0.0000001
 43
0.0000001
 44
0.0000000001
 40
0.0
 40
0.0
 40
0.0
 40
0.0
 40
0.1056187544
 40
0.2146725784
 40
0.3294278001
 40
0.4514700254
 40
0.7161196396
 40
1.0
 40
1.0
 40
1.0
 40
1.0
 10
4.1811612861
 20
21.6584675777
 30
0.0
 10
4.1811612861
 20
21.6488270795
 30
0.0
 10
4.1838217139
 20
21.629144083
 30
0.0
 10
4.1954219626
 20
21.6010837755
 30
0.0
 10
4.2141798014
 20
21.5753532005
 30
0.0
 10
4.2485197299
 20
21.5446675452
 30
0.0
 10
4.3048876282
 20
21.5177277279
 30
0.0
 10
4.3552497128
 20
21.5106141655
 30
0.0
 10
4.3811612861
 20
21.5106141655
 30
0.0
  0
SPLINE
  5
27C
100
AcDbEntity
  8
0
100
AcDbSpline
 62
7
  6
BYLAYER
 70
0
 71
3
 72
13
 73
9
 74
0
 42
0.0000001
 43
0.0000001
 44
0.0000000001
 40
0.0
 40
0.0
 40
0.0
 40
0.0
 40
0.1174813762
 40
0.2363655525
 40
0.3573174271
 40
0.4811375841
 40
0.7364581862
 40
1.0
 40
1.0
 40
1.0
 40
1.0
 10
4.1811612861
 20
21.0908633463
 30
0.0
 10
4.1811612861
 20
21.0792562201
 30
0.0
 10
4.1837570861
 20
21.0558274049
 30
0.0
 10
4.1951669649
 20
21.0221468932
 30
0.0
 10
4.2137594314
 20
20.9910855863
 30
0.0
 10
4.2473933609
 20
20.954491885
 30
0.0
 10
4.3034034704
 20
20.9213518002
 30
0.0
 10
4.3551234308
 20
20.912363102
 30
0.0
 10
4.3811612861
 20
20.912363102
 30
0.0
  0
SPLINE
  5
27D
100
AcDbEntity
  8
0
100
AcDbSpline
 62
7
  6
BYLAYER
 70
0
 71
3
 72
11
 73
7
 74
0
 42
0.0000001
 43
0.0000001
 44
0.0000000001
 40
0.0
 40
0.0
 40
0.0
 40
0.0
 40
0.2470598091
 40
0.4958055254
 40
0.7470146201
 40
1.0
 40
1.0
 40
1.0
 40
1.0
 10
4.1811612861
 20
20.8317324176
 30
0.0
 10
4.1811612861
 20
20.8062192166
 30
0.0
 10
4.1915199965
 20
20.7544476502
 30
0.0
 10
4.2359330585
 20
20.6889905007
 30
0.0
 10
4.3024004999
 20
20.6450217173
 30
0.0
 10
4.3550361673
 20
20.6347498379
 30
0.0
 10
4.3811612861
 20
20.6347498379
 30
0.0
  0
SPLINE
  5
27E
100
AcDbEntity
  8
0
100
AcDbSpline
 62
7
  6
BYLAYER
 70
0
 71
3
 72
13
 73
9
 74
0
 42
0.0000001
 43
0.0000001
 44
0.0000000001
 40
0.0
 40
0.0
 40
0.0
 40
0.0
 40
0.1149507473
 40
0.2317140037
 40
0.3512949946
 40
0.4746835799
 40
0.7319783402
 40
1.0
 40
1.0
 40
1.0
 40
1.0
 10
4.1811612861
 20
29.2637640047
 30
0.0
 10
4.1811612861
 20
29.2749179317
 30
0.0
 10
4.1837688698
 20
29.2974802788
 30
0.0
 10
4.1952162368
 20
29.3298697514
 30
0.0
 10
4.2138459249
 20
29.3597105899
 30
0.0
 10
4.2476417846
 20
29.3949634013
 30
0.0
 10
4.3037628952
 20
29.4266729685
 30
0.0
 10
4.3551545476
 20
29.4352088261
 30
0.0
 10
4.3811612861
 20
29.4352088261
 30
0.0
  0
SPLINE
  5
27F
100
AcDbEntity
  8
0
100
AcDbSpline
 62
7
  6
BYLAYER
 70
0
 71
3
 72
13
 73
9
 74
0
 42
0.0000001
 43
0.0000001
 44
0.0000000001
 40
0.0
 40
0.0
 40
0.0
 40
0.0
 40
0.1012296878
 40
0.2067248356
 40
0.3193412073
 40
0.4408803601
 40
0.7090099601
 40
1.0
 40
1.0
 40
1.0
 40
1.0
 10
4.1811612861
 20
28.3316130216
 30
0.0
 10
4.1811612861
 20
28.3406145845
 30
0.0
 10
4.1838528797
 20
28.3590898707
 30
0.0
 10
4.1955329281
 20
28.385309534
 30
0.0
 10
4.2143433442
 20
28.4092850204
 30
0.0
 10
4.2489080717
 20
28.4379985416
 30
0.0
 10
4.3053230196
 20
28.4629374387
 30
0.0
 10
4.3552858221
 20
28.469488559
 30
0.0
 10
4.3811612861
 20
28.469488559
 30
0.0
  0
SPLINE
  5
280
100
AcDbEntity
  8
0
100
AcDbSpline
 62
7
  6
BYLAYER
 70
0
 71
3
 72
11
 73
7
 74
0
 42
0.0000001
 43
0.0000001
 44
0.0000000001
 40
0.0
 40
0.0
 40
0.0
 40
0.0
 40
0.2499782149
 40
0.4999460329
 40
0.7499530723
 40
1.0
 40
1.0
 40
1.0
 40
1.0
 10
4.1811612861
 20
30.3359869268
 30
0.0
 10
4.1811612861
 20
30.3621301846
 30
0.0
 10
4.19142901
 20
30.4149791936
 30
0.0
 10
4.2356484231
 20
30.4821051585
 30
0.0
 10
4.3021229834
 20
30.527398112
 30
0.0
 10
4.3550108421
 20
30.5380278046
 30
0.0
 10
4.3811612861
 20
30.5380278046
 30
0.0
  0
SPLINE
  5
281
100
AcDbEntity
  8
0
100
AcDbSpline
 62
7
  6
BYLAYER
 70
0
 71
3
 72
15
 73
11
 74
0
 42
0.0000001
 43
0.0000001
 44
0.0000000001
 40
0.0
 40
0.0
 40
0.0
 40
0.0
 40
0.0787452363
 40
0.1668469129
 40
0.2698882854
 40
0.389958068
 40
0.5261784937
 40
0.6759557675
 40
0.8356080372
 40
1.0
 40
1.0
 40
1.0
 40
1.0
 10
4.1811612861
 20
27.2144902168
 30
0.0
 10
4.1811612861
 20
27.2207545573
 30
0.0
 10
4.1841168234
 20
27.2341267156
 30
0.0
 10
4.1962605848
 20
27.2522529781
 30
0.0
 10
4.2151969516
 20
27.2685335165
 30
0.0
 10
4.2402019044
 20
27.2826577072
 30
0.0
 10
4.270449498
 20
27.2942617726
 30
0.0
 10
4.3049122525
 20
27.3028910759
 30
0.0
 10
4.3422887992
 20
27.3081995453
 30
0.0
 10
4.3680835777
 20
27.3094004802
 30
0.0
 10
4.3811612861
 20
27.3094004802
 30
0.0
  0
SPLINE
  5
282
100
AcDbEntity
  8
0
100
AcDbSpline
 62
7
  6
BYLAYER
 70
0
 71
3
 72
18
 73
14
 74
0
 42
0.0000001
 43
0.0000001
 44
0.0000000001
 40
0.0
 40
0.0
 40
0.0
 40
0.0
 40
0.0213174733
 40
0.0459825081
 40
0.0760904524
 40
0.112719869
 40
0.1562705767
 40
0.2067820131
 40
0.3279183163
 40
0.47297975
 40
0.6373316222
 40
0.8153710353
 40
1.0
 40
1.0
 40
1.0
 40
1.0
 10
4.1811612861
 20
25.9885256633
 30
0.0
 10
4.1811612861
 20
25.9900343454
 30
0.0
 10
4.1819347465
 20
25.9933087913
 30
0.0
 10
4.1850481239
 20
25.9977982345
 30
0.0
 10
4.1899365863
 20
26.0020967908
 30
0.0
 10
4.1965866695
 20
26.006228424
 30
0.0
 10
4.2049569268
 20
26.0101962195
 30
0.0
 10
4.2192270244
 20
26.015554982
 30
0.0
 10
4.2409309648
 20
26.0213366093
 30
0.0
 10
4.2709234369
 20
26.026817464
 30
0.0
 10
4.3051982845
 20
26.0309074571
 30
0.0
 10
4.3424239554
 20
26.0334318729
 30
0.0
 10
4.3680947083
 20
26.0340026751
 30
0.0
 10
4.3811612861
 20
26.0340026751
 30
0.0
  0
SPLINE
  5
283
100
AcDbEntity
  8
0
100
AcDbSpline
 62
7
  6
BYLAYER
 70
0
 71
3
 72
18
 73
14
 74
0
 42
0.0000001
 43
0.0000001
 44
0.0000000001
 40
0.0
 40
0.0
 40
0.0
 40
0.0
 40
0.1846298095
 40
0.3626681625
 40
0.5270159836
 40
0.6720751957
 40
0.7932101637
 40
0.8437224447
 40
0.8872748507
 40
0.9239055642
 40
0.9540152767
 40
0.9786819957
 40
1.0
 40
1.0
 40
1.0
 40
1.0
 10
4.3811612861
 20
25.200718388
 30
0.0
 10
4.3680946565
 20
25.200718388
 30
0.0
 10
4.3424239363
 20
25.2012892255
 30
0.0
 10
4.3051985843
 20
25.2038135511
 30
0.0
 10
4.270924278
 20
25.2079035083
 30
0.0
 10
4.2409323329
 20
25.2133841351
 30
0.0
 10
4.2192285653
 20
25.2191656046
 30
0.0
 10
4.2049583395
 20
25.2245242214
 30
0.0
 10
4.1965877349
 20
25.2284919179
 30
0.0
 10
4.1899374076
 20
25.2326238105
 30
0.0
 10
4.1850487332
 20
25.2369226069
 30
0.0
 10
4.1819349832
 20
25.2414120999
 30
0.0
 10
4.1811612861
 20
25.2446866811
 30
0.0
 10
4.1811612861
 20
25.2461953999
 30
0.0
  0
SPLINE
  5
284
100
AcDbEntity
  8
0
100
AcDbSpline
 62
7
  6
BYLAYER
 70
0
 71
3
 72
15
 73
11
 74
0
 42
0.0000001
 43
0.0000001
 44
0.0000000001
 40
0.0
 40
0.0
 40
0.0
 40
0.0
 40
0.1643926799
 40
0.3240439335
 40
0.4738174519
 40
0.6100354876
 40
0.7301033625
 40
0.8331462764
 40
0.9212521201
 40
1.0
 40
1.0
 40
1.0
 40
1.0
 10
4.3811612861
 20
23.9253205829
 30
0.0
 10
4.3680835255
 20
23.9253205829
 30
0.0
 10
4.3422887877
 20
23.9265215903
 30
0.0
 10
4.3049125498
 20
23.9318298725
 30
0.0
 10
4.2704503903
 20
23.9404590906
 30
0.0
 10
4.2402032849
 20
23.952062654
 30
0.0
 10
4.2151985243
 20
23.9661865697
 30
0.0
 10
4.196261312
 20
23.9824667305
 30
0.0
 10
4.1841176525
 20
24.0005937723
 30
0.0
 10
4.1811612861
 20
24.0139662978
 30
0.0
 10
4.1811612861
 20
24.0202308464
 30
0.0
  0
SPLINE
  5
285
100
AcDbEntity
  8
0
100
AcDbSpline
 62
7
  6
BYLAYER
 70
0
 71
3
 72
11
 73
7
 74
0
 42
0.0000001
 43
0.0000001
 44
0.0000000001
 40
0.0
 40
0.0
 40
0.0
 40
0.0
 40
0.2448972199
 40
0.4927502955
 40
0.7448554635
 40
1.0
 40
1.0
 40
1.0
 40
1.0
 10
4.1811612861
 20
29.9474186172
 30
0.0
 10
4.1811612861
 20
29.9724772965
 30
0.0
 10
4.1915903193
 20
30.0234729497
 30
0.0
 10
4.2361441277
 20
30.0877170908
 30
0.0
 10
4.3025983729
 20
30.1307309853
 30
0.0
 10
4.355054068
 20
30.1407490412
 30
0.0
 10
4.3811612861
 20
30.1407490412
 30
0.0
  0
SPLINE
  5
286
100
AcDbEntity
  8
0
100
AcDbSpline
 62
7
  6
BYLAYER
 70
0
 71
3
 72
13
 73
9
 74
0
 42
0.0000001
 43
0.0000001
 44
0.0000000001
 40
0.0
 40
0.0
 40
0.0
 40
0.0
 40
0.2909896794
 40
0.5591132082
 40
0.6806498823
 40
0.7932670514
 40
0.8987672034
 40
1.0
 40
1.0
 40
1.0
 40
1.0
 10
4.3811612861
 20
22.7652325041
 30
0.0
 10
4.3552858555
 20
22.7652325041
 30
0.0
 10
4.3053236371
 20
22.771783495
 30
0.0
 10
4.2489093244
 20
22.7967218068
 30
0.0
 10
4.2143449394
 20
22.8254345197
 30
0.0
 10
4.1955335607
 20
22.8494097278
 30
0.0
 10
4.1838537168
 20
22.8756303257
 30
0.0
 10
4.1811612861
 20
22.8941062027
 30
0.0
 10
4.1811612861
 20
22.9031080415
 30
0.0
  0
SPLINE
  5
287
100
AcDbEntity
  8
0
100
AcDbSpline
 62
7
  6
BYLAYER
 70
0
 71
3
 72
13
 73
9
 74
0
 42
0.0000001
 43
0.0000001
 44
0.0000000001
 40
0.0
 40
0.0
 40
0.0
 40
0.0
 40
0.2680212812
 40
0.5253099608
 40
0.6486956738
 40
0.7682770291
 40
0.8850458317
 40
1.0
 40
1.0
 40
1.0
 40
1.0
 10
4.3811612861
 20
21.799512237
 30
0.0
 10
4.3551545826
 20
21.799512237
 30
0.0
 10
4.3037635605
 20
21.8080479181
 30
0.0
 10
4.2476431073
 20
21.8397567111
 30
0.0
 10
4.2138475236
 20
21.8750085315
 30
0.0
 10
4.1952168214
 20
21.9048491695
 30
0.0
 10
4.1837697141
 20
21.9372396903
 30
0.0
 10
4.1811612861
 20
21.9598027987
 30
0.0
 10
4.1811612861
 20
21.9709570584
 30
0.0
  0
SPLINE
  5
288
100
AcDbEntity
  8
0
100
AcDbSpline
 62
7
  6
BYLAYER
 70
0
 71
3
 72
11
 73
7
 74
0
 42
0.0000001
 43
0.0000001
 44
0.0000000001
 40
0.0
 40
0.0
 40
0.0
 40
0.0
 40
0.2551441038
 40
0.5072431083
 40
0.7550932419
 40
1.0
 40
1.0
 40
1.0
 40
1.0
 10
4.3811612861
 20
21.0939720219
 30
0.0
 10
4.3550541043
 20
21.0939720219
 30
0.0
 10
4.3025990456
 20
21.1039898506
 30
0.0
 10
4.2361455254
 20
21.1470028547
 30
0.0
 10
4.1915907278
 20
21.2112463317
 30
0.0
 10
4.1811612861
 20
21.262242783
 30
0.0
 10
4.1811612861
 20
21.287302446
 30
0.0
  0
SPLINE
  5
289
100
AcDbEntity
  8
0
100
AcDbSpline
 62
7
  6
BYLAYER
 70
0
 71
3
 72
11
 73
7
 74
0
 42
0.0000001
 43
0.0000001
 44
0.0000000001
 40
0.0
 40
0.0
 40
0.0
 40
0.0
 40
0.2500464975
 40
0.5000473667
 40
0.7500120773
 40
1.0
 40
1.0
 40
1.0
 40
1.0
 10
4.3811612861
 20
20.6966932585
 30
0.0
 10
4.3550108789
 20
20.6966932585
 30
0.0
 10
4.3021236718
 20
20.7073227096
 30
0.0
 10
4.2356498343
 20
20.7526147088
 30
0.0
 10
4.1914294005
 20
20.8197400306
 30
0.0
 10
4.1811612861
 20
20.8725898551
 30
0.0
 10
4.1811612861
 20
20.8987341363
 30
0.0
  0
SPLINE
  5
28A
100
AcDbEntity
  8
0
100
AcDbSpline
 62
7
  6
BYLAYER
 70
0
 71
3
 72
17
 73
13
 74
0
 42
0.0000001
 43
0.0000001
 44
0.0000000001
 40
0.0
 40
0.0
 40
0.0
 40
0.0
 40
0.0047277
 40
0.018811833
 40
0.0421057772
 40
0.0744632678
 40
0.1653790158
 40
0.2883740845
 40
0.4394589273
 40
0.6129544945
 40
0.8024324005
 40
1.0
 40
1.0
 40
1.0
 40
1.0
 10
23.1979957895
 20
45.817360531
 30
0.0
 10
23.2031419648
 20
45.8167017963
 30
0.0
 10
23.2236043213
 20
45.8139678808
 30
0.0
 10
23.2694466034
 20
45.8081734797
 30
0.0
 10
23.345386464
 20
45.7987071846
 30
0.0
 10
23.5050715521
 20
45.7794441045
 30
0.0
 10
23.7735902578
 20
45.7488165356
 30
0.0
 10
24.1721814323
 20
45.7091206587
 30
0.0
 10
24.6617241338
 20
45.6688532987
 30
0.0
 10
25.2248297643
 20
45.6341096659
 30
0.0
 10
25.8395931926
 20
45.6111153426
 30
0.0
 10
26.2643511626
 20
45.6053963809
 30
0.0
 10
26.4811612864
 20
45.6053919817
 30
0.0
  0
SPLINE
  5
28B
100
AcDbEntity
  8
0
100
AcDbSpline
 62
7
  6
BYLAYER
 70
0
 71
3
 72
29
 73
25
 74
0
 42
0.0000001
 43
0.0000001
 44
0.0000000001
 40
0.0
 40
0.0
 40
0.0
 40
0.0
 40
0.2199667981
 40
0.4171774412
 40
0.5064488557
 40
0.5891275049
 40
0.6649428765
 40
0.7336307162
 40
0.7949386193
 40
0.8486147583
 40
0.8944281434
 40
0.9143301881
 40
0.9322007947
 40
0.948018689
 40
0.961762581
 40
0.9734140024
 40
0.9829637569
 40
0.9904045408
 40
0.9933317858
 40
0.9957290483
 40
0.9975954148
 40
0.9989299714
 40
0.9997318045
 40
1.0
 40
1.0
 40
1.0
 40
1.0
 10
18.9486835331
 20
33.9637494762
 30
0.0
 10
18.7532824489
 20
34.0052997491
 30
0.0
 10
18.3832790387
 20
34.0868759171
 30
0.0
 10
17.9355175644
 20
34.1921061079
 30
0.0
 10
17.6098712461
 20
34.271844685
 30
0.0
 10
17.3916123023
 20
34.326578441
 30
0.0
 10
17.1917411091
 20
34.3777720566
 30
0.0
 10
17.0108819847
 20
34.4249633635
 30
0.0
 10
16.8496530752
 20
34.4677432943
 30
0.0
 10
16.708639527
 20
34.5057036257
 30
0.0
 10
16.6040213655
 20
34.5341989102
 30
0.0
 10
16.5308204945
 20
34.5543027936
 30
0.0
 10
16.4839042102
 20
34.5672499617
 30
0.0
 10
16.4423915951
 20
34.5787544392
 30
0.0
 10
16.4063309653
 20
34.5887827531
 30
0.0
 10
16.3757596004
 20
34.5973032596
 30
0.0
 10
16.3507071834
 20
34.6043032428
 30
0.0
 10
16.3332869631
 20
34.6091774174
 30
0.0
 10
16.3221262962
 20
34.6123129582
 30
0.0
 10
16.3158352826
 20
34.614069245
 30
0.0
 10
16.3109502186
 20
34.6154696126
 30
0.0
 10
16.3074298397
 20
34.6163996736
 30
0.0
 10
16.3053650974
 20
34.6170887213
 30
0.0
 10
16.304391332
 20
34.6172525724
 30
0.0
 10
16.3041728704
 20
34.6173602807
 30
0.0
  0
SPLINE
  5
28C
100
AcDbEntity
  8
0
100
AcDbSpline
 62
7
  6
BYLAYER
 70
0
 71
3
 72
16
 73
12
 74
0
 42
0.0000001
 43
0.0000001
 44
0.0000000001
 40
0.0
 40
0.0
 40
0.0
 40
0.0
 40
0.1316976141
 40
0.2670839397
 40
0.4032291536
 40
0.536791753
 40
0.6648232363
 40
0.7261738758
 40
0.7854172419
 40
0.8970580753
 40
1.0
 40
1.0
 40
1.0
 40
1.0
 10
21.118011022
 20
36.4347325198
 30
0.0
 10
21.084816673
 20
36.2860236206
 30
0.0
 10
21.0002442559
 20
35.988031028
 30
0.0
 10
20.8222251146
 20
35.5556453787
 30
0.0
 10
20.5903769816
 20
35.1468551269
 30
0.0
 10
20.3127470953
 20
34.7780953795
 30
0.0
 10
20.0455207131
 20
34.5146856419
 30
0.0
 10
19.8182188821
 20
34.3379646533
 30
0.0
 10
19.5932000564
 20
34.1906417522
 30
0.0
 10
19.306694309
 20
34.0515761981
 30
0.0
 10
19.0660091768
 20
33.9843079834
 30
0.0
 10
18.9486994556
 20
33.9637380644
 30
0.0
  0
SPLINE
  5
28D
100
AcDbEntity
  8
0
100
AcDbSpline
 62
7
  6
BYLAYER
 70
0
 71
3
 72
17
 73
13
 74
0
 42
0.0000001
 43
0.0000001
 44
0.0000000001
 40
0.0
 40
0.0
 40
0.0
 40
0.0
 40
0.0590255684
 40
0.1189688894
 40
0.1796496688
 40
0.2409428062
 40
0.3649748787
 40
0.4904506735
 40
0.6169539084
 40
0.7441868377
 40
0.8719329919
 40
1.0
 40
1.0
 40
1.0
 40
1.0
 10
18.9486835331
 20
33.9637494762
 30
0.0
 10
19.0998747555
 20
33.9496619962
 30
0.0
 10
19.4040835075
 20
33.9154908837
 30
0.0
 10
19.8617069455
 20
33.8506004545
 30
0.0
 10
20.3234860556
 20
33.7743998306
 30
0.0
 10
20.9459669149
 20
33.660099267
 30
0.0
 10
21.7291147102
 20
33.4985326832
 30
0.0
 10
22.6725019134
 20
33.2845876489
 30
0.0
 10
23.6208324528
 20
33.0556908331
 30
0.0
 10
24.5725560948
 20
32.8162066432
 30
0.0
 10
25.5264286493
 20
32.5689003236
 30
0.0
 10
26.1627024996
 20
32.4008479236
 30
0.0
 10
26.4811613044
 20
32.3164268319
 30
0.0
  0
SPLINE
  5
28E
100
AcDbEntity
  8
0
100
AcDbSpline
 62
7
  6
BYLAYER
 70
0
 71
3
 72
34
 73
30
 74
0
 42
0.0000001
 43
0.0000001
 44
0.0000000001
 40
0.0
 40
0.0
 40
0.0
 40
0.0
 40
0.1975651111
 40
0.293833093
 40
0.387046096
 40
0.4762166201
 40
0.5605435431
 40
0.6392684272
 40
0.7116287863
 40
0.7769130038
 40
0.8346236683
 40
0.8843149768
 40
0.9060134182
 40
0.9255387781
 40
0.9428410881
 40
0.957895764
 40
0.9706845573
 40
0.9811891967
 40
0.985579243
 40
0.9893913888
 40
0.9926233436
 40
0.995272816
 40
0.9973375128
 40
0.9981498535
 40
0.9988151398
 40
0.9993330847
 40
0.9997034012
 40
0.9999258021
 40
1.0
 40
1.0
 40
1.0
 40
1.0
 10
26.4811612858
 20
45.6053919153
 30
0.0
 10
26.6979706947
 20
45.6053960912
 30
0.0
 10
27.0204430423
 20
45.6097252758
 30
0.0
 10
27.4449826887
 20
45.6231890708
 30
0.0
 10
27.7504930371
 20
45.6365582905
 30
0.0
 10
28.042730879
 20
45.6529415362
 30
0.0
 10
28.3189013518
 20
45.6715396581
 30
0.0
 10
28.5764725325
 20
45.6915490979
 30
0.0
 10
28.8130236064
 20
45.7121762512
 30
0.0
 10
29.026429504
 20
45.732660718
 30
0.0
 10
29.2149218451
 20
45.7522628701
 30
0.0
 10
29.3557327277
 20
45.7679027218
 30
0.0
 10
29.4548434387
 20
45.7793622143
 30
0.0
 10
29.5186273325
 20
45.7868939584
 30
0.0
 10
29.5751582129
 20
45.7936747177
 30
0.0
 10
29.624338246
 20
45.7996635951
 30
0.0
 10
29.6661039965
 20
45.8048254545
 30
0.0
 10
29.6962480318
 20
45.8086050796
 30
0.0
 10
29.7166139852
 20
45.8111874895
 30
0.0
 10
29.7290607992
 20
45.8127770107
 30
0.0
 10
29.7396118335
 20
45.8141333733
 30
0.0
 10
29.7482595198
 20
45.8152538399
 30
0.0
 10
29.7542741193
 20
45.8160357169
 30
0.0
 10
29.7581275716
 20
45.8165438092
 30
0.0
 10
29.7603008713
 20
45.8168229797
 30
0.0
 10
29.7619858539
 20
45.817062244
 30
0.0
 10
29.7632060576
 20
45.8171852334
 30
0.0
 10
29.7639106951
 20
45.8173463693
 30
0.0
 10
29.764254963
 20
45.8173221745
 30
0.0
 10
29.7643267882
 20
45.8173605311
 30
0.0
  0
SPLINE
  5
28F
100
AcDbEntity
  8
0
100
AcDbSpline
 62
7
  6
BYLAYER
 70
0
 71
3
 72
25
 73
21
 74
0
 42
0.0000001
 43
0.0000001
 44
0.0000000001
 40
0.0
 40
0.0
 40
0.0
 40
0.0
 40
0.0010581414
 40
0.0023790578
 40
0.0042263817
 40
0.0094957867
 40
0.0168574317
 40
0.0263024012
 40
0.0378217892
 40
0.0514066992
 40
0.0670482443
 40
0.1044491504
 40
0.1498709339
 40
0.2031442537
 40
0.2641007373
 40
0.3325559578
 40
0.4082587007
 40
0.5803449355
 40
0.7782703519
 40
1.0
 40
1.0
 40
1.0
 40
1.0
 10
19.2675648385
 20
37.1502017619
 30
0.0
 10
19.2682268085
 20
37.1499740706
 30
0.0
 10
19.2696285909
 20
37.1492425113
 30
0.0
 10
19.2722017688
 20
37.1481530008
 30
0.0
 10
19.2772927408
 20
37.145860369
 30
0.0
 10
19.2860581979
 20
37.1420007
 30
0.0
 10
19.2994146353
 20
37.1360914971
 30
0.0
 10
19.3165678242
 20
37.1285459152
 30
0.0
 10
19.3374984027
 20
37.1193620001
 30
0.0
 10
19.3621970121
 20
37.1085631451
 30
0.0
 10
19.4026050758
 20
37.0909530531
 30
0.0
 10
19.4623748287
 20
37.065050669
 30
0.0
 10
19.545129077
 20
37.0295761239
 30
0.0
 10
19.6424016582
 20
36.9884196441
 30
0.0
 10
19.753953513
 20
36.941909639
 30
0.0
 10
19.8794956328
 20
36.8904000686
 30
0.0
 10
20.0735981666
 20
36.8123181151
 30
0.0
 10
20.3485099587
 20
36.7056320852
 30
0.0
 10
20.7160739801
 20
36.5708340732
 30
0.0
 10
20.9787184364
 20
36.4807653465
 30
0.0
 10
21.1179986413
 20
36.4347343084
 30
0.0
  0
SPLINE
  5
290
100
AcDbEntity
  8
0
100
AcDbSpline
 62
7
  6
BYLAYER
 70
0
 71
3
 72
36
 73
32
 74
0
 42
0.0000001
 43
0.0000001
 44
0.0000000001
 40
0.0
 40
0.0
 40
0.0
 40
0.0
 40
0.1954698629
 40
0.290813655
 40
0.3833134772
 40
0.4720920754
 40
0.5562808517
 40
0.6350756328
 40
0.7077234703
 40
0.7735397011
 40
0.8318928801
 40
0.8580988449
 40
0.8822363832
 40
0.9042504853
 40
0.9240917572
 40
0.9417108485
 40
0.9570633293
 40
0.970117083
 40
0.9757724895
 40
0.9808418758
 40
0.9853214635
 40
0.9892081262
 40
0.9925003431
 40
0.995196836
 40
0.9972963266
 40
0.9981217965
 40
0.9987975364
 40
0.9993233865
 40
0.999699187
 40
0.9999247781
 40
1.0
 40
1.0
 40
1.0
 40
1.0
 10
26.4811611845
 20
43.0926085327
 30
0.0
 10
26.8884205065
 20
43.0926213359
 30
0.0
 10
27.4943361503
 20
43.0962936828
 30
0.0
 10
28.2928773624
 20
43.1083692963
 30
0.0
 10
28.8690939744
 20
43.1204281946
 30
0.0
 10
29.422000459
 20
43.13508295
 30
0.0
 10
29.9462815009
 20
43.1517536302
 30
0.0
 10
30.436887681
 20
43.1697813803
 30
0.0
 10
30.8891595334
 20
43.1884717773
 30
0.0
 10
31.2988039071
 20
43.2070978566
 30
0.0
 10
31.6117322403
 20
43.2224791224
 30
0.0
 10
31.8378990512
 20
43.2341632483
 30
0.0
 10
31.9884430795
 20
43.2421611924
 30
0.0
 10
32.1257350211
 20
43.2496410817
 30
0.0
 10
32.2494574917
 20
43.2565357009
 30
0.0
 10
32.3593152841
 20
43.2627779816
 30
0.0
 10
32.4550491577
 20
43.2683049909
 30
0.0
 10
32.5258947457
 20
43.2724550183
 30
0.0
 10
32.5753506943
 20
43.2753803967
 30
0.0
 10
32.6069728589
 20
43.2772609981
 30
0.0
 10
32.6349164415
 20
43.278930201
 30
0.0
 10
32.6591620809
 20
43.2803827382
 30
0.0
 10
32.6797036352
 20
43.2816180032
 30
0.0
 10
32.6965153812
 20
43.2826300006
 30
0.0
 10
32.7082277688
 20
43.2833420683
 30
0.0
 10
32.7156831814
 20
43.2837883638
 30
0.0
 10
32.7199677238
 20
43.2840604617
 30
0.0
 10
32.7230700426
 20
43.2842182618
 30
0.0
 10
32.7258174358
 20
43.2844553581
 30
0.0
 10
32.7265171533
 20
43.2843756231
 30
0.0
 10
32.7278751953
 20
43.2845852136
 30
0.0
 10
32.7277307724
 20
43.2845243498
 30
0.0
  0
SPLINE
  5
291
100
AcDbEntity
  8
0
100
AcDbSpline
 62
7
  6
BYLAYER
 70
0
 71
3
 72
17
 73
13
 74
0
 42
0.0000001
 43
0.0000001
 44
0.0000000001
 40
0.0
 40
0.0
 40
0.0
 40
0.0
 40
0.0474506504
 40
0.0980945955
 40
0.151645818
 40
0.2078213774
 40
0.2663108869
 40
0.3268394712
 40
0.4529903046
 40
0.5845938113
 40
0.7203185357
 40
1.0
 40
1.0
 40
1.0
 40
1.0
 10
21.117997658
 20
36.4347181618
 30
0.0
 10
21.220049219
 20
36.4010003265
 30
0.0
 10
21.4269535458
 20
36.3187908367
 30
0.0
 10
21.7344978789
 20
36.1652581646
 30
0.0
 10
22.0488859225
 20
35.9829252361
 30
0.0
 10
22.3689774918
 20
35.7760527463
 30
0.0
 10
22.6942343049
 20
35.5486122823
 30
0.0
 10
23.1399342034
 20
35.2172607465
 30
0.0
 10
23.7036245818
 20
34.7675418207
 30
0.0
 10
24.3844856227
 20
34.1923429539
 30
0.0
 10
25.3157125854
 20
33.3750000365
 30
0.0
 10
26.0127132035
 20
32.7428834114
 30
0.0
 10
26.4811434733
 20
32.3164078544
 30
0.0
  0
SPLINE
  5
292
100
AcDbEntity
  8
0
100
AcDbSpline
 62
7
  6
BYLAYER
 70
0
 71
3
 72
12
 73
8
 74
0
 42
0.0000001
 43
0.0000001
 44
0.0000000001
 40
0.0
 40
0.0
 40
0.0
 40
0.0
 40
0.2611853721
 40
0.3904002604
 40
0.5179110171
 40
0.7656266564
 40
1.0
 40
1.0
 40
1.0
 40
1.0
 10
26.5399347458
 20
32.3164361695
 30
0.0
 10
26.884580429
 20
32.2910578076
 30
0.0
 10
27.3996460788
 20
32.2514081689
 30
0.0
 10
28.0840192243
 20
32.2159378466
 30
0.0
 10
28.7509458379
 20
32.1897543113
 30
0.0
 10
29.5572497369
 20
32.1674150067
 30
0.0
 10
30.1951265207
 20
32.1617030193
 30
0.0
 10
30.505229872
 20
32.1616955109
 30
0.0
  0
SPLINE
  5
293
100
AcDbEntity
  8
0
100
AcDbSpline
 62
7
  6
BYLAYER
 70
0
 71
3
 72
32
 73
28
 74
0
 42
0.0000001
 43
0.0000001
 44
0.0000000001
 40
0.0
 40
0.0
 40
0.0
 40
0.0
 40
0.0000752612
 40
0.0003008786
 40
0.0006766941
 40
0.0012025498
 40
0.0027037504
 40
0.0048032171
 40
0.0074996866
 40
0.0107918959
 40
0.014678582
 40
0.0191581907
 40
0.0298828494
 40
0.0429363664
 40
0.0582886702
 40
0.0759075516
 40
0.0957483569
 40
0.1177619669
 40
0.1681046099
 40
0.2264566051
 40
0.2922719757
 40
0.364919098
 40
0.44371361
 40
0.5279028722
 40
0.616681934
 40
0.8045273343
 40
1.0
 40
1.0
 40
1.0
 40
1.0
 10
20.2345917996
 20
43.2845243486
 30
0.0
 10
20.234746221
 20
43.2844971069
 30
0.0
 10
20.2353770219
 20
43.2845018696
 30
0.0
 10
20.2367793773
 20
43.2843745467
 30
0.0
 10
20.2391265046
 20
43.2842552378
 30
0.0
 10
20.2441219361
 20
43.2839370807
 30
0.0
 10
20.2527049764
 20
43.2834271195
 30
0.0
 10
20.2658004472
 20
43.2826299753
 30
0.0
 10
20.2826216841
 20
43.2816177593
 30
0.0
 10
20.3031597271
 20
43.2803825125
 30
0.0
 10
20.3274066094
 20
43.2789298314
 30
0.0
 10
20.3671115726
 20
43.2765578129
 30
0.0
 10
20.4258830341
 20
43.2730720217
 30
0.0
 10
20.5072713799
 20
43.2683044281
 30
0.0
 10
20.6030038526
 20
43.2627772753
 30
0.0
 10
20.7128597699
 20
43.256534909
 30
0.0
 10
20.8365797098
 20
43.2496404895
 30
0.0
 10
21.0283867213
 20
43.2391909307
 30
0.0
 10
21.3003434194
 20
43.2249481418
 30
0.0
 10
21.6634950619
 20
43.2070974225
 30
0.0
 10
22.0731333987
 20
43.1884721971
 30
0.0
 10
22.5254010722
 20
43.169783
 30
0.0
 10
23.0160057603
 20
43.1517546984
 30
0.0
 10
23.5402878909
 20
43.1350844796
 30
0.0
 10
24.2917779109
 20
43.1151669521
 30
0.0
 10
25.2752498516
 20
43.097463005
 30
0.0
 10
26.0738963639
 20
43.0926220839
 30
0.0
 10
26.4811611845
 20
43.0926085337
 30
0.0
  0
SPLINE
  5
294
100
AcDbEntity
  8
0
100
AcDbSpline
 62
7
  6
BYLAYER
 70
0
 71
3
 72
22
 73
18
 74
0
 42
0.0000001
 43
0.0000001
 44
0.0000000001
 40
0.0
 40
0.0
 40
0.0
 40
0.0
 40
0.025145751
 40
0.0961910886
 40
0.2032155328
 40
0.3360788482
 40
0.4096412665
 40
0.4869081262
 40
0.5672644147
 40
0.650206669
 40
0.7353225974
 40
0.7785957095
 40
0.8222849069
 40
0.8663415578
 40
0.9107045608
 40
0.9552914492
 40
1.0
 40
1.0
 40
1.0
 40
1.0
 10
18.4811612861
 20
16.6173605316
 30
0.0
 10
18.5409444281
 20
16.6705003135
 30
0.0
 10
18.7698710431
 20
16.8735140629
 30
0.0
 10
19.2555386594
 20
17.300112046
 30
0.0
 10
20.0054164099
 20
17.9450620824
 30
0.0
 10
20.7733161464
 20
18.5812257445
 30
0.0
 10
21.4816818284
 20
19.140373084
 30
0.0
 10
22.0689038159
 20
19.5831750169
 30
0.0
 10
22.69365833
 20
20.0253308764
 30
0.0
 10
23.3576554112
 20
20.4542285389
 30
0.0
 10
23.9441168815
 20
20.7842708235
 30
0.0
 10
24.4383143732
 20
21.0201005793
 30
0.0
 10
24.8240110047
 20
21.1786654509
 30
0.0
 10
25.2228058648
 20
21.3123201657
 30
0.0
 10
25.6338581867
 20
21.4146949389
 30
0.0
 10
26.0546903129
 20
21.4794522653
 30
0.0
 10
26.3389442289
 20
21.4942548628
 30
0.0
 10
26.4811587818
 20
21.4942549059
 30
0.0
  0
ENDSEC
  0
SECTION
  2
OBJECTS
  0
DICTIONARY
  5
C
100
AcDbDictionary
280
0
281
1
  3
ACAD_GROUP
350
D
  3
ACAD_MLINESTYLE
350
17
  3
ACAD_LAYOUT
350
1A
  3
ACAD_PLOTSETTINGS
350
19
  3
ACAD_PLOTSTYLENAME
350
E
  0
DICTIONARY
  5
D
102
{ACAD_REACTORS
330
C
102
}
100
AcDbDictionary
280
0
281
1
  0
ACDBDICTIONARYWDFLT
  5
E
102
{ACAD_REACTORS
330
C
102
}
100
AcDbDictionary
281
1
  3
Normal
350
F
100
AcDbDictionaryWithDefault
340
F
  0
DICTIONARY
  5
17
102
{ACAD_REACTORS
330
C
102
}
100
AcDbDictionary
280
0
281
1
  3
Standard
350
18
  0
DICTIONARY
  5
19
102
{ACAD_REACTORS
330
C
102
}
100
AcDbDictionary
281
1
  0
DICTIONARY
  5
1A
102
{ACAD_REACTORS
330
C
102
}
100
AcDbDictionary
281
1
  3
Model
350
295
  3
Layout1
350
296
  0
ACDBPLACEHOLDER
  5
F
102
{ACAD_REACTORS
330
E
102
}
  0
MLINESTYLE
  5
18
102
{ACAD_REACTORS
330
17
102
}
100
AcDbMlineStyle
  2
STANDARD
 70
0
  3

 62
256
 51
90.0
 52
90.0
 71
2
 49
0.5
 62
256
  6
BYLAYER
 49
-0.5
 62
256
  6
BYLAYER
  0
LAYOUT
  5
295
102
{ACAD_REACTORS
330
1A
102
}
100
AcDbPlotSettings
  1

  2
none_device
  4

  6

 40
0.0
 41
0.0
 42
0.0
 43
0.0
 44
210.0
 45
297.0
 46
0.0
 47
0.0
 48
0.0
 49
0.0
140
0.0
141
0.0
142
1.0
143
1.0
 70
1024
 72
1
 73
0
 74
0
  7

 75
0
147
1.0
148
0.0
149
0.0
100
AcDbLayout
  1
Model
 70
0
 71
0
 10
0.0
 20
0.0
 11
210.0
 21
297.0
 12
0.0
 22
0.0
 32
0.0
 14
0.0
 24
0.0
 34
0.0
 15
0.0
 25
0.0
 35
0.0
146
0.0
 13
0.0
 23
0.0
 33
0.0
 16
1.0
 26
0.0
 36
0.0
 17
0.0
 27
1.0
 37
0.0
 76
0
330
210
345
0
346
0
  0
LAYOUT
  5
296
102
{ACAD_REACTORS
330
1A
102
}
100
AcDbPlotSettings
  1

  2
none_device
  4

  6

 40
0.0
 41
0.0
 42
0.0
 43
0.0
 44
210.0
 45
297.0
 46
0.0
 47
0.0
 48
0.0
 49
0.0
140
0.0
141
0.0
142
1.0
143
1.0
 70
0
 72
1
 73
0
 74
0
  7

 75
0
147
1.0
148
0.0
149
0.0
100
AcDbLayout
  1
Layout1
 70
0
 71
1
 10
0.0
 20
0.0
 11
210.0
 21
297.0
 12
0.0
 22
0.0
 32
0.0
 14
0.0
 24
0.0
 34
0.0
 15
0.0
 25
0.0
 35
0.0
146
0.0
 13
0.0
 23
0.0
 33
0.0
 16
1.0
 26
0.0
 36
0.0
 17
0.0
 27
1.0
 37
0.0
 76
0
330
211
345
0
346
0
  0
ENDSEC
  0
EOF
