999
DXF file: C:\Users\sesa63760\Dev\_Creo\CAD\MCADID0004770_3D-CAD\drw0001_4.dxf
999
Pro/ENGINEER 2019471 by Parametric Technology Corporation
  0
SECTION
  2
HEADER
  9
$ACADVER
  1
AC1024
  9
$DWGCODEPAGE
  3
ANSI_1252
  9
$EXTMAX
 10
58.5146725879
 20
82.7564655172
 30
0.0
  9
$EXTMIN
 10
0.0
 20
0.0
 30
0.0
  9
$LIMMIN
 10
0.0
 20
0.0
  9
$LIMMAX
 10
58.5146725879
 20
82.7564655172
  9
$VIEWCTR
 10
29.257336294
 20
41.3782327586
  9
$VIEWSIZE
 40
82.7564655172
  9
$CLAYER
  8
0
  9
$LTSCALE
 40
5.39449553
  9
$CELTYPE
  6
BYLAYER
  9
$DIMSCALE
 40
1.0
  9
$DIMASZ
 40
0.6966032451
  9
$DIMEXO
 40
1.0
  9
$DIMDLI
 40
3.7271060026
  9
$DIMEXE
 40
1.0
  9
$DIMCEN
 40
0.8827356322
  9
$DIMLFAC
 40
1.0
  9
$DIMBLK
  1
_FILLED
  9
$DIMALT
 70
0
  9
$DIMALTF
 40
0.0393700787
  9
$DIMTXT
 40
0.9752445431
  9
$DIMTOL
 70
1
  9
$DIMLIM
 70
0
  9
$DIMTFAC
 40
1.0
  9
$DIMTP
 40
0.01
  9
$DIMTM
 40
0.01
  9
$DIMGAP
 40
0.625
  9
$DIMDSEP
 70
46
  9
$AUNITS
 70
0
  9
$PDMODE
 70
3
  9
$PDSIZE
 40
0.3125
  9
$HANDSEED
  5
2EF
  9
$TILEMODE
 70
1
  9
$MEASUREMENT
 70
1
  9
$INSUNITS
 70
4
  0
ENDSEC
  0
SECTION
  2
CLASSES
  0
CLASS
  1
ACDBDICTIONARYWDFLT
  2
AcDbDictionaryWithDefault
  3
AutoCAD 2000
 90
0
 91
1
280
0
281
0
  0
CLASS
  1
ACDBPLACEHOLDER
  2
AcDbPlaceHolder
  3
AutoCAD 2000
 90
0
 91
1
280
0
281
0
  0
CLASS
  1
LAYOUT
  2
AcDbLayout
  3
AutoCAD 2000
 90
0
 91
0
280
0
281
0
  0
ENDSEC
  0
SECTION
  2
TABLES
  0
TABLE
  2
VPORT
  5
8
100
AcDbSymbolTable
 70
2
  0
VPORT
  5
1F4
100
AcDbSymbolTableRecord
100
AcDbViewportTableRecord
  2
*ACTIVE
 70
0
 10
0.0
 20
0.0
 11
1.0
 21
1.0
 12
29.257336294
 22
41.3782327586
 13
0.0
 23
0.0
 14
1.0
 24
1.0
 15
0.0
 25
0.0
 16
0.0
 26
0.0
 36
1.0
 17
0.0
 27
0.0
 37
0.0
 40
82.7564655172
 41
0.7070707071
 42
50.0
 43
0.0
 44
0.0
 50
0.0
 51
0.0
 71
0
 72
100
 73
1
 74
1
 75
0
 76
0
 77
0
 78
0
  0
ENDTAB
  0
TABLE
  2
LTYPE
  5
5
100
AcDbSymbolTable
 70
6
  0
LTYPE
  5
14
100
AcDbSymbolTableRecord
100
AcDbLinetypeTableRecord
  2
BYBLOCK
 70
0
  3

 72
65
 73
0
 40
0.0
  0
LTYPE
  5
15
100
AcDbSymbolTableRecord
100
AcDbLinetypeTableRecord
  2
BYLAYER
 70
0
  3

 72
65
 73
0
 40
0.0
  0
LTYPE
  5
16
100
AcDbSymbolTableRecord
100
AcDbLinetypeTableRecord
  2
CONTINUOUS
 70
64
  3
Solid line
 72
65
 73
0
 40
0.0
  0
LTYPE
  5
1F5
100
AcDbSymbolTableRecord
100
AcDbLinetypeTableRecord
  2
CENTER
 70
64
  3
____ _ ____ _ ____ _ ____ _ ____ _ ____ _ ____
 72
65
 73
4
 40
0.6
 49
0.375
 74
0
 49
-0.075
 74
0
 49
0.075
 74
0
 49
-0.075
 74
0
  0
LTYPE
  5
1F6
100
AcDbSymbolTableRecord
100
AcDbLinetypeTableRecord
  2
HIDDEN
 70
64
  3
- - - - - - - - - - - - - - - - - - - -
 72
65
 73
2
 40
0.2
 49
0.1
 74
0
 49
-0.1
 74
0
  0
LTYPE
  5
1F7
100
AcDbSymbolTableRecord
100
AcDbLinetypeTableRecord
  2
PHANTOM
 70
64
  3
_____ _ _ _____ _ _ _____ _ _ _____
 72
65
 73
6
 40
0.8
 49
0.45
 74
0
 49
-0.05
 74
0
 49
0.1
 74
0
 49
-0.05
 74
0
 49
0.1
 74
0
 49
-0.05
 74
0
  0
LTYPE
  5
1F8
100
AcDbSymbolTableRecord
100
AcDbLinetypeTableRecord
  2
DOT
 70
64
  3
. . . . . . . . . . . . . . . . . . . .
 72
65
 73
2
 40
0.2
 49
0.1
 74
0
 49
-0.1
 74
0
  0
LTYPE
  5
1F9
100
AcDbSymbolTableRecord
100
AcDbLinetypeTableRecord
  2
DASHED
 70
64
  3
- - - - - - - - - - - - - - - - - - - -
 72
65
 73
2
 40
0.2
 49
0.1
 74
0
 49
-0.1
 74
0
  0
ENDTAB
  0
TABLE
  2
LAYER
  5
2
100
AcDbSymbolTable
 70
36
  0
LAYER
  5
10
100
AcDbSymbolTableRecord
100
AcDbLayerTableRecord
  2
0
 70
0
 62
7
  6
CONTINUOUS
370
-3
390
F
  0
LAYER
  5
1FA
100
AcDbSymbolTableRecord
100
AcDbLayerTableRecord
  2
DEFAULT_1
 70
0
 62
7
  6
CENTER
370
-3
390
F
  0
LAYER
  5
1FB
100
AcDbSymbolTableRecord
100
AcDbLayerTableRecord
  2
DEFAULT_2
 70
0
 62
7
  6
HIDDEN
370
-3
390
F
  0
LAYER
  5
1FC
100
AcDbSymbolTableRecord
100
AcDbLayerTableRecord
  2
DEFAULT_3
 70
0
 62
7
  6
PHANTOM
370
-3
390
F
  0
LAYER
  5
1FD
100
AcDbSymbolTableRecord
100
AcDbLayerTableRecord
  2
00_COMPONENTS
 70
0
 62
7
  6
CONTINUOUS
370
-3
390
F
  0
LAYER
  5
1FE
100
AcDbSymbolTableRecord
100
AcDbLayerTableRecord
  2
01_1_DEFAULT_DATUMS
 70
0
 62
7
  6
CONTINUOUS
370
-3
390
F
  0
LAYER
  5
1FF
100
AcDbSymbolTableRecord
100
AcDbLayerTableRecord
  2
01_PLANES
 70
0
 62
7
  6
CONTINUOUS
370
-3
390
F
  0
LAYER
  5
200
100
AcDbSymbolTableRecord
100
AcDbLayerTableRecord
  2
02_COORD_SYS
 70
0
 62
7
  6
CONTINUOUS
370
-3
390
F
  0
LAYER
  5
201
100
AcDbSymbolTableRecord
100
AcDbLayerTableRecord
  2
03_AXES
 70
0
 62
7
  6
CONTINUOUS
370
-3
390
F
  0
LAYER
  5
202
100
AcDbSymbolTableRecord
100
AcDbLayerTableRecord
  2
04_POINTS
 70
0
 62
7
  6
CONTINUOUS
370
-3
390
F
  0
LAYER
  5
203
100
AcDbSymbolTableRecord
100
AcDbLayerTableRecord
  2
05_CURVES
 70
0
 62
7
  6
CONTINUOUS
370
-3
390
F
  0
LAYER
  5
204
100
AcDbSymbolTableRecord
100
AcDbLayerTableRecord
  2
06_SURFS
 70
0
 62
7
  6
CONTINUOUS
370
-3
390
F
  0
LAYER
  5
205
100
AcDbSymbolTableRecord
100
AcDbLayerTableRecord
  2
07_COSMETICS
 70
0
 62
7
  6
CONTINUOUS
370
-3
390
F
  0
LAYER
  5
206
100
AcDbSymbolTableRecord
100
AcDbLayerTableRecord
  2
10_NOTES
 70
0
 62
7
  6
CONTINUOUS
370
-3
390
F
  0
LAYER
  5
207
100
AcDbSymbolTableRecord
100
AcDbLayerTableRecord
  2
11_NOTES_PUB
 70
0
 62
7
  6
CONTINUOUS
370
-3
390
F
  0
LAYER
  5
208
100
AcDbSymbolTableRecord
100
AcDbLayerTableRecord
  2
13_REF_GTOL
 70
0
 62
7
  6
CONTINUOUS
370
-3
390
F
  0
LAYER
  5
209
100
AcDbSymbolTableRecord
100
AcDbLayerTableRecord
  2
16_MISC
 70
0
 62
7
  6
CONTINUOUS
370
-3
390
F
  0
LAYER
  5
20A
100
AcDbSymbolTableRecord
100
AcDbLayerTableRecord
  2
17_NO_PRINT
 70
0
 62
7
  6
CONTINUOUS
370
-3
390
F
  0
LAYER
  5
20B
100
AcDbSymbolTableRecord
100
AcDbLayerTableRecord
  2
18_DATUM_CAMS_JOINTS
 70
0
 62
7
  6
CONTINUOUS
370
-3
390
F
  0
LAYER
  5
20C
100
AcDbSymbolTableRecord
100
AcDbLayerTableRecord
  2
19_DATUM_FUNCTIONAL
 70
0
 62
7
  6
CONTINUOUS
370
-3
390
F
  0
LAYER
  5
20D
100
AcDbSymbolTableRecord
100
AcDbLayerTableRecord
  2
20_DATUM_KINEMATIC_SCHEME
 70
0
 62
7
  6
CONTINUOUS
370
-3
390
F
  0
ENDTAB
  0
TABLE
  2
STYLE
  5
3
100
AcDbSymbolTable
 70
1
  0
STYLE
  5
11
100
AcDbSymbolTableRecord
100
AcDbTextStyleTableRecord
  2
STANDARD
 70
0
 40
0.0
 41
1.0
 50
0.0
 71
0
 42
0.2
  3
ARIAL.TTF
  4

  0
STYLE
  5
20E
100
AcDbSymbolTableRecord
100
AcDbTextStyleTableRecord
  2
TEXTSTYLE_1
 70
0
 40
0.0
 41
0.8
 50
0.0
 71
0
 42
0.2
  3
gdt
  4

  0
ENDTAB
  0
TABLE
  2
VIEW
  5
6
100
AcDbSymbolTable
 70
0
  0
ENDTAB
  0
TABLE
  2
UCS
  5
7
100
AcDbSymbolTable
 70
0
  0
ENDTAB
  0
TABLE
  2
APPID
  5
9
100
AcDbSymbolTable
 70
1
  0
APPID
  5
20F
100
AcDbSymbolTableRecord
100
AcDbRegAppTableRecord
  2
ACAD
 70
0
  0
ENDTAB
  0
TABLE
  2
BLOCK_RECORD
  5
1
100
AcDbSymbolTable
 70
0
  0
BLOCK_RECORD
  5
210
100
AcDbSymbolTableRecord
100
AcDbBlockTableRecord
  2
*Model_Space
  0
BLOCK_RECORD
  5
211
100
AcDbSymbolTableRecord
100
AcDbBlockTableRecord
  2
*Paper_Space
  0
BLOCK_RECORD
  5
212
100
AcDbSymbolTableRecord
100
AcDbBlockTableRecord
  2
_FILLED
  0
ENDTAB
  0
TABLE
  2
DIMSTYLE
  5
A
100
AcDbSymbolTable
 70
1
100
AcDbDimStyleTable
 71
0
  0
DIMSTYLE
105
213
100
AcDbSymbolTableRecord
100
AcDbDimStyleTableRecord
  2
STANDARD
 70
0
  3

  4

 40
1.0
 41
0.6966032451
 42
1.0
 43
0.38
 44
1.0
 45
0.0
 46
0.0
 47
0.01
 48
0.01
140
0.9752445431
141
0.09
142
0.0
143
25.4
144
1.0
145
0.0
146
1.0
147
0.625
 71
1
 72
0
 73
0
 74
0
 75
0
 76
0
 77
1
 78
8
 79
2
170
0
171
1
172
0
173
0
174
0
175
0
176
0
177
0
178
0
270
2
179
2
271
2
272
2
273
2
274
2
275
0
280
0
281
0
282
0
283
1
284
8
285
0
286
0
287
3
288
0
340
11
278
46
341
212
342
212
343
212
344
212
  0
ENDTAB
  0
ENDSEC
  0
SECTION
  2
BLOCKS
  0
BLOCK
  5
20
100
AcDbEntity
  8
0
100
AcDbBlockBegin
  2
*Model_Space
 70
0
 10
0.0
 20
0.0
 30
0.0
  3
*Model_Space
  1

  0
ENDBLK
  5
21
100
AcDbEntity
  8
0
100
AcDbBlockEnd
  0
BLOCK
  5
1C
100
AcDbEntity
  8
0
100
AcDbBlockBegin
  2
*Paper_Space
 70
0
 10
0.0
 20
0.0
 30
0.0
  3
*Paper_Space
  1

  0
ENDBLK
  5
1D
100
AcDbEntity
  8
0
100
AcDbBlockEnd
  0
BLOCK
  5
214
100
AcDbEntity
  8
0
100
AcDbBlockBegin
  2
_FILLED
 70
64
 10
0.0
 20
0.0
  3
_FILLED
  1

  0
SOLID
  5
215
100
AcDbEntity
  8
0
  6
BYBLOCK
 62
0
100
AcDbTrace
 10
0.0
 20
0.0
 11
-1.0
 21
0.25
 12
-1.0
 22
-0.25
 13
-1.0
 23
-0.25
  0
ENDBLK
  5
216
100
AcDbEntity
  8
0
  6
BYBLOCK
 62
0
100
AcDbBlockEnd
  0
ENDSEC
  0
SECTION
  2
ENTITIES
  0
LINE
  5
217
100
AcDbEntity
  8
0
100
AcDbLine
 62
7
  6
BYLAYER
 10
22.1598548929
 20
8.6514441084
 11
18.8742142468
 21
8.6514441084
  0
LINE
  5
218
100
AcDbEntity
  8
0
100
AcDbLine
 62
7
  6
BYLAYER
 10
26.8939594785
 20
8.7014441084
 11
14.1401096616
 21
8.7014441084
  0
LINE
  5
219
100
AcDbEntity
  8
0
100
AcDbLine
 62
7
  6
BYLAYER
 10
27.2446823047
 20
9.1146200196
 11
26.9221916686
 21
9.1146200196
  0
LINE
  5
21A
100
AcDbEntity
  8
0
100
AcDbLine
 62
7
  6
BYLAYER
 10
26.2150858188
 20
9.1146200196
 11
25.8304687423
 21
9.1146200196
  0
LINE
  5
21B
100
AcDbEntity
  8
0
100
AcDbLine
 62
7
  6
BYLAYER
 10
23.9737592954
 20
9.1146200196
 11
17.0603098443
 21
9.1146200196
  0
LINE
  5
21C
100
AcDbEntity
  8
0
100
AcDbLine
 62
7
  6
BYLAYER
 10
15.2036003973
 20
9.1146200196
 11
13.789386835
 21
9.1146200196
  0
LINE
  5
21D
100
AcDbEntity
  8
0
100
AcDbLine
 62
7
  6
BYLAYER
 10
26.2196846661
 20
9.1514463724
 11
26.4359283565
 21
9.1514467995
  0
LINE
  5
21E
100
AcDbEntity
  8
0
100
AcDbLine
 62
7
  6
BYLAYER
 10
26.3299298039
 20
9.3014441084
 11
26.2384179374
 21
9.3014441084
  0
LINE
  5
21F
100
AcDbEntity
  8
0
100
AcDbLine
 62
7
  6
BYLAYER
 10
9.2170345698
 20
15.2514441084
 11
9.0170345698
 21
15.4514441084
  0
LINE
  5
220
100
AcDbEntity
  8
0
100
AcDbLine
 62
7
  6
BYLAYER
 10
26.2538984439
 20
9.4253968817
 11
26.4343844399
 21
9.4253968818
  0
LINE
  5
221
100
AcDbEntity
  8
0
100
AcDbLine
 62
7
  6
BYLAYER
 10
16.7414698671
 20
11.6382681973
 11
24.2925992726
 21
11.6382681973
  0
LINE
  5
222
100
AcDbEntity
  8
0
100
AcDbLine
 62
7
  6
BYLAYER
 10
29.6622180608
 20
12.0514441084
 11
27.2889500019
 21
12.0514441084
  0
LINE
  5
223
100
AcDbEntity
  8
0
100
AcDbLine
 62
7
  6
BYLAYER
 10
26.6205123361
 20
12.0514441084
 11
11.3718523887
 21
12.0514441084
  0
LINE
  5
224
100
AcDbEntity
  8
0
100
AcDbLine
 62
7
  6
BYLAYER
 10
10.9387224063
 20
12.3014441084
 11
10.3716851506
 21
13.2835814452
  0
LINE
  5
225
100
AcDbEntity
  8
0
100
AcDbLine
 62
7
  6
BYLAYER
 10
30.0953467333
 20
12.3014441084
 11
27.6342430989
 21
12.3014441084
  0
LINE
  5
226
100
AcDbEntity
  8
0
100
AcDbLine
 62
7
  6
BYLAYER
 10
26.9271364877
 20
12.3014441084
 11
10.9387224063
 21
12.3014441084
  0
LINE
  5
227
100
AcDbEntity
  8
0
100
AcDbLine
 62
7
  6
BYLAYER
 10
10.3716851506
 20
13.2835814452
 11
27.3286090511
 21
13.2835814452
  0
LINE
  5
228
100
AcDbEntity
  8
0
100
AcDbLine
 62
7
  6
BYLAYER
 10
28.0357158323
 20
13.2835814452
 11
30.6623839891
 21
13.2835814452
  0
LINE
  5
229
100
AcDbEntity
  8
0
100
AcDbLine
 62
7
  6
BYLAYER
 10
27.5107572835
 20
13.5233147321
 11
27.3760206504
 21
13.5233147321
  0
LINE
  5
22A
100
AcDbEntity
  8
0
100
AcDbLine
 62
7
  6
BYLAYER
 10
30.7292951348
 20
13.524855242
 11
28.082447055
 21
13.524855242
  0
LINE
  5
22B
100
AcDbEntity
  8
0
100
AcDbLine
 62
7
  6
BYLAYER
 10
27.3766846904
 20
13.524855242
 11
10.3047740049
 21
13.524855242
  0
LINE
  5
22C
100
AcDbEntity
  8
0
100
AcDbLine
 62
7
  6
BYLAYER
 10
27.3817101763
 20
13.9858370168
 11
27.5670416552
 21
13.9858370168
  0
LINE
  5
22D
100
AcDbEntity
  8
0
100
AcDbLine
 62
7
  6
BYLAYER
 10
10.3716851506
 20
13.2835814452
 11
10.3047740049
 21
13.524855242
  0
LINE
  5
22E
100
AcDbEntity
  8
0
100
AcDbLine
 62
7
  6
BYLAYER
 10
31.8169754819
 20
15.2514441084
 11
29.2170936578
 21
15.2514441084
  0
LINE
  5
22F
100
AcDbEntity
  8
0
100
AcDbLine
 62
7
  6
BYLAYER
 10
11.8169754819
 20
15.2514441084
 11
9.2170936578
 21
15.2514441084
  0
LINE
  5
230
100
AcDbEntity
  8
0
100
AcDbLine
 62
7
  6
BYLAYER
 10
32.0170345698
 20
15.4514441084
 11
29.0170345698
 21
15.4514441084
  0
LINE
  5
231
100
AcDbEntity
  8
0
100
AcDbLine
 62
7
  6
BYLAYER
 10
12.0170345698
 20
15.4514441084
 11
9.0170345698
 21
15.4514441084
  0
LINE
  5
232
100
AcDbEntity
  8
0
100
AcDbLine
 62
7
  6
BYLAYER
 10
6.5170345698
 20
37.2514441084
 11
6.5170345698
 21
34.2514441084
  0
LINE
  5
233
100
AcDbEntity
  8
0
100
AcDbLine
 62
7
  6
BYLAYER
 10
7.0170345698
 20
37.2514441084
 11
7.0170345698
 21
34.2514441084
  0
LINE
  5
234
100
AcDbEntity
  8
0
100
AcDbLine
 62
7
  6
BYLAYER
 10
7.0170345698
 20
26.0514441084
 11
7.0170345698
 21
19.5514441084
  0
LINE
  5
235
100
AcDbEntity
  8
0
100
AcDbLine
 62
7
  6
BYLAYER
 10
7.0670345698
 20
34.2514441084
 11
7.0670345698
 21
26.0514441084
  0
LINE
  5
236
100
AcDbEntity
  8
0
100
AcDbLine
 62
7
  6
BYLAYER
 10
7.7169357802
 20
19.5514441084
 11
7.7169343133
 21
26.0514441084
  0
LINE
  5
237
100
AcDbEntity
  8
0
100
AcDbLine
 62
7
  6
BYLAYER
 10
7.7670345698
 20
26.0514441084
 11
7.7670345698
 21
34.2514441084
  0
LINE
  5
238
100
AcDbEntity
  8
0
100
AcDbLine
 62
7
  6
BYLAYER
 10
8.0170345698
 20
34.2514441084
 11
8.0170345698
 21
37.2514441084
  0
LINE
  5
239
100
AcDbEntity
  8
0
100
AcDbLine
 62
7
  6
BYLAYER
 10
8.5170345698
 20
18.9514441084
 11
8.5170345698
 21
19.5514441084
  0
LINE
  5
23A
100
AcDbEntity
  8
0
100
AcDbLine
 62
7
  6
BYLAYER
 10
8.6756934237
 20
18.9514441084
 11
8.6756934237
 21
19.5514441084
  0
LINE
  5
23B
100
AcDbEntity
  8
0
100
AcDbLine
 62
7
  6
BYLAYER
 10
7.6680528397
 20
38.9775908312
 11
7.5170345698
 21
37.2514441084
  0
LINE
  5
23C
100
AcDbEntity
  8
0
100
AcDbLine
 62
7
  6
BYLAYER
 10
29.0170345698
 20
18.5514441084
 11
28.1455014765
 21
18.5514441084
  0
LINE
  5
23D
100
AcDbEntity
  8
0
100
AcDbLine
 62
7
  6
BYLAYER
 10
27.4374772376
 20
18.5514441084
 11
12.0170345698
 21
18.5514441084
  0
LINE
  5
23E
100
AcDbEntity
  8
0
100
AcDbLine
 62
7
  6
BYLAYER
 10
27.6234577208
 20
18.5566802291
 11
27.4380597792
 21
18.5566802291
  0
LINE
  5
23F
100
AcDbEntity
  8
0
100
AcDbLine
 62
7
  6
BYLAYER
 10
32.5170345698
 20
18.9514441084
 11
32.0170345698
 21
18.9514441084
  0
LINE
  5
240
100
AcDbEntity
  8
0
100
AcDbLine
 62
7
  6
BYLAYER
 10
31.2977155442
 20
18.9514441084
 11
26.0494560264
 21
18.9514441084
  0
LINE
  5
241
100
AcDbEntity
  8
0
100
AcDbLine
 62
7
  6
BYLAYER
 10
14.9846131133
 20
18.9514441084
 11
9.7363535955
 21
18.9514441084
  0
LINE
  5
242
100
AcDbEntity
  8
0
100
AcDbLine
 62
7
  6
BYLAYER
 10
9.0170345698
 20
18.9514441084
 11
8.5170345698
 21
18.9514441084
  0
LINE
  5
243
100
AcDbEntity
  8
0
100
AcDbLine
 62
7
  6
BYLAYER
 10
7.0170356205
 20
19.5514441084
 11
34.0170335138
 21
19.5514441084
  0
LINE
  5
244
100
AcDbEntity
  8
0
100
AcDbLine
 62
7
  6
BYLAYER
 10
10.3047740049
 20
13.524855242
 11
10.2746362841
 21
15.2514441084
  0
LINE
  5
245
100
AcDbEntity
  8
0
100
AcDbLine
 62
7
  6
BYLAYER
 10
9.0170345698
 20
19.5514441084
 11
9.0170345698
 21
15.4514441084
  0
LINE
  5
246
100
AcDbEntity
  8
0
100
AcDbLine
 62
7
  6
BYLAYER
 10
9.7363535955
 20
19.5514441084
 11
9.7363535955
 21
18.9514441084
  0
LINE
  5
247
100
AcDbEntity
  8
0
100
AcDbLine
 62
7
  6
BYLAYER
 10
11.0346726601
 20
18.9514441084
 11
11.03467266
 21
19.5514441084
  0
LINE
  5
248
100
AcDbEntity
  8
0
100
AcDbLine
 62
7
  6
BYLAYER
 10
8.8704329349
 20
18.9514441084
 11
8.8786373484
 21
19.5514441084
  0
LINE
  5
249
100
AcDbEntity
  8
0
100
AcDbLine
 62
7
  6
BYLAYER
 10
29.2170345698
 20
15.2514441084
 11
29.0170345698
 21
15.4514441084
  0
LINE
  5
24A
100
AcDbEntity
  8
0
100
AcDbLine
 62
7
  6
BYLAYER
 10
18.8608167872
 20
8.7014441084
 11
18.8742142468
 21
8.6514441084
  0
LINE
  5
24B
100
AcDbEntity
  8
0
100
AcDbLine
 62
7
  6
BYLAYER
 10
13.3660163
 20
38.9775908312
 11
13.5170345698
 21
37.2514441084
  0
LINE
  5
24C
100
AcDbEntity
  8
0
100
AcDbLine
 62
7
  6
BYLAYER
 10
12.0170345698
 20
18.9514441084
 11
12.0170345698
 21
15.4514441084
  0
LINE
  5
24D
100
AcDbEntity
  8
0
100
AcDbLine
 62
7
  6
BYLAYER
 10
14.9846131133
 20
19.5514441084
 11
14.9846131133
 21
18.9514441084
  0
LINE
  5
24E
100
AcDbEntity
  8
0
100
AcDbLine
 62
7
  6
BYLAYER
 10
15.0170345698
 20
44.6064441084
 11
15.0170345698
 21
44.0314027871
  0
LINE
  5
24F
100
AcDbEntity
  8
0
100
AcDbLine
 62
7
  6
BYLAYER
 10
15.5170345698
 20
44.6064441084
 11
15.5170345698
 21
47.4666981463
  0
LINE
  5
250
100
AcDbEntity
  8
0
100
AcDbLine
 62
7
  6
BYLAYER
 10
7.0170356205
 20
26.0514441084
 11
34.0170335138
 21
26.0514441084
  0
LINE
  5
251
100
AcDbEntity
  8
0
100
AcDbLine
 62
7
  6
BYLAYER
 10
14.245966758
 20
43.0064441084
 11
12.4815076146
 21
41.2419849651
  0
LINE
  5
252
100
AcDbEntity
  8
0
100
AcDbLine
 62
7
  6
BYLAYER
 10
21.2990240166
 20
49.9392378598
 11
23.6857170209
 21
50.7797251436
  0
LINE
  5
253
100
AcDbEntity
  8
0
100
AcDbLine
 62
7
  6
BYLAYER
 10
11.7416982272
 20
60.3168892674
 11
15.9307033287
 21
51.0822787777
  0
LINE
  5
254
100
AcDbEntity
  8
0
100
AcDbLine
 62
7
  6
BYLAYER
 10
6.5170345698
 20
34.2514441084
 11
53.5170345698
 21
34.2514441084
  0
LINE
  5
255
100
AcDbEntity
  8
0
100
AcDbLine
 62
7
  6
BYLAYER
 10
25.5170345698
 20
44.6064441084
 11
25.5170345698
 21
47.4666981463
  0
LINE
  5
256
100
AcDbEntity
  8
0
100
AcDbLine
 62
7
  6
BYLAYER
 10
26.0170345698
 20
44.6064441084
 11
26.0170345698
 21
44.0314027871
  0
LINE
  5
257
100
AcDbEntity
  8
0
100
AcDbLine
 62
7
  6
BYLAYER
 10
26.0494560264
 20
18.9514441084
 11
26.0494560264
 21
19.5514441084
  0
LINE
  5
258
100
AcDbEntity
  8
0
100
AcDbLine
 62
7
  6
BYLAYER
 10
27.4380597792
 20
18.5514441084
 11
27.4380732638
 21
18.9514441084
  0
LINE
  5
259
100
AcDbEntity
  8
0
100
AcDbLine
 62
7
  6
BYLAYER
 10
27.6234577208
 20
18.9514441084
 11
27.6234577208
 21
18.5566802291
  0
LINE
  5
25A
100
AcDbEntity
  8
0
100
AcDbLine
 62
7
  6
BYLAYER
 10
6.5170345698
 20
37.2514441084
 11
40.0170345698
 21
37.2514441084
  0
LINE
  5
25B
100
AcDbEntity
  8
0
100
AcDbLine
 62
7
  6
BYLAYER
 10
53.0170345698
 20
37.2514441084
 11
53.5170345698
 21
37.2514441084
  0
LINE
  5
25C
100
AcDbEntity
  8
0
100
AcDbLine
 62
7
  6
BYLAYER
 10
53.0170345698
 20
38.2514441084
 11
40.0170345698
 21
38.2514441084
  0
LINE
  5
25D
100
AcDbEntity
  8
0
100
AcDbLine
 62
7
  6
BYLAYER
 10
8.1908954628
 20
38.4514441084
 11
8.7936133732
 21
38.4514441084
  0
LINE
  5
25E
100
AcDbEntity
  8
0
100
AcDbLine
 62
7
  6
BYLAYER
 10
28.1908954628
 20
38.4514441084
 11
28.7936133732
 21
38.4514441084
  0
LINE
  5
25F
100
AcDbEntity
  8
0
100
AcDbLine
 62
7
  6
BYLAYER
 10
27.8355894181
 20
18.5553802201
 11
27.8355894577
 21
18.9514441084
  0
LINE
  5
260
100
AcDbEntity
  8
0
100
AcDbLine
 62
7
  6
BYLAYER
 10
28.145180045
 20
18.9514441084
 11
28.1451665604
 21
18.5514441084
  0
LINE
  5
261
100
AcDbEntity
  8
0
100
AcDbLine
 62
7
  6
BYLAYER
 10
29.0170345698
 20
18.9514441084
 11
29.0170345698
 21
15.4514441084
  0
LINE
  5
262
100
AcDbEntity
  8
0
100
AcDbLine
 62
7
  6
BYLAYER
 10
29.9993964796
 20
19.5514441084
 11
29.9993964796
 21
18.9514441084
  0
LINE
  5
263
100
AcDbEntity
  8
0
100
AcDbLine
 62
7
  6
BYLAYER
 10
27.4380597792
 20
18.5514441084
 11
27.3760206504
 21
13.524855242
  0
LINE
  5
264
100
AcDbEntity
  8
0
100
AcDbLine
 62
7
  6
BYLAYER
 10
27.5670416552
 20
13.9858370168
 11
27.6234577208
 21
18.5566802291
  0
LINE
  5
265
100
AcDbEntity
  8
0
100
AcDbLine
 62
7
  6
BYLAYER
 10
27.8355894181
 20
18.5553802201
 11
27.7791574082
 21
13.9831943731
  0
LINE
  5
266
100
AcDbEntity
  8
0
100
AcDbLine
 62
7
  6
BYLAYER
 10
28.0831274316
 20
13.524855242
 11
28.1451665604
 21
18.5514441084
  0
LINE
  5
267
100
AcDbEntity
  8
0
100
AcDbLine
 62
7
  6
BYLAYER
 10
27.6680528397
 20
38.9775908312
 11
27.5170345698
 21
37.2514441084
  0
LINE
  5
268
100
AcDbEntity
  8
0
100
AcDbLine
 62
7
  6
BYLAYER
 10
34.1461377207
 20
50.6561560479
 11
34.5464867533
 21
51.5725187775
  0
LINE
  5
269
100
AcDbEntity
  8
0
100
AcDbLine
 62
7
  6
BYLAYER
 10
36.4139988342
 20
55.159425108
 11
34.942436993
 21
52.2713223791
  0
LINE
  5
26A
100
AcDbEntity
  8
0
100
AcDbLine
 62
7
  6
BYLAYER
 10
7.6680528397
 20
38.9775908312
 11
8.2155654277
 21
38.9775908312
  0
LINE
  5
26B
100
AcDbEntity
  8
0
100
AcDbLine
 62
7
  6
BYLAYER
 10
8.8377678589
 20
38.9775908312
 11
13.3660163
 21
38.9775908312
  0
LINE
  5
26C
100
AcDbEntity
  8
0
100
AcDbLine
 62
7
  6
BYLAYER
 10
27.6680528397
 20
38.9775908312
 11
28.2155654277
 21
38.9775908312
  0
LINE
  5
26D
100
AcDbEntity
  8
0
100
AcDbLine
 62
7
  6
BYLAYER
 10
28.8377678589
 20
38.9775908312
 11
33.3660163
 21
38.9775908312
  0
LINE
  5
26E
100
AcDbEntity
  8
0
100
AcDbLine
 62
7
  6
BYLAYER
 10
7.9669643609
 20
39.2514441084
 11
13.0671047788
 21
39.2514441084
  0
LINE
  5
26F
100
AcDbEntity
  8
0
100
AcDbLine
 62
7
  6
BYLAYER
 10
27.9669643609
 20
39.2514441084
 11
33.0671047788
 21
39.2514441084
  0
LINE
  5
270
100
AcDbEntity
  8
0
100
AcDbLine
 62
7
  6
BYLAYER
 10
28.552561525
 20
41.2419849651
 11
12.4815076146
 21
41.2419849651
  0
LINE
  5
271
100
AcDbEntity
  8
0
100
AcDbLine
 62
7
  6
BYLAYER
 10
35.1596710243
 20
39.2380296539
 11
40.0170345698
 21
38.3289987748
  0
LINE
  5
272
100
AcDbEntity
  8
0
100
AcDbLine
 62
7
  6
BYLAYER
 10
26.7881023817
 20
43.0064441084
 11
28.552561525
 21
41.2419849651
  0
LINE
  5
273
100
AcDbEntity
  8
0
100
AcDbLine
 62
7
  6
BYLAYER
 10
32.1554317912
 20
19.5514441084
 11
32.1636362048
 21
18.9514441084
  0
LINE
  5
274
100
AcDbEntity
  8
0
100
AcDbLine
 62
7
  6
BYLAYER
 10
31.2977155442
 20
18.9514441084
 11
31.2977155442
 21
19.5514441084
  0
LINE
  5
275
100
AcDbEntity
  8
0
100
AcDbLine
 62
7
  6
BYLAYER
 10
32.0170345698
 20
19.5514441084
 11
32.0170345698
 21
15.4514441084
  0
LINE
  5
276
100
AcDbEntity
  8
0
100
AcDbLine
 62
7
  6
BYLAYER
 10
32.3583757159
 20
19.5514441084
 11
32.3583757159
 21
18.9514441084
  0
LINE
  5
277
100
AcDbEntity
  8
0
100
AcDbLine
 62
7
  6
BYLAYER
 10
32.5170345698
 20
19.5514441084
 11
32.5170345698
 21
18.9514441084
  0
LINE
  5
278
100
AcDbEntity
  8
0
100
AcDbLine
 62
7
  6
BYLAYER
 10
33.0170345698
 20
37.2514441084
 11
33.0170345698
 21
34.2514441084
  0
LINE
  5
279
100
AcDbEntity
  8
0
100
AcDbLine
 62
7
  6
BYLAYER
 10
30.7292951348
 20
13.524855242
 11
30.7594328556
 21
15.2514441084
  0
LINE
  5
27A
100
AcDbEntity
  8
0
100
AcDbLine
 62
7
  6
BYLAYER
 10
26.4343844399
 20
9.4253968818
 11
26.7688134402
 21
12.1076524617
  0
LINE
  5
27B
100
AcDbEntity
  8
0
100
AcDbLine
 62
7
  6
BYLAYER
 10
26.9831475925
 20
12.1121852667
 11
26.6448968328
 21
9.399301116
  0
LINE
  5
27C
100
AcDbEntity
  8
0
100
AcDbLine
 62
7
  6
BYLAYER
 10
22.1732523525
 20
8.7014441084
 11
22.1598548929
 21
8.6514441084
  0
LINE
  5
27D
100
AcDbEntity
  8
0
100
AcDbLine
 62
7
  6
BYLAYER
 10
14.245966758
 20
43.0064441084
 11
26.7881023817
 21
43.0064441084
  0
LINE
  5
27E
100
AcDbEntity
  8
0
100
AcDbLine
 62
7
  6
BYLAYER
 10
26.288383043
 20
43.393220088
 11
14.7459285903
 21
43.393220088
  0
LINE
  5
27F
100
AcDbEntity
  8
0
100
AcDbLine
 62
7
  6
BYLAYER
 10
15.2529052329
 20
43.5314027871
 11
25.7811639068
 21
43.5314027871
  0
LINE
  5
280
100
AcDbEntity
  8
0
100
AcDbLine
 62
7
  6
BYLAYER
 10
26.0170345698
 20
44.0314027871
 11
15.0170345698
 21
44.0314027871
  0
LINE
  5
281
100
AcDbEntity
  8
0
100
AcDbLine
 62
7
  6
BYLAYER
 10
33.3660163
 20
38.9775908312
 11
33.5170345698
 21
37.2514441084
  0
LINE
  5
282
100
AcDbEntity
  8
0
100
AcDbLine
 62
7
  6
BYLAYER
 10
34.1461377207
 20
50.6561560479
 11
34.4068067415
 21
47.2684597896
  0
LINE
  5
283
100
AcDbEntity
  8
0
100
AcDbLine
 62
7
  6
BYLAYER
 10
33.2670345698
 20
34.2514441084
 11
33.2670345698
 21
26.0514441084
  0
LINE
  5
284
100
AcDbEntity
  8
0
100
AcDbLine
 62
7
  6
BYLAYER
 10
33.3171302012
 20
26.0514441084
 11
33.3171302009
 21
19.5514441084
  0
LINE
  5
285
100
AcDbEntity
  8
0
100
AcDbLine
 62
7
  6
BYLAYER
 10
33.9670345698
 20
26.0514441084
 11
33.9670345698
 21
34.2514441084
  0
LINE
  5
286
100
AcDbEntity
  8
0
100
AcDbLine
 62
7
  6
BYLAYER
 10
34.0170345698
 20
19.5514441084
 11
34.0170345698
 21
26.0514441084
  0
LINE
  5
287
100
AcDbEntity
  8
0
100
AcDbLine
 62
7
  6
BYLAYER
 10
34.0170345698
 20
34.2514441084
 11
34.0170345698
 21
37.2514441084
  0
LINE
  5
288
100
AcDbEntity
  8
0
100
AcDbLine
 62
7
  6
BYLAYER
 10
39.5864817659
 20
49.3705990984
 11
37.9850856357
 21
45.7051481802
  0
LINE
  5
289
100
AcDbEntity
  8
0
100
AcDbLine
 62
7
  6
BYLAYER
 10
37.1843875706
 20
43.8724227211
 11
35.1596710243
 21
39.2380296539
  0
LINE
  5
28A
100
AcDbEntity
  8
0
100
AcDbLine
 62
7
  6
BYLAYER
 10
11.8170345698
 20
15.2514441084
 11
12.0170345698
 21
15.4514441084
  0
LINE
  5
28B
100
AcDbEntity
  8
0
100
AcDbLine
 62
7
  6
BYLAYER
 10
15.0170345698
 20
44.6064441084
 11
26.0170345698
 21
44.6064441084
  0
LINE
  5
28C
100
AcDbEntity
  8
0
100
AcDbLine
 62
7
  6
BYLAYER
 10
15.9307033287
 20
51.0822787777
 11
18.9050142856
 21
49.9643087876
  0
LINE
  5
28D
100
AcDbEntity
  8
0
100
AcDbLine
 62
7
  6
BYLAYER
 10
36.0170345698
 20
34.2514441084
 11
36.0170345698
 21
37.2514441084
  0
LINE
  5
28E
100
AcDbEntity
  8
0
100
AcDbLine
 62
7
  6
BYLAYER
 10
30.6623839891
 20
13.2835814452
 11
30.7292951348
 21
13.524855242
  0
LINE
  5
28F
100
AcDbEntity
  8
0
100
AcDbLine
 62
7
  6
BYLAYER
 10
15.5170345698
 20
47.4666981463
 11
25.5170345698
 21
47.4666981463
  0
LINE
  5
290
100
AcDbEntity
  8
0
100
AcDbLine
 62
7
  6
BYLAYER
 10
26.6157576787
 20
50.6722854301
 11
37.9850856357
 21
45.7051481802
  0
LINE
  5
291
100
AcDbEntity
  8
0
100
AcDbLine
 62
7
  6
BYLAYER
 10
29.7032016437
 20
60.23612354
 11
26.1665717288
 21
67.2312824978
  0
LINE
  5
292
100
AcDbEntity
  8
0
100
AcDbLine
 62
7
  6
BYLAYER
 10
40.0170345698
 20
34.2514441084
 11
40.0170345698
 21
49.7404484925
  0
LINE
  5
293
100
AcDbEntity
  8
0
100
AcDbLine
 62
7
  6
BYLAYER
 10
39.8170345698
 20
49.9404484925
 11
39.5170345698
 21
49.9404484925
  0
LINE
  5
294
100
AcDbEntity
  8
0
100
AcDbLine
 62
7
  6
BYLAYER
 10
39.5864817659
 20
49.3705990984
 11
34.5464867533
 21
51.5725187775
  0
LINE
  5
295
100
AcDbEntity
  8
0
100
AcDbLine
 62
7
  6
BYLAYER
 10
34.942436993
 20
52.2713223791
 11
39.5170345698
 21
49.9404484925
  0
LINE
  5
296
100
AcDbEntity
  8
0
100
AcDbLine
 62
7
  6
BYLAYER
 10
30.0953467333
 20
12.3014441084
 11
30.6623839891
 21
13.2835814452
  0
LINE
  5
297
100
AcDbEntity
  8
0
100
AcDbLine
 62
7
  6
BYLAYER
 10
38.1960118825
 20
56.2514441084
 11
40.3471438614
 21
56.2514441084
  0
LINE
  5
298
100
AcDbEntity
  8
0
100
AcDbLine
 62
7
  6
BYLAYER
 10
38.8237725042
 20
56.2514441084
 11
29.7032016437
 21
60.23612354
  0
LINE
  5
299
100
AcDbEntity
  8
0
100
AcDbLine
 62
7
  6
BYLAYER
 10
48.9219633179
 20
51.8823553705
 11
40.3471438614
 21
56.2514441084
  0
LINE
  5
29A
100
AcDbEntity
  8
0
100
AcDbLine
 62
7
  6
BYLAYER
 10
31.8170345698
 20
15.2514441084
 11
32.0170345698
 21
15.4514441084
  0
LINE
  5
29B
100
AcDbEntity
  8
0
100
AcDbLine
 62
7
  6
BYLAYER
 10
53.0170345698
 20
45.1998064391
 11
53.0170345698
 21
34.2514441084
  0
LINE
  5
29C
100
AcDbEntity
  8
0
100
AcDbLine
 62
7
  6
BYLAYER
 10
53.5170345698
 20
37.2514441084
 11
53.5170345698
 21
34.2514441084
  0
ARC
  5
29D
100
AcDbEntity
  8
0
100
AcDbCircle
 62
7
  6
BYLAYER
 10
16.0170345699
 20
37.7064441084
 40
5.0
100
AcDbArc
 50
134.9999467085
 51
160.46599482
  0
ARC
  5
29E
100
AcDbEntity
  8
0
100
AcDbCircle
 62
7
  6
BYLAYER
 10
25.0170345693
 20
37.7064441084
 40
5.0
100
AcDbArc
 50
19.5340051724
 51
44.9999212032
  0
ARC
  5
29F
100
AcDbEntity
  8
0
100
AcDbCircle
 62
7
  6
BYLAYER
 10
25.0463589124
 20
14.1066384211
 40
2.5324939996
100
AcDbArc
 50
340.182925217
 51
346.6831654631
  0
ARC
  5
2A0
100
AcDbEntity
  8
0
100
AcDbCircle
 62
7
  6
BYLAYER
 10
11.3717351082
 20
12.5514441084
 40
0.5
100
AcDbArc
 50
210.0
 51
270.0
  0
ARC
  5
2A1
100
AcDbEntity
  8
0
100
AcDbCircle
 62
7
  6
BYLAYER
 10
16.0137337109
 20
41.2386771555
 40
2.5
100
AcDbArc
 50
120.4787686671
 51
134.9999999999
  0
ARC
  5
2A2
100
AcDbEntity
  8
0
100
AcDbCircle
 62
7
  6
BYLAYER
 10
15.2529049252
 20
42.5314027871
 40
1.0
100
AcDbArc
 50
89.9999861198
 51
120.4787542272
  0
ARC
  5
2A3
100
AcDbEntity
  8
0
100
AcDbCircle
 62
7
  6
BYLAYER
 10
13.0671578906
 20
38.9514441084
 40
0.3
100
AcDbArc
 50
5.0
 51
90.0
  0
ARC
  5
2A4
100
AcDbEntity
  8
0
100
AcDbCircle
 62
7
  6
BYLAYER
 10
7.9669112491
 20
38.9514441084
 40
0.3
100
AcDbArc
 50
90.0
 51
175.0
  0
ARC
  5
2A5
100
AcDbEntity
  8
0
100
AcDbCircle
 62
7
  6
BYLAYER
 10
15.4170345702
 20
43.7814027871
 40
0.25
100
AcDbArc
 50
270.0000276397
 51
89.9999723484
  0
ARC
  5
2A6
100
AcDbEntity
  8
0
100
AcDbCircle
 62
7
  6
BYLAYER
 10
20.5170345698
 20
38.8064441084
 40
10.0
100
AcDbArc
 50
60.0
 51
120.0
  0
ARC
  5
2A7
100
AcDbEntity
  8
0
100
AcDbCircle
 62
7
  6
BYLAYER
 10
25.0143615484
 20
47.0068345118
 40
4.0
100
AcDbArc
 50
66.3999999999
 51
109.3999999998
  0
ARC
  5
2A8
100
AcDbEntity
  8
0
100
AcDbCircle
 62
7
  6
BYLAYER
 10
25.0203354287
 20
41.2386771555
 40
2.5
100
AcDbArc
 50
45.0000000001
 51
59.5212313329
  0
ARC
  5
2A9
100
AcDbEntity
  8
0
100
AcDbCircle
 62
7
  6
BYLAYER
 10
25.7811642145
 20
42.5314027871
 40
1.0
100
AcDbArc
 50
59.5212457728
 51
90.0000138802
  0
ARC
  5
2AA
100
AcDbEntity
  8
0
100
AcDbCircle
 62
7
  6
BYLAYER
 10
25.6170345694
 20
43.7814027871
 40
0.25
100
AcDbArc
 50
90.0000276516
 51
269.9999723603
  0
ARC
  5
2AB
100
AcDbEntity
  8
0
100
AcDbCircle
 62
7
  6
BYLAYER
 10
19.0271675137
 20
63.621724706
 40
10.0
100
AcDbArc
 50
344.4224737353
 51
240.5326870899
  0
CIRCLE
  5
2AC
100
AcDbEntity
  8
0
100
AcDbCircle
 62
7
  6
BYLAYER
 10
19.0271675137
 20
63.621724706
 40
8.0
  0
CIRCLE
  5
2AD
100
AcDbEntity
  8
0
100
AcDbCircle
 62
7
  6
BYLAYER
 10
19.0271675137
 20
63.621724706
 40
4.8
  0
CIRCLE
  5
2AE
100
AcDbEntity
  8
0
100
AcDbCircle
 62
7
  6
BYLAYER
 10
19.0271675137
 20
63.621724706
 40
4.0
  0
ARC
  5
2AF
100
AcDbEntity
  8
0
100
AcDbCircle
 62
7
  6
BYLAYER
 10
20.136460055
 20
53.2405171627
 40
3.5
100
AcDbArc
 50
249.3999999999
 51
289.4000000002
  0
CIRCLE
  5
2B0
100
AcDbEntity
  8
0
100
AcDbCircle
 62
7
  6
BYLAYER
 10
19.0271675137
 20
63.621724706
 40
3.0
  0
ARC
  5
2B1
100
AcDbEntity
  8
0
100
AcDbCircle
 62
7
  6
BYLAYER
 10
29.6623340315
 20
12.5514441084
 40
0.5
100
AcDbArc
 50
270.0
 51
330.0
  0
ARC
  5
2B2
100
AcDbEntity
  8
0
100
AcDbCircle
 62
7
  6
BYLAYER
 10
45.5170345698
 20
45.1998064391
 40
7.5
100
AcDbArc
 50
0.0
 51
63.0000000001
  0
ARC
  5
2B3
100
AcDbEntity
  8
0
100
AcDbCircle
 62
7
  6
BYLAYER
 10
46.5170345698
 20
45.2514441084
 40
7.0
100
AcDbArc
 50
160.5134791446
 51
199.8717716291
  0
ARC
  5
2B4
100
AcDbEntity
  8
0
100
AcDbCircle
 62
7
  6
BYLAYER
 10
46.5170345698
 20
45.2514441084
 40
7.0
100
AcDbArc
 50
341.6254949088
 51
59.8162257655
  0
CIRCLE
  5
2B5
100
AcDbEntity
  8
0
100
AcDbCircle
 62
7
  6
BYLAYER
 10
46.5170345698
 20
45.2514441084
 40
3.075
  0
ARC
  5
2B6
100
AcDbEntity
  8
0
100
AcDbCircle
 62
7
  6
BYLAYER
 10
46.5170345698
 20
45.2514441084
 40
3.0
100
AcDbArc
 50
142.3307662651
 51
196.5957139955
  0
ARC
  5
2B7
100
AcDbEntity
  8
0
100
AcDbCircle
 62
7
  6
BYLAYER
 10
46.5170345698
 20
45.2514441084
 40
3.0
100
AcDbArc
 50
322.3307662652
 51
16.5957139956
  0
CIRCLE
  5
2B8
100
AcDbEntity
  8
0
100
AcDbCircle
 62
7
  6
BYLAYER
 10
46.5170345698
 20
45.2514441084
 40
2.985
  0
CIRCLE
  5
2B9
100
AcDbEntity
  8
0
100
AcDbCircle
 62
7
  6
BYLAYER
 10
46.5170345698
 20
45.2514441084
 40
2.485
  0
ARC
  5
2BA
100
AcDbEntity
  8
0
100
AcDbCircle
 62
7
  6
BYLAYER
 10
38.1960118825
 20
54.2514441084
 40
2.0
100
AcDbArc
 50
89.9999999995
 51
152.9999999965
  0
ARC
  5
2BB
100
AcDbEntity
  8
0
100
AcDbCircle
 62
7
  6
BYLAYER
 10
35.3516621114
 20
44.6731207862
 40
2.0
100
AcDbArc
 50
336.4000000002
 51
66.4000000002
  0
ARC
  5
2BC
100
AcDbEntity
  8
0
100
AcDbCircle
 62
7
  6
BYLAYER
 10
33.0671578906
 20
38.9514441084
 40
0.3
100
AcDbArc
 50
5.0
 51
90.0
  0
ARC
  5
2BD
100
AcDbEntity
  8
0
100
AcDbCircle
 62
7
  6
BYLAYER
 10
27.9669112491
 20
38.9514441084
 40
0.3
100
AcDbArc
 50
90.0
 51
175.0
  0
ARC
  5
2BE
100
AcDbEntity
  8
0
100
AcDbCircle
 62
7
  6
BYLAYER
 10
39.8170345698
 20
49.7404484925
 40
0.2
100
AcDbArc
 50
0.0
 51
90.0000000028
  0
SPLINE
  5
2BF
100
AcDbEntity
  8
0
100
AcDbSpline
 62
7
  6
BYLAYER
 70
0
 71
3
 72
13
 73
9
 74
0
 42
0.0000001
 43
0.0000001
 44
0.0000000001
 40
0.0
 40
0.0
 40
0.0
 40
0.0
 40
0.1041528073
 40
0.2121617149
 40
0.326229733
 40
0.4478670385
 40
0.7130322492
 40
1.0
 40
1.0
 40
1.0
 40
1.0
 10
9.0579319562
 20
39.2514441084
 30
0.0
 10
9.0446428373
 20
39.2514441084
 30
0.0
 10
9.0174610693
 20
39.2478685633
 30
0.0
 10
8.9784390691
 20
39.232342592
 30
0.0
 10
8.9420958162
 20
39.2071897028
 30
0.0
 10
8.8975941528
 20
39.1608320137
 30
0.0
 10
8.8558659286
 20
39.0838732905
 30
0.0
 10
8.8408336383
 20
39.0140771941
 30
0.0
 10
8.8377678589
 20
38.9775908312
 30
0.0
  0
LINE
  5
2C0
100
AcDbEntity
  8
0
100
AcDbLine
 62
7
  6
BYLAYER
 10
8.8377678589
 20
38.9775908312
 11
8.7936133732
 21
38.4514441084
  0
LINE
  5
2C1
100
AcDbEntity
  8
0
100
AcDbLine
 62
7
  6
BYLAYER
 10
8.1908954628
 20
38.4514441084
 11
8.2155654277
 21
38.9775908312
  0
SPLINE
  5
2C2
100
AcDbEntity
  8
0
100
AcDbSpline
 62
7
  6
BYLAYER
 70
0
 71
3
 72
13
 73
9
 74
0
 42
0.0000001
 43
0.0000001
 44
0.0000000001
 40
0.0
 40
0.0
 40
0.0
 40
0.0
 40
0.288421717
 40
0.5527165709
 40
0.6735938789
 40
0.7870847351
 40
0.8950541412
 40
1.0
 40
1.0
 40
1.0
 40
1.0
 10
8.2155654277
 20
38.9775908312
 30
0.0
 10
8.2172718153
 20
39.0139024638
 30
0.0
 10
8.2295734798
 20
39.08344396
 30
0.0
 10
8.2685265285
 20
39.1607449004
 30
0.0
 10
8.3114074115
 20
39.2072083252
 30
0.0
 10
8.3468863958
 20
39.2323938943
 30
0.0
 10
8.3854073304
 20
39.247913019
 30
0.0
 10
8.4123610339
 20
39.2514441084
 30
0.0
 10
8.4255880575
 20
39.2514441084
 30
0.0
  0
SPLINE
  5
2C3
100
AcDbEntity
  8
0
100
AcDbSpline
 62
7
  6
BYLAYER
 70
0
 71
3
 72
13
 73
9
 74
0
 42
0.0000001
 43
0.0000001
 44
0.0000000001
 40
0.0
 40
0.0
 40
0.0
 40
0.0
 40
0.1041528073
 40
0.2121617149
 40
0.326229733
 40
0.4478670385
 40
0.7130322492
 40
1.0
 40
1.0
 40
1.0
 40
1.0
 10
29.0579319562
 20
39.2514441084
 30
0.0
 10
29.0446428373
 20
39.2514441084
 30
0.0
 10
29.0174610693
 20
39.2478685633
 30
0.0
 10
28.9784390691
 20
39.232342592
 30
0.0
 10
28.9420958162
 20
39.2071897028
 30
0.0
 10
28.8975941528
 20
39.1608320137
 30
0.0
 10
28.8558659286
 20
39.0838732905
 30
0.0
 10
28.8408336383
 20
39.0140771941
 30
0.0
 10
28.8377678589
 20
38.9775908312
 30
0.0
  0
LINE
  5
2C4
100
AcDbEntity
  8
0
100
AcDbLine
 62
7
  6
BYLAYER
 10
28.8377678589
 20
38.9775908312
 11
28.7936133732
 21
38.4514441084
  0
LINE
  5
2C5
100
AcDbEntity
  8
0
100
AcDbLine
 62
7
  6
BYLAYER
 10
28.1908954628
 20
38.4514441084
 11
28.2155654277
 21
38.9775908312
  0
SPLINE
  5
2C6
100
AcDbEntity
  8
0
100
AcDbSpline
 62
7
  6
BYLAYER
 70
0
 71
3
 72
13
 73
9
 74
0
 42
0.0000001
 43
0.0000001
 44
0.0000000001
 40
0.0
 40
0.0
 40
0.0
 40
0.0
 40
0.288421717
 40
0.5527165709
 40
0.6735938789
 40
0.7870847351
 40
0.8950541412
 40
1.0
 40
1.0
 40
1.0
 40
1.0
 10
28.2155654277
 20
38.9775908312
 30
0.0
 10
28.2172718153
 20
39.0139024638
 30
0.0
 10
28.2295734798
 20
39.08344396
 30
0.0
 10
28.2685265285
 20
39.1607449004
 30
0.0
 10
28.3114074115
 20
39.2072083252
 30
0.0
 10
28.3468863958
 20
39.2323938943
 30
0.0
 10
28.3854073304
 20
39.247913019
 30
0.0
 10
28.4123610339
 20
39.2514441084
 30
0.0
 10
28.4255880575
 20
39.2514441084
 30
0.0
  0
SPLINE
  5
2C7
100
AcDbEntity
  8
0
100
AcDbSpline
 62
7
  6
BYLAYER
 70
0
 71
3
 72
9
 73
5
 74
0
 42
0.0000001
 43
0.0000001
 44
0.0000000001
 40
0.0
 40
0.0
 40
0.0
 40
0.0
 40
0.255887774
 40
1.0
 40
1.0
 40
1.0
 40
1.0
 10
27.3760206504
 20
13.524855242
 30
0.0
 10
27.3757606674
 20
13.5038165224
 30
0.0
 10
27.3710143654
 20
13.4217169317
 30
0.0
 10
27.3517587259
 20
13.3402174297
 30
0.0
 10
27.3286090511
 20
13.2835814452
 30
0.0
  0
LINE
  5
2C8
100
AcDbEntity
  8
0
100
AcDbLine
 62
7
  6
BYLAYER
 10
26.9271134975
 20
12.3013880687
 11
27.3286090511
 21
13.2835814452
  0
SPLINE
  5
2C9
100
AcDbEntity
  8
0
100
AcDbSpline
 62
7
  6
BYLAYER
 70
0
 71
3
 72
11
 73
7
 74
0
 42
0.0000001
 43
0.0000001
 44
0.0000000001
 40
0.0
 40
0.0
 40
0.0
 40
0.0
 40
0.222840208
 40
0.4593928003
 40
0.7180081453
 40
1.0
 40
1.0
 40
1.0
 40
1.0
 10
26.6204711597
 20
12.0514441084
 30
0.0
 10
26.6515273186
 20
12.0514441084
 30
0.0
 10
26.716074971
 20
12.0638103043
 30
0.0
 10
26.8031830922
 20
12.1164161799
 30
0.0
 10
26.8765118513
 20
12.1978413288
 30
0.0
 10
26.9122421778
 20
12.265010589
 30
0.0
 10
26.9271134975
 20
12.3013880687
 30
0.0
  0
LINE
  5
2CA
100
AcDbEntity
  8
0
100
AcDbLine
 62
7
  6
BYLAYER
 10
26.2150568357
 20
9.1143912275
 11
26.5818432207
 21
12.0514441084
  0
SPLINE
  5
2CB
100
AcDbEntity
  8
0
100
AcDbSpline
 62
7
  6
BYLAYER
 70
0
 71
3
 72
13
 73
9
 74
0
 42
0.0000001
 43
0.0000001
 44
0.0000000001
 40
0.0
 40
0.0
 40
0.0
 40
0.0
 40
0.1054185561
 40
0.2140216016
 40
0.32804698
 40
0.4491307815
 40
0.7127148268
 40
1.0
 40
1.0
 40
1.0
 40
1.0
 10
25.866134346
 20
8.7014441084
 30
0.0
 10
25.8867611908
 20
8.7014441084
 30
0.0
 10
25.9288045226
 20
8.7067051463
 30
0.0
 10
25.9892802032
 20
8.7298060382
 30
0.0
 10
26.0456816518
 20
8.7673630743
 30
0.0
 10
26.1150832224
 20
8.8367027736
 30
0.0
 10
26.1816878084
 20
8.9527528326
 30
0.0
 10
26.2080903849
 20
9.0586125915
 30
0.0
 10
26.2150568357
 20
9.1143912275
 30
0.0
  0
LINE
  5
2CC
100
AcDbEntity
  8
0
100
AcDbLine
 62
7
  6
BYLAYER
 10
27.2446823047
 20
9.1146200196
 11
27.6132235461
 21
12.0514441084
  0
SPLINE
  5
2CD
100
AcDbEntity
  8
0
100
AcDbSpline
 62
7
  6
BYLAYER
 70
0
 71
3
 72
13
 73
9
 74
0
 42
0.0000001
 43
0.0000001
 44
0.0000000001
 40
0.0
 40
0.0
 40
0.0
 40
0.0
 40
0.1054791018
 40
0.2141153206
 40
0.3281177535
 40
0.4491367898
 40
0.7126322928
 40
1.0
 40
1.0
 40
1.0
 40
1.0
 10
26.8939594778
 20
8.7014441084
 30
0.0
 10
26.914650148
 20
8.7014441084
 30
0.0
 10
26.9568152515
 20
8.7066993774
 30
0.0
 10
27.0174967986
 20
8.7297344731
 30
0.0
 10
27.0741569074
 20
8.7671847253
 30
0.0
 10
27.143954952
 20
8.8364273831
 30
0.0
 10
27.2110863284
 20
8.9525706058
 30
0.0
 10
27.2376608156
 20
9.0586892832
 30
0.0
 10
27.2446823047
 20
9.1146200196
 30
0.0
  0
SPLINE
  5
2CE
100
AcDbEntity
  8
0
100
AcDbSpline
 62
7
  6
BYLAYER
 70
0
 71
3
 72
13
 73
9
 74
0
 42
0.0000001
 43
0.0000001
 44
0.0000000001
 40
0.0
 40
0.0
 40
0.0
 40
0.0
 40
0.2873719025
 40
0.5508652922
 40
0.6718822544
 40
0.7858834551
 40
0.8945201858
 40
1.0
 40
1.0
 40
1.0
 40
1.0
 10
13.789386835
 20
9.1146200196
 30
0.0
 10
13.7964084269
 20
9.0586884643
 30
0.0
 10
13.8229832098
 20
8.9525694064
 30
0.0
 10
13.8901148627
 20
8.8364262901
 30
0.0
 10
13.9599124462
 20
8.7671847495
 30
0.0
 10
14.0165719042
 20
8.7297344764
 30
0.0
 10
14.0772535866
 20
8.7066997591
 30
0.0
 10
14.1194188716
 20
8.7014441084
 30
0.0
 10
14.1401096825
 20
8.7014441084
 30
0.0
  0
LINE
  5
2CF
100
AcDbEntity
  8
0
100
AcDbLine
 62
7
  6
BYLAYER
 10
13.4208455936
 20
12.0514441084
 11
13.789386835
 21
9.1146200196
  0
LINE
  5
2D0
100
AcDbEntity
  8
0
100
AcDbLine
 62
7
  6
BYLAYER
 10
26.1990099837
 20
12.0514441084
 11
25.8304687423
 21
9.1146200196
  0
SPLINE
  5
2D1
100
AcDbEntity
  8
0
100
AcDbSpline
 62
7
  6
BYLAYER
 70
0
 71
3
 72
13
 73
9
 74
0
 42
0.0000001
 43
0.0000001
 44
0.0000000001
 40
0.0
 40
0.0
 40
0.0
 40
0.0
 40
0.2873719025
 40
0.5508652922
 40
0.6718822544
 40
0.785883455
 40
0.8945201858
 40
1.0
 40
1.0
 40
1.0
 40
1.0
 10
25.8304687423
 20
9.1146200196
 30
0.0
 10
25.8234471504
 20
9.0586884644
 30
0.0
 10
25.7968723675
 20
8.9525694065
 30
0.0
 10
25.7297407147
 20
8.8364262902
 30
0.0
 10
25.6599431312
 20
8.7671847496
 30
0.0
 10
25.6032836733
 20
8.7297344765
 30
0.0
 10
25.542601991
 20
8.7066997591
 30
0.0
 10
25.500436706
 20
8.7014441084
 30
0.0
 10
25.4797458951
 20
8.7014441084
 30
0.0
  0
LINE
  5
2D2
100
AcDbEntity
  8
0
100
AcDbLine
 62
7
  6
BYLAYER
 10
28.0357158323
 20
13.2835814452
 11
27.6342202832
 21
12.301388079
  0
SPLINE
  5
2D3
100
AcDbEntity
  8
0
100
AcDbSpline
 62
7
  6
BYLAYER
 70
0
 71
3
 72
11
 73
7
 74
0
 42
0.0000001
 43
0.0000001
 44
0.0000000001
 40
0.0
 40
0.0
 40
0.0
 40
0.0
 40
0.2819915258
 40
0.5406069708
 40
0.7771598492
 40
1.0
 40
1.0
 40
1.0
 40
1.0
 10
27.6342202832
 20
12.301388079
 30
0.0
 10
27.6193491943
 20
12.2650111638
 30
0.0
 10
27.5836195107
 20
12.1978429003
 30
0.0
 10
27.5102923314
 20
12.1164183558
 30
0.0
 10
27.4231861692
 20
12.063812619
 30
0.0
 10
27.358639743
 20
12.0514441084
 30
0.0
 10
27.3275840379
 20
12.0514441084
 30
0.0
  0
SPLINE
  5
2D4
100
AcDbEntity
  8
0
100
AcDbSpline
 62
7
  6
BYLAYER
 70
0
 71
3
 72
9
 73
5
 74
0
 42
0.0000001
 43
0.0000001
 44
0.0000000001
 40
0.0
 40
0.0
 40
0.0
 40
0.0
 40
0.2432904811
 40
1.0
 40
1.0
 40
1.0
 40
1.0
 10
28.0357158323
 20
13.2835814452
 30
0.0
 10
28.0432855946
 20
13.3021009684
 30
0.0
 10
28.0704403956
 20
13.3798055575
 30
0.0
 10
28.082358522
 20
13.4626324297
 30
0.0
 10
28.0831274316
 20
13.524855242
 30
0.0
  0
SPLINE
  5
2D5
100
AcDbEntity
  8
0
100
AcDbSpline
 62
7
  6
BYLAYER
 70
0
 71
3
 72
13
 73
9
 74
0
 42
0.0000001
 43
0.0000001
 44
0.0000000001
 40
0.0
 40
0.0
 40
0.0
 40
0.0
 40
0.2872443062
 40
0.550891665
 40
0.6719327354
 40
0.7860320448
 40
0.8947022412
 40
1.0
 40
1.0
 40
1.0
 40
1.0
 10
26.6448968328
 20
9.399301116
 30
0.0
 10
26.6407271011
 20
9.3658581851
 30
0.0
 10
26.6249396669
 20
9.3023766677
 30
0.0
 10
26.5851121796
 20
9.2327248068
 30
0.0
 10
26.5435336702
 20
9.1910969115
 30
0.0
 10
26.5097444635
 20
9.1685039539
 30
0.0
 10
26.4734819521
 20
9.154644115
 30
0.0
 10
26.448282759
 20
9.1514467995
 30
0.0
 10
26.4359283565
 20
9.1514467995
 30
0.0
  0
SPLINE
  5
2D6
100
AcDbEntity
  8
0
100
AcDbSpline
 62
7
  6
BYLAYER
 70
0
 71
3
 72
10
 73
6
 74
0
 42
0.0000001
 43
0.0000001
 44
0.0000000001
 40
0.0
 40
0.0
 40
0.0
 40
0.0
 40
0.4714127891
 40
0.730729978
 40
1.0
 40
1.0
 40
1.0
 40
1.0
 10
27.0937451658
 20
12.346486855
 30
0.0
 10
27.0630059955
 20
12.3187456699
 30
0.0
 10
27.0255350558
 20
12.2639738795
 30
0.0
 10
26.9952393713
 20
12.1814295527
 30
0.0
 10
26.9860738034
 20
12.1356546602
 30
0.0
 10
26.9831475925
 20
12.1121852667
 30
0.0
  0
SPLINE
  5
2D7
100
AcDbEntity
  8
0
100
AcDbSpline
 62
7
  6
BYLAYER
 70
0
 71
3
 72
11
 73
7
 74
0
 42
0.0000001
 43
0.0000001
 44
0.0000000001
 40
0.0
 40
0.0
 40
0.0
 40
0.0
 40
0.2676300637
 40
0.5248156671
 40
0.7692914378
 40
1.0
 40
1.0
 40
1.0
 40
1.0
 10
27.717395926
 20
13.4756664933
 30
0.0
 10
27.690485737
 20
13.3621206334
 30
0.0
 10
27.6238168401
 20
13.142435389
 30
0.0
 10
27.4837964872
 20
12.8364441913
 30
0.0
 10
27.3091446409
 20
12.5676772574
 30
0.0
 10
27.1684233717
 20
12.4138817103
 30
0.0
 10
27.0937451658
 20
12.346486855
 30
0.0
  0
SPLINE
  5
2D8
100
AcDbEntity
  8
0
100
AcDbSpline
 62
7
  6
BYLAYER
 70
0
 71
3
 72
9
 73
5
 74
0
 42
0.0000001
 43
0.0000001
 44
0.0000000001
 40
0.0
 40
0.0
 40
0.0
 40
0.0
 40
0.2522496353
 40
1.0
 40
1.0
 40
1.0
 40
1.0
 10
27.7791574082
 20
13.9831943731
 30
0.0
 10
27.7786262508
 20
13.9401598729
 30
0.0
 10
27.7719135471
 20
13.7696531433
 30
0.0
 10
27.7468167491
 20
13.5998058167
 30
0.0
 10
27.717395926
 20
13.4756664933
 30
0.0
  0
SPLINE
  5
2D9
100
AcDbEntity
  8
0
100
AcDbSpline
 62
7
  6
BYLAYER
 70
0
 71
3
 72
9
 73
5
 74
0
 42
0.0000001
 43
0.0000001
 44
0.0000000001
 40
0.0
 40
0.0
 40
0.0
 40
0.0
 40
0.500015665
 40
1.0
 40
1.0
 40
1.0
 40
1.0
 10
27.6234577208
 20
18.5566802291
 30
0.0
 10
27.6588155403
 20
18.5566666596
 30
0.0
 10
27.729514884
 20
18.5565805394
 30
0.0
 10
27.8002705671
 20
18.556984542
 30
0.0
 10
27.8355897551
 20
18.5553802098
 30
0.0
  0
SPLINE
  5
2DA
100
AcDbEntity
  8
0
100
AcDbSpline
 62
7
  6
BYLAYER
 70
0
 71
3
 72
11
 73
7
 74
0
 42
0.0000001
 43
0.0000001
 44
0.0000000001
 40
0.0
 40
0.0
 40
0.0
 40
0.0
 40
0.2309314821
 40
0.5015549313
 40
0.7713683469
 40
1.0
 40
1.0
 40
1.0
 40
1.0
 10
26.6449050931
 20
9.3993496551
 30
0.0
 10
26.6290344281
 20
9.4033072278
 30
0.0
 10
26.5941570061
 20
9.4102378864
 30
0.0
 10
26.5400895159
 20
9.4181989119
 30
0.0
 10
26.4858751187
 20
9.4236423008
 30
0.0
 10
26.4505782071
 20
9.4253968818
 30
0.0
 10
26.4343844399
 20
9.4253968818
 30
0.0
  0
SPLINE
  5
2DB
100
AcDbEntity
  8
0
100
AcDbSpline
 62
7
  6
BYLAYER
 70
0
 71
3
 72
13
 73
9
 74
0
 42
0.0000001
 43
0.0000001
 44
0.0000000001
 40
0.0
 40
0.0
 40
0.0
 40
0.0
 40
0.1032552214
 40
0.2106492466
 40
0.3245468651
 40
0.4464150668
 40
0.7129424449
 40
1.0
 40
1.0
 40
1.0
 40
1.0
 10
26.329929804
 20
9.3014441084
 30
0.0
 10
26.3368801528
 20
9.3014441084
 30
0.0
 10
26.3511242402
 20
9.2993912916
 30
0.0
 10
26.3713714973
 20
9.2905961821
 30
0.0
 10
26.3898417537
 20
9.2763823132
 30
0.0
 10
26.4118699439
 20
9.2504644145
 30
0.0
 10
26.4309630161
 20
9.2082178468
 30
0.0
 10
26.4359958211
 20
9.1707666194
 30
0.0
 10
26.4359958211
 20
9.1514441084
 30
0.0
  0
SPLINE
  5
2DC
100
AcDbEntity
  8
0
100
AcDbSpline
 62
7
  6
BYLAYER
 70
0
 71
3
 72
11
 73
7
 74
0
 42
0.0000001
 43
0.0000001
 44
0.0000000001
 40
0.0
 40
0.0
 40
0.0
 40
0.0
 40
0.2879862754
 40
0.5523540169
 40
0.7869924095
 40
1.0
 40
1.0
 40
1.0
 40
1.0
 10
26.4343844399
 20
9.4253968817
 30
0.0
 10
26.4322997714
 20
9.4086769985
 30
0.0
 10
26.42439749
 20
9.376906346
 30
0.0
 10
26.4012198904
 20
9.3363372827
 30
0.0
 10
26.3688802902
 20
9.3084417683
 30
0.0
 10
26.3423923347
 20
9.3014441084
 30
0.0
 10
26.3299298039
 20
9.3014441084
 30
0.0
  0
SPLINE
  5
2DD
100
AcDbEntity
  8
0
100
AcDbSpline
 62
7
  6
BYLAYER
 70
0
 71
3
 72
10
 73
6
 74
0
 42
0.0000001
 43
0.0000001
 44
0.0000000001
 40
0.0
 40
0.0
 40
0.0
 40
0.0
 40
0.5211832032
 40
0.7794250421
 40
1.0
 40
1.0
 40
1.0
 40
1.0
 10
26.8047868015
 20
12.137317864
 30
0.0
 10
26.8360667186
 20
12.1356482051
 30
0.0
 10
26.882734422
 20
12.1307532427
 30
0.0
 10
26.9420858616
 20
12.1212699285
 30
0.0
 10
26.9702881058
 20
12.1154285927
 30
0.0
 10
26.9831513245
 20
12.1122209689
 30
0.0
  0
SPLINE
  5
2DE
100
AcDbEntity
  8
0
100
AcDbSpline
 62
7
  6
BYLAYER
 70
0
 71
3
 72
10
 73
6
 74
0
 42
0.0000001
 43
0.0000001
 44
0.0000000001
 40
0.0
 40
0.0
 40
0.0
 40
0.0
 40
0.495146461
 40
0.7527450499
 40
1.0
 40
1.0
 40
1.0
 40
1.0
 10
26.9878140249
 20
12.4577772798
 30
0.0
 10
27.0108523792
 20
12.4462875305
 30
0.0
 10
27.0425282442
 20
12.4215839374
 30
0.0
 10
27.0753252935
 20
12.3811389235
 30
0.0
 10
27.0884570736
 20
12.3582059455
 30
0.0
 10
27.0937446581
 20
12.3464879801
 30
0.0
  0
SPLINE
  5
2DF
100
AcDbEntity
  8
0
100
AcDbSpline
 62
7
  6
BYLAYER
 70
0
 71
3
 72
9
 73
5
 74
0
 42
0.0000001
 43
0.0000001
 44
0.0000000001
 40
0.0
 40
0.0
 40
0.0
 40
0.0
 40
0.5157459563
 40
1.0
 40
1.0
 40
1.0
 40
1.0
 10
27.4288780589
 20
13.2480766152
 30
0.0
 10
27.3854940182
 20
13.1281013267
 30
0.0
 10
27.2827661363
 20
12.9016320601
 30
0.0
 10
27.1403321889
 20
12.6971464627
 30
0.0
 10
27.0617021844
 20
12.6067773983
 30
0.0
  0
SPLINE
  5
2E0
100
AcDbEntity
  8
0
100
AcDbSpline
 62
7
  6
BYLAYER
 70
0
 71
3
 72
9
 73
5
 74
0
 42
0.0000001
 43
0.0000001
 44
0.0000000001
 40
0.0
 40
0.0
 40
0.0
 40
0.0
 40
0.5000157701
 40
1.0
 40
1.0
 40
1.0
 40
1.0
 10
27.7791575352
 20
13.9832191558
 30
0.0
 10
27.7438113868
 20
13.9840916822
 30
0.0
 10
27.6731064781
 20
13.9851761216
 30
0.0
 10
27.6023963409
 20
13.9858370168
 30
0.0
 10
27.5670416552
 20
13.9858370168
 30
0.0
  0
SPLINE
  5
2E1
100
AcDbEntity
  8
0
100
AcDbSpline
 62
7
  6
BYLAYER
 70
0
 71
3
 72
11
 73
7
 74
0
 42
0.0000001
 43
0.0000001
 44
0.0000000001
 40
0.0
 40
0.0
 40
0.0
 40
0.0
 40
0.2268567485
 40
0.4948415558
 40
0.7655278579
 40
1.0
 40
1.0
 40
1.0
 40
1.0
 10
27.5107572835
 20
13.523314732
 30
0.0
 10
27.5268844016
 20
13.523314732
 30
0.0
 10
27.5620384403
 20
13.5201041279
 30
0.0
 10
27.6155810616
 20
13.5100964319
 30
0.0
 10
27.6686183955
 20
13.4954720656
 30
0.0
 10
27.7023291874
 20
13.4827852411
 30
0.0
 10
27.7173913012
 20
13.4756458183
 30
0.0
  0
SPLINE
  5
2E2
100
AcDbEntity
  8
0
100
AcDbSpline
 62
7
  6
BYLAYER
 70
0
 71
3
 72
9
 73
5
 74
0
 42
0.0000001
 43
0.0000001
 44
0.0000000001
 40
0.0
 40
0.0
 40
0.0
 40
0.0
 40
0.2522497865
 40
1.0
 40
1.0
 40
1.0
 40
1.0
 10
27.5670416552
 20
13.9858370168
 30
0.0
 10
27.5665575985
 20
13.9466186228
 30
0.0
 10
27.5604419345
 20
13.7912316802
 30
0.0
 10
27.5375691787
 20
13.6364458471
 30
0.0
 10
27.5107572835
 20
13.5233147321
 30
0.0
  0
LINE
  5
2E3
100
AcDbEntity
  8
0
100
AcDbLine
 62
7
  6
BYLAYER
 10
27.2889500019
 20
12.0514441084
 11
26.9221619046
 21
9.1143774678
  0
SPLINE
  5
2E4
100
AcDbEntity
  8
0
100
AcDbSpline
 62
7
  6
BYLAYER
 70
0
 71
3
 72
13
 73
9
 74
0
 42
0.0000001
 43
0.0000001
 44
0.0000000001
 40
0.0
 40
0.0
 40
0.0
 40
0.0
 40
0.2872869874
 40
0.5508703586
 40
0.6719537314
 40
0.7859786792
 40
0.894580509
 40
1.0
 40
1.0
 40
1.0
 40
1.0
 10
26.9221619046
 20
9.1143774678
 30
0.0
 10
26.9151952883
 20
9.0585975059
 30
0.0
 10
26.8887878671
 20
8.9527364956
 30
0.0
 10
26.8221783589
 20
8.8366862704
 30
0.0
 10
26.7527718979
 20
8.7673494479
 30
0.0
 10
26.6963677355
 20
8.72979483
 30
0.0
 10
26.6358880871
 20
8.7067006159
 30
0.0
 10
26.5938439681
 20
8.7014441084
 30
0.0
 10
26.5732165803
 20
8.7014441084
 30
0.0
  0
SPLINE
  5
2E5
100
AcDbEntity
  8
0
100
AcDbSpline
 62
7
  6
BYLAYER
 70
0
 71
3
 72
13
 73
9
 74
0
 42
0.0000001
 43
0.0000001
 44
0.0000000001
 40
0.0
 40
0.0
 40
0.0
 40
0.0
 40
0.1054791018
 40
0.2141153206
 40
0.3281177535
 40
0.4491367898
 40
0.7126322928
 40
1.0
 40
1.0
 40
1.0
 40
1.0
 10
15.5543232243
 20
8.7014441084
 30
0.0
 10
15.533632554
 20
8.7014441084
 30
0.0
 10
15.4914674505
 20
8.7066993774
 30
0.0
 10
15.4307859034
 20
8.7297344731
 30
0.0
 10
15.3741257947
 20
8.7671847253
 30
0.0
 10
15.3043277501
 20
8.8364273831
 30
0.0
 10
15.2371963737
 20
8.9525706058
 30
0.0
 10
15.2106218865
 20
9.0586892832
 30
0.0
 10
15.2036003973
 20
9.1146200196
 30
0.0
  0
LINE
  5
2E6
100
AcDbEntity
  8
0
100
AcDbLine
 62
7
  6
BYLAYER
 10
15.2036003973
 20
9.1146200196
 11
14.835059156
 21
12.0514441084
  0
SPLINE
  5
2E7
100
AcDbEntity
  8
0
100
AcDbSpline
 62
7
  6
BYLAYER
 70
0
 71
3
 72
13
 73
9
 74
0
 42
0.0000001
 43
0.0000001
 44
0.0000000001
 40
0.0
 40
0.0
 40
0.0
 40
0.0
 40
0.2874240746
 40
0.5508231523
 40
0.6717965089
 40
0.7857913986
 40
0.8944631013
 40
1.0
 40
1.0
 40
1.0
 40
1.0
 10
24.2925992726
 20
11.6382681973
 30
0.0
 10
24.2996716397
 20
11.6942986278
 30
0.0
 10
24.3264582551
 20
11.8005648547
 30
0.0
 10
24.3940283797
 20
11.9167019249
 30
0.0
 10
24.4641192217
 20
11.9858373807
 30
0.0
 10
24.5209569888
 20
12.0232121718
 30
0.0
 10
24.5817865991
 20
12.046196867
 30
0.0
 10
24.6240388562
 20
12.0514441084
 30
0.0
 10
24.6447754564
 20
12.0514441084
 30
0.0
  0
SPLINE
  5
2E8
100
AcDbEntity
  8
0
100
AcDbSpline
 62
7
  6
BYLAYER
 70
0
 71
3
 72
13
 73
9
 74
0
 42
0.0000001
 43
0.0000001
 44
0.0000000001
 40
0.0
 40
0.0
 40
0.0
 40
0.0
 40
0.1055354659
 40
0.2142060305
 40
0.3282022816
 40
0.4491786461
 40
0.7125812945
 40
1.0
 40
1.0
 40
1.0
 40
1.0
 10
16.3892993222
 20
12.0514441084
 30
0.0
 10
16.4100354466
 20
12.0514441084
 30
0.0
 10
16.4522868799
 20
12.0461965858
 30
0.0
 10
16.5131148429
 20
12.0232101116
 30
0.0
 10
16.5699525964
 20
11.9858354372
 30
0.0
 10
16.640042997
 20
11.9166984974
 30
0.0
 10
16.7076118337
 20
11.8005619983
 30
0.0
 10
16.7343976983
 20
11.6942970561
 30
0.0
 10
16.7414698671
 20
11.6382681973
 30
0.0
  0
SPLINE
  5
2E9
100
AcDbEntity
  8
0
100
AcDbSpline
 62
7
  6
BYLAYER
 70
0
 71
3
 72
13
 73
9
 74
0
 42
0.0000001
 43
0.0000001
 44
0.0000000001
 40
0.0
 40
0.0
 40
0.0
 40
0.0
 40
0.2875188514
 40
0.5508578875
 40
0.6717723286
 40
0.7857282923
 40
0.8944099026
 40
1.0
 40
1.0
 40
1.0
 40
1.0
 10
17.0603098443
 20
9.1146200196
 30
0.0
 10
17.067411749
 20
9.0584638716
 30
0.0
 10
17.0943331264
 20
8.9519902384
 30
0.0
 10
17.1622959928
 20
8.8357606206
 30
0.0
 10
17.2327258238
 20
8.7667372228
 30
0.0
 10
17.2897890634
 20
8.7294980048
 30
0.0
 10
17.3508042051
 20
8.7066476028
 30
0.0
 10
17.3931491756
 20
8.7014441084
 30
0.0
 10
17.4139365544
 20
8.7014441084
 30
0.0
  0
SPLINE
  5
2EA
100
AcDbEntity
  8
0
100
AcDbSpline
 62
7
  6
BYLAYER
 70
0
 71
3
 72
13
 73
9
 74
0
 42
0.0000001
 43
0.0000001
 44
0.0000000001
 40
0.0
 40
0.0
 40
0.0
 40
0.0
 40
0.1055882996
 40
0.2142679225
 40
0.3282255071
 40
0.4491441132
 40
0.7124887302
 40
1.0
 40
1.0
 40
1.0
 40
1.0
 10
23.6201334333
 20
8.7014441084
 30
0.0
 10
23.640920429
 20
8.7014441084
 30
0.0
 10
23.6832647261
 20
8.7066468192
 30
0.0
 10
23.7442790241
 20
8.7294980013
 30
0.0
 10
23.8013432748
 20
8.7667367774
 30
0.0
 10
23.8717741142
 20
8.8357623146
 30
0.0
 10
23.9397367758
 20
8.9519922596
 30
0.0
 10
23.9666575879
 20
9.0584654313
 30
0.0
 10
23.9737592954
 20
9.1146200196
 30
0.0
  0
LINE
  5
2EB
100
AcDbEntity
  8
0
100
AcDbLine
 62
7
  6
BYLAYER
 10
16.7414698671
 20
11.6382681973
 11
17.0603098443
 21
9.1146200196
  0
LINE
  5
2EC
100
AcDbEntity
  8
0
100
AcDbLine
 62
7
  6
BYLAYER
 10
23.9737592954
 20
9.1146200196
 11
24.2925992726
 21
11.6382681973
  0
ENDSEC
  0
SECTION
  2
OBJECTS
  0
DICTIONARY
  5
C
100
AcDbDictionary
280
0
281
1
  3
ACAD_GROUP
350
D
  3
ACAD_MLINESTYLE
350
17
  3
ACAD_LAYOUT
350
1A
  3
ACAD_PLOTSETTINGS
350
19
  3
ACAD_PLOTSTYLENAME
350
E
  0
DICTIONARY
  5
D
102
{ACAD_REACTORS
330
C
102
}
100
AcDbDictionary
280
0
281
1
  0
ACDBDICTIONARYWDFLT
  5
E
102
{ACAD_REACTORS
330
C
102
}
100
AcDbDictionary
281
1
  3
Normal
350
F
100
AcDbDictionaryWithDefault
340
F
  0
DICTIONARY
  5
17
102
{ACAD_REACTORS
330
C
102
}
100
AcDbDictionary
280
0
281
1
  3
Standard
350
18
  0
DICTIONARY
  5
19
102
{ACAD_REACTORS
330
C
102
}
100
AcDbDictionary
281
1
  0
DICTIONARY
  5
1A
102
{ACAD_REACTORS
330
C
102
}
100
AcDbDictionary
281
1
  3
Model
350
2ED
  3
Layout1
350
2EE
  0
ACDBPLACEHOLDER
  5
F
102
{ACAD_REACTORS
330
E
102
}
  0
MLINESTYLE
  5
18
102
{ACAD_REACTORS
330
17
102
}
100
AcDbMlineStyle
  2
STANDARD
 70
0
  3

 62
256
 51
90.0
 52
90.0
 71
2
 49
0.5
 62
256
  6
BYLAYER
 49
-0.5
 62
256
  6
BYLAYER
  0
LAYOUT
  5
2ED
102
{ACAD_REACTORS
330
1A
102
}
100
AcDbPlotSettings
  1

  2
none_device
  4

  6

 40
0.0
 41
0.0
 42
0.0
 43
0.0
 44
210.0
 45
297.0
 46
0.0
 47
0.0
 48
0.0
 49
0.0
140
0.0
141
0.0
142
1.0
143
1.0
 70
1024
 72
1
 73
0
 74
0
  7

 75
0
147
1.0
148
0.0
149
0.0
100
AcDbLayout
  1
Model
 70
0
 71
0
 10
0.0
 20
0.0
 11
210.0
 21
297.0
 12
0.0
 22
0.0
 32
0.0
 14
0.0
 24
0.0
 34
0.0
 15
0.0
 25
0.0
 35
0.0
146
0.0
 13
0.0
 23
0.0
 33
0.0
 16
1.0
 26
0.0
 36
0.0
 17
0.0
 27
1.0
 37
0.0
 76
0
330
210
345
0
346
0
  0
LAYOUT
  5
2EE
102
{ACAD_REACTORS
330
1A
102
}
100
AcDbPlotSettings
  1

  2
none_device
  4

  6

 40
0.0
 41
0.0
 42
0.0
 43
0.0
 44
210.0
 45
297.0
 46
0.0
 47
0.0
 48
0.0
 49
0.0
140
0.0
141
0.0
142
1.0
143
1.0
 70
0
 72
1
 73
0
 74
0
  7

 75
0
147
1.0
148
0.0
149
0.0
100
AcDbLayout
  1
Layout1
 70
0
 71
1
 10
0.0
 20
0.0
 11
210.0
 21
297.0
 12
0.0
 22
0.0
 32
0.0
 14
0.0
 24
0.0
 34
0.0
 15
0.0
 25
0.0
 35
0.0
146
0.0
 13
0.0
 23
0.0
 33
0.0
 16
1.0
 26
0.0
 36
0.0
 17
0.0
 27
1.0
 37
0.0
 76
0
330
211
345
0
346
0
  0
ENDSEC
  0
EOF
