999
DXF file: C:\Users\sesa63760\Dev\_Creo\CAD\MCADID0004760_3D-CAD\drw0001_7.dxf
999
Pro/ENGINEER 2019471 by Parametric Technology Corporation
  0
SECTION
  2
HEADER
  9
$ACADVER
  1
AC1024
  9
$DWGCODEPAGE
  3
ANSI_1252
  9
$EXTMAX
 10
44.5822045455
 20
63.051975
 30
0.0
  9
$EXTMIN
 10
0.0
 20
0.0
 30
0.0
  9
$LIMMIN
 10
0.0
 20
0.0
  9
$LIMMAX
 10
44.5822045455
 20
63.051975
  9
$VIEWCTR
 10
22.2911022727
 20
31.5259875
  9
$VIEWSIZE
 40
63.051975
  9
$CLAYER
  8
0
  9
$LTSCALE
 40
4.1100546667
  9
$CELTYPE
  6
BYLAYER
  9
$DIMSCALE
 40
1.0
  9
$DIMASZ
 40
0.5307405303
  9
$DIMEXO
 40
1.0
  9
$DIMDLI
 40
2.8396741333
  9
$DIMEXE
 40
1.0
  9
$DIMCEN
 40
0.6725544
  9
$DIMLFAC
 40
1.0
  9
$DIMBLK
  1
_FILLED
  9
$DIMALT
 70
0
  9
$DIMALTF
 40
0.0393700787
  9
$DIMTXT
 40
0.7430367424
  9
$DIMTOL
 70
1
  9
$DIMLIM
 70
0
  9
$DIMTFAC
 40
1.0
  9
$DIMTP
 40
0.01
  9
$DIMTM
 40
0.01
  9
$DIMGAP
 40
0.625
  9
$DIMDSEP
 70
46
  9
$AUNITS
 70
0
  9
$PDMODE
 70
3
  9
$PDSIZE
 40
0.3125
  9
$HANDSEED
  5
2EA
  9
$TILEMODE
 70
1
  9
$MEASUREMENT
 70
1
  9
$INSUNITS
 70
4
  0
ENDSEC
  0
SECTION
  2
CLASSES
  0
CLASS
  1
ACDBDICTIONARYWDFLT
  2
AcDbDictionaryWithDefault
  3
AutoCAD 2000
 90
0
 91
1
280
0
281
0
  0
CLASS
  1
ACDBPLACEHOLDER
  2
AcDbPlaceHolder
  3
AutoCAD 2000
 90
0
 91
1
280
0
281
0
  0
CLASS
  1
LAYOUT
  2
AcDbLayout
  3
AutoCAD 2000
 90
0
 91
0
280
0
281
0
  0
ENDSEC
  0
SECTION
  2
TABLES
  0
TABLE
  2
VPORT
  5
8
100
AcDbSymbolTable
 70
2
  0
VPORT
  5
1F4
100
AcDbSymbolTableRecord
100
AcDbViewportTableRecord
  2
*ACTIVE
 70
0
 10
0.0
 20
0.0
 11
1.0
 21
1.0
 12
22.2911022727
 22
31.5259875
 13
0.0
 23
0.0
 14
1.0
 24
1.0
 15
0.0
 25
0.0
 16
0.0
 26
0.0
 36
1.0
 17
0.0
 27
0.0
 37
0.0
 40
63.051975
 41
0.7070707071
 42
50.0
 43
0.0
 44
0.0
 50
0.0
 51
0.0
 71
0
 72
100
 73
1
 74
1
 75
0
 76
0
 77
0
 78
0
  0
ENDTAB
  0
TABLE
  2
LTYPE
  5
5
100
AcDbSymbolTable
 70
6
  0
LTYPE
  5
14
100
AcDbSymbolTableRecord
100
AcDbLinetypeTableRecord
  2
BYBLOCK
 70
0
  3

 72
65
 73
0
 40
0.0
  0
LTYPE
  5
15
100
AcDbSymbolTableRecord
100
AcDbLinetypeTableRecord
  2
BYLAYER
 70
0
  3

 72
65
 73
0
 40
0.0
  0
LTYPE
  5
16
100
AcDbSymbolTableRecord
100
AcDbLinetypeTableRecord
  2
CONTINUOUS
 70
64
  3
Solid line
 72
65
 73
0
 40
0.0
  0
LTYPE
  5
1F5
100
AcDbSymbolTableRecord
100
AcDbLinetypeTableRecord
  2
CENTER
 70
64
  3
____ _ ____ _ ____ _ ____ _ ____ _ ____ _ ____
 72
65
 73
4
 40
0.6
 49
0.375
 74
0
 49
-0.075
 74
0
 49
0.075
 74
0
 49
-0.075
 74
0
  0
LTYPE
  5
1F6
100
AcDbSymbolTableRecord
100
AcDbLinetypeTableRecord
  2
HIDDEN
 70
64
  3
- - - - - - - - - - - - - - - - - - - -
 72
65
 73
2
 40
0.2
 49
0.1
 74
0
 49
-0.1
 74
0
  0
LTYPE
  5
1F7
100
AcDbSymbolTableRecord
100
AcDbLinetypeTableRecord
  2
PHANTOM
 70
64
  3
_____ _ _ _____ _ _ _____ _ _ _____
 72
65
 73
6
 40
0.8
 49
0.45
 74
0
 49
-0.05
 74
0
 49
0.1
 74
0
 49
-0.05
 74
0
 49
0.1
 74
0
 49
-0.05
 74
0
  0
LTYPE
  5
1F8
100
AcDbSymbolTableRecord
100
AcDbLinetypeTableRecord
  2
DOT
 70
64
  3
. . . . . . . . . . . . . . . . . . . .
 72
65
 73
2
 40
0.2
 49
0.1
 74
0
 49
-0.1
 74
0
  0
LTYPE
  5
1F9
100
AcDbSymbolTableRecord
100
AcDbLinetypeTableRecord
  2
DASHED
 70
64
  3
- - - - - - - - - - - - - - - - - - - -
 72
65
 73
2
 40
0.2
 49
0.1
 74
0
 49
-0.1
 74
0
  0
ENDTAB
  0
TABLE
  2
LAYER
  5
2
100
AcDbSymbolTable
 70
36
  0
LAYER
  5
10
100
AcDbSymbolTableRecord
100
AcDbLayerTableRecord
  2
0
 70
0
 62
7
  6
CONTINUOUS
370
-3
390
F
  0
LAYER
  5
1FA
100
AcDbSymbolTableRecord
100
AcDbLayerTableRecord
  2
DEFAULT_1
 70
0
 62
7
  6
CENTER
370
-3
390
F
  0
LAYER
  5
1FB
100
AcDbSymbolTableRecord
100
AcDbLayerTableRecord
  2
DEFAULT_2
 70
0
 62
7
  6
HIDDEN
370
-3
390
F
  0
LAYER
  5
1FC
100
AcDbSymbolTableRecord
100
AcDbLayerTableRecord
  2
DEFAULT_3
 70
0
 62
7
  6
PHANTOM
370
-3
390
F
  0
LAYER
  5
1FD
100
AcDbSymbolTableRecord
100
AcDbLayerTableRecord
  2
00_COMPONENTS
 70
0
 62
7
  6
CONTINUOUS
370
-3
390
F
  0
LAYER
  5
1FE
100
AcDbSymbolTableRecord
100
AcDbLayerTableRecord
  2
01_1_DEFAULT_DATUMS
 70
0
 62
7
  6
CONTINUOUS
370
-3
390
F
  0
LAYER
  5
1FF
100
AcDbSymbolTableRecord
100
AcDbLayerTableRecord
  2
01_PLANES
 70
0
 62
7
  6
CONTINUOUS
370
-3
390
F
  0
LAYER
  5
200
100
AcDbSymbolTableRecord
100
AcDbLayerTableRecord
  2
02_COORD_SYS
 70
0
 62
7
  6
CONTINUOUS
370
-3
390
F
  0
LAYER
  5
201
100
AcDbSymbolTableRecord
100
AcDbLayerTableRecord
  2
03_AXES
 70
0
 62
7
  6
CONTINUOUS
370
-3
390
F
  0
LAYER
  5
202
100
AcDbSymbolTableRecord
100
AcDbLayerTableRecord
  2
04_POINTS
 70
0
 62
7
  6
CONTINUOUS
370
-3
390
F
  0
LAYER
  5
203
100
AcDbSymbolTableRecord
100
AcDbLayerTableRecord
  2
05_CURVES
 70
0
 62
7
  6
CONTINUOUS
370
-3
390
F
  0
LAYER
  5
204
100
AcDbSymbolTableRecord
100
AcDbLayerTableRecord
  2
06_SURFS
 70
0
 62
7
  6
CONTINUOUS
370
-3
390
F
  0
LAYER
  5
205
100
AcDbSymbolTableRecord
100
AcDbLayerTableRecord
  2
07_COSMETICS
 70
0
 62
7
  6
CONTINUOUS
370
-3
390
F
  0
LAYER
  5
206
100
AcDbSymbolTableRecord
100
AcDbLayerTableRecord
  2
10_NOTES
 70
0
 62
7
  6
CONTINUOUS
370
-3
390
F
  0
LAYER
  5
207
100
AcDbSymbolTableRecord
100
AcDbLayerTableRecord
  2
11_NOTES_PUB
 70
0
 62
7
  6
CONTINUOUS
370
-3
390
F
  0
LAYER
  5
208
100
AcDbSymbolTableRecord
100
AcDbLayerTableRecord
  2
13_REF_GTOL
 70
0
 62
7
  6
CONTINUOUS
370
-3
390
F
  0
LAYER
  5
209
100
AcDbSymbolTableRecord
100
AcDbLayerTableRecord
  2
16_MISC
 70
0
 62
7
  6
CONTINUOUS
370
-3
390
F
  0
LAYER
  5
20A
100
AcDbSymbolTableRecord
100
AcDbLayerTableRecord
  2
17_NO_PRINT
 70
0
 62
7
  6
CONTINUOUS
370
-3
390
F
  0
LAYER
  5
20B
100
AcDbSymbolTableRecord
100
AcDbLayerTableRecord
  2
18_DATUM_CAMS_JOINTS
 70
0
 62
7
  6
CONTINUOUS
370
-3
390
F
  0
LAYER
  5
20C
100
AcDbSymbolTableRecord
100
AcDbLayerTableRecord
  2
19_DATUM_FUNCTIONAL
 70
0
 62
7
  6
CONTINUOUS
370
-3
390
F
  0
LAYER
  5
20D
100
AcDbSymbolTableRecord
100
AcDbLayerTableRecord
  2
20_DATUM_KINEMATIC_SCHEME
 70
0
 62
7
  6
CONTINUOUS
370
-3
390
F
  0
ENDTAB
  0
TABLE
  2
STYLE
  5
3
100
AcDbSymbolTable
 70
1
  0
STYLE
  5
11
100
AcDbSymbolTableRecord
100
AcDbTextStyleTableRecord
  2
STANDARD
 70
0
 40
0.0
 41
1.0
 50
0.0
 71
0
 42
0.2
  3
ARIAL.TTF
  4

  0
STYLE
  5
20E
100
AcDbSymbolTableRecord
100
AcDbTextStyleTableRecord
  2
TEXTSTYLE_1
 70
0
 40
0.0
 41
0.8
 50
0.0
 71
0
 42
0.2
  3
gdt
  4

  0
ENDTAB
  0
TABLE
  2
VIEW
  5
6
100
AcDbSymbolTable
 70
0
  0
ENDTAB
  0
TABLE
  2
UCS
  5
7
100
AcDbSymbolTable
 70
0
  0
ENDTAB
  0
TABLE
  2
APPID
  5
9
100
AcDbSymbolTable
 70
1
  0
APPID
  5
20F
100
AcDbSymbolTableRecord
100
AcDbRegAppTableRecord
  2
ACAD
 70
0
  0
ENDTAB
  0
TABLE
  2
BLOCK_RECORD
  5
1
100
AcDbSymbolTable
 70
0
  0
BLOCK_RECORD
  5
210
100
AcDbSymbolTableRecord
100
AcDbBlockTableRecord
  2
*Model_Space
  0
BLOCK_RECORD
  5
211
100
AcDbSymbolTableRecord
100
AcDbBlockTableRecord
  2
*Paper_Space
  0
BLOCK_RECORD
  5
212
100
AcDbSymbolTableRecord
100
AcDbBlockTableRecord
  2
_FILLED
  0
ENDTAB
  0
TABLE
  2
DIMSTYLE
  5
A
100
AcDbSymbolTable
 70
1
100
AcDbDimStyleTable
 71
0
  0
DIMSTYLE
105
213
100
AcDbSymbolTableRecord
100
AcDbDimStyleTableRecord
  2
STANDARD
 70
0
  3

  4

 40
1.0
 41
0.5307405303
 42
1.0
 43
0.38
 44
1.0
 45
0.0
 46
0.0
 47
0.01
 48
0.01
140
0.7430367424
141
0.09
142
0.0
143
25.4
144
1.0
145
0.0
146
1.0
147
0.625
 71
1
 72
0
 73
0
 74
0
 75
0
 76
0
 77
1
 78
8
 79
2
170
0
171
1
172
0
173
0
174
0
175
0
176
0
177
0
178
0
270
2
179
2
271
2
272
2
273
2
274
2
275
0
280
0
281
0
282
0
283
1
284
8
285
0
286
0
287
3
288
0
340
11
278
46
341
212
342
212
343
212
344
212
  0
ENDTAB
  0
ENDSEC
  0
SECTION
  2
BLOCKS
  0
BLOCK
  5
20
100
AcDbEntity
  8
0
100
AcDbBlockBegin
  2
*Model_Space
 70
0
 10
0.0
 20
0.0
 30
0.0
  3
*Model_Space
  1

  0
ENDBLK
  5
21
100
AcDbEntity
  8
0
100
AcDbBlockEnd
  0
BLOCK
  5
1C
100
AcDbEntity
  8
0
100
AcDbBlockBegin
  2
*Paper_Space
 70
0
 10
0.0
 20
0.0
 30
0.0
  3
*Paper_Space
  1

  0
ENDBLK
  5
1D
100
AcDbEntity
  8
0
100
AcDbBlockEnd
  0
BLOCK
  5
214
100
AcDbEntity
  8
0
100
AcDbBlockBegin
  2
_FILLED
 70
64
 10
0.0
 20
0.0
  3
_FILLED
  1

  0
SOLID
  5
215
100
AcDbEntity
  8
0
  6
BYBLOCK
 62
0
100
AcDbTrace
 10
0.0
 20
0.0
 11
-1.0
 21
0.25
 12
-1.0
 22
-0.25
 13
-1.0
 23
-0.25
  0
ENDBLK
  5
216
100
AcDbEntity
  8
0
  6
BYBLOCK
 62
0
100
AcDbBlockEnd
  0
ENDSEC
  0
SECTION
  2
ENTITIES
  0
LINE
  5
217
100
AcDbEntity
  8
0
100
AcDbLine
 62
7
  6
BYLAYER
 10
24.0432761851
 20
4.6690875
 11
20.6932783602
 21
4.6690875
  0
LINE
  5
218
100
AcDbEntity
  8
0
100
AcDbLine
 62
7
  6
BYLAYER
 10
11.0682772727
 20
53.3415875
 11
10.8682772727
 21
53.1415875
  0
LINE
  5
219
100
AcDbEntity
  8
0
100
AcDbLine
 62
7
  6
BYLAYER
 10
27.1488244799
 20
8.5282926048
 11
24.5182772727
 21
8.5282926048
  0
LINE
  5
21A
100
AcDbEntity
  8
0
100
AcDbLine
 62
7
  6
BYLAYER
 10
20.2182772727
 20
8.5282926048
 11
17.6055686786
 21
8.5282926048
  0
LINE
  5
21B
100
AcDbEntity
  8
0
100
AcDbLine
 62
7
  6
BYLAYER
 10
20.2182772727
 20
9.1415875
 11
20.3432772727
 21
9.1415875
  0
LINE
  5
21C
100
AcDbEntity
  8
0
100
AcDbLine
 62
7
  6
BYLAYER
 10
12.7899651092
 20
55.0915875
 11
12.2229278534
 21
54.1094501632
  0
LINE
  5
21D
100
AcDbEntity
  8
0
100
AcDbLine
 62
7
  6
BYLAYER
 10
20.4432775384
 20
4.9190882798
 11
20.6932780863
 21
4.669087774
  0
LINE
  5
21E
100
AcDbEntity
  8
0
100
AcDbLine
 62
7
  6
BYLAYER
 10
20.2182772727
 20
13.1415875
 11
20.3432772727
 21
13.1415875
  0
LINE
  5
21F
100
AcDbEntity
  8
0
100
AcDbLine
 62
7
  6
BYLAYER
 10
30.1681689275
 20
13.5415875
 11
24.5182772727
 21
13.5415875
  0
LINE
  5
220
100
AcDbEntity
  8
0
100
AcDbLine
 62
7
  6
BYLAYER
 10
20.2182772727
 20
13.5415875
 11
14.568385618
 21
13.5415875
  0
LINE
  5
221
100
AcDbEntity
  8
0
100
AcDbLine
 62
7
  6
BYLAYER
 10
30.3682772727
 20
13.7415875
 11
24.5182772727
 21
13.7415875
  0
LINE
  5
222
100
AcDbEntity
  8
0
100
AcDbLine
 62
7
  6
BYLAYER
 10
20.2182772727
 20
13.7415875
 11
14.3682772727
 21
13.7415875
  0
LINE
  5
223
100
AcDbEntity
  8
0
100
AcDbLine
 62
7
  6
BYLAYER
 10
20.3432774546
 20
7.89158793
 11
20.4432772727
 21
7.7915881308
  0
LINE
  5
224
100
AcDbEntity
  8
0
100
AcDbLine
 62
7
  6
BYLAYER
 10
12.2229278534
 20
54.1094501632
 11
12.1560167077
 21
53.8681763664
  0
LINE
  5
225
100
AcDbEntity
  8
0
100
AcDbLine
 62
7
  6
BYLAYER
 10
24.0432761851
 20
17.6140875
 11
20.6932783602
 21
17.6140875
  0
LINE
  5
226
100
AcDbEntity
  8
0
100
AcDbLine
 62
7
  6
BYLAYER
 10
9.5192955425
 20
37.6154407772
 11
9.3682772727
 21
39.3415875
  0
LINE
  5
227
100
AcDbEntity
  8
0
100
AcDbLine
 62
7
  6
BYLAYER
 10
8.9182772727
 20
38.3415875
 11
8.9182772727
 21
41.3415875
  0
LINE
  5
228
100
AcDbEntity
  8
0
100
AcDbLine
 62
7
  6
BYLAYER
 10
9.6182772727
 20
39.3415875
 11
9.6182772727
 21
41.3415875
  0
LINE
  5
229
100
AcDbEntity
  8
0
100
AcDbLine
 62
7
  6
BYLAYER
 10
10.3682772727
 20
48.4415875
 11
10.3682772727
 21
47.8415875
  0
LINE
  5
22A
100
AcDbEntity
  8
0
100
AcDbLine
 62
7
  6
BYLAYER
 10
10.3682772727
 20
32.8415875
 11
10.3682772727
 21
37.3415875
  0
LINE
  5
22B
100
AcDbEntity
  8
0
100
AcDbLine
 62
7
  6
BYLAYER
 10
10.5269361266
 20
47.8415875
 11
10.5269361266
 21
48.4415875
  0
LINE
  5
22C
100
AcDbEntity
  8
0
100
AcDbLine
 62
7
  6
BYLAYER
 10
8.8682772727
 20
41.3415875
 11
8.9817351947
 21
47.8415875
  0
LINE
  5
22D
100
AcDbEntity
  8
0
100
AcDbLine
 62
7
  6
BYLAYER
 10
9.6467184515
 20
45.8415875
 11
9.5681706593
 21
41.3415875
  0
LINE
  5
22E
100
AcDbEntity
  8
0
100
AcDbLine
 62
7
  6
BYLAYER
 10
10.0074852366
 20
45.8415875
 11
10.0423953665
 21
47.8415875
  0
LINE
  5
22F
100
AcDbEntity
  8
0
100
AcDbLine
 62
7
  6
BYLAYER
 10
24.5182772727
 20
18.1415875
 11
20.2182772727
 21
18.1415875
  0
LINE
  5
230
100
AcDbEntity
  8
0
100
AcDbLine
 62
7
  6
BYLAYER
 10
10.7216756377
 20
48.4415875
 11
10.7298828737
 21
47.8415874229
  0
LINE
  5
231
100
AcDbEntity
  8
0
100
AcDbLine
 62
7
  6
BYLAYER
 10
10.8682772727
 20
48.3415875
 11
10.8682772727
 21
53.1415875
  0
LINE
  5
232
100
AcDbEntity
  8
0
100
AcDbLine
 62
7
  6
BYLAYER
 10
11.0682772727
 20
47.8415875
 11
11.0682772727
 21
48.1415875
  0
LINE
  5
233
100
AcDbEntity
  8
0
100
AcDbLine
 62
7
  6
BYLAYER
 10
11.5875962984
 20
48.4415875
 11
11.5875962984
 21
47.8415875
  0
LINE
  5
234
100
AcDbEntity
  8
0
100
AcDbLine
 62
7
  6
BYLAYER
 10
11.9759724273
 20
32.8415875
 11
11.9759724273
 21
37.3415875
  0
LINE
  5
235
100
AcDbEntity
  8
0
100
AcDbLine
 62
7
  6
BYLAYER
 10
12.3682772727
 20
37.3415875
 11
12.3682772727
 21
31.5797952653
  0
LINE
  5
236
100
AcDbEntity
  8
0
100
AcDbLine
 62
7
  6
BYLAYER
 10
12.1560167077
 20
53.8681763664
 11
12.1468250649
 21
53.3415875
  0
LINE
  5
237
100
AcDbEntity
  8
0
100
AcDbLine
 62
7
  6
BYLAYER
 10
24.3932772727
 20
13.0665881269
 11
24.5182777703
 21
12.9415875886
  0
LINE
  5
238
100
AcDbEntity
  8
0
100
AcDbLine
 62
7
  6
BYLAYER
 10
24.2932772727
 20
14.4915868692
 11
24.3932770907
 21
14.39158707
  0
LINE
  5
239
100
AcDbEntity
  8
0
100
AcDbLine
 62
7
  6
BYLAYER
 10
12.1603827162
 20
26.1533589323
 11
10.3682772727
 21
32.8415875
  0
LINE
  5
23A
100
AcDbEntity
  8
0
100
AcDbLine
 62
7
  6
BYLAYER
 10
12.8859153629
 20
47.8415875
 11
12.8859153629
 21
48.4415875
  0
LINE
  5
23B
100
AcDbEntity
  8
0
100
AcDbLine
 62
7
  6
BYLAYER
 10
13.8682772727
 20
48.4415875
 11
13.8682772727
 21
53.1415875
  0
LINE
  5
23C
100
AcDbEntity
  8
0
100
AcDbLine
 62
7
  6
BYLAYER
 10
14.3682772727
 20
13.7415875
 11
14.3682772727
 21
25.0415875
  0
LINE
  5
23D
100
AcDbEntity
  8
0
100
AcDbLine
 62
7
  6
BYLAYER
 10
14.8022254992
 20
53.8681763664
 11
14.7401104903
 21
48.8415875
  0
LINE
  5
23E
100
AcDbEntity
  8
0
100
AcDbLine
 62
7
  6
BYLAYER
 10
31.0682772727
 20
53.3415875
 11
30.8682772727
 21
53.1415875
  0
LINE
  5
23F
100
AcDbEntity
  8
0
100
AcDbLine
 62
7
  6
BYLAYER
 10
24.5182772727
 20
23.5415875
 11
20.2182772727
 21
23.5415875
  0
LINE
  5
240
100
AcDbEntity
  8
0
100
AcDbLine
 62
7
  6
BYLAYER
 10
24.0432764591
 20
17.614087226
 11
24.293277007
 21
17.3640867202
  0
LINE
  5
241
100
AcDbEntity
  8
0
100
AcDbLine
 62
7
  6
BYLAYER
 10
17.6114376038
 20
8.4847478311
 11
17.6055686786
 21
8.5282926048
  0
LINE
  5
242
100
AcDbEntity
  8
0
100
AcDbLine
 62
7
  6
BYLAYER
 10
14.7401104903
 20
48.4415875
 11
14.7401104903
 21
48.8415875
  0
LINE
  5
243
100
AcDbEntity
  8
0
100
AcDbLine
 62
7
  6
BYLAYER
 10
15.3057959153
 20
48.4415875
 11
15.3057959153
 21
55.1929578255
  0
LINE
  5
244
100
AcDbEntity
  8
0
100
AcDbLine
 62
7
  6
BYLAYER
 10
15.4472172715
 20
48.8415875
 11
15.4472172715
 21
48.4415875
  0
LINE
  5
245
100
AcDbEntity
  8
0
100
AcDbLine
 62
7
  6
BYLAYER
 10
16.3682772727
 20
31.5797952653
 11
16.3682772727
 21
39.1415875
  0
LINE
  5
246
100
AcDbEntity
  8
0
100
AcDbLine
 62
7
  6
BYLAYER
 10
15.4472172715
 20
48.8415875
 11
15.5093322804
 21
53.8681763664
  0
LINE
  5
247
100
AcDbEntity
  8
0
100
AcDbLine
 62
7
  6
BYLAYER
 10
15.2172590029
 20
37.6154407772
 11
15.3682772727
 21
39.3415875
  0
LINE
  5
248
100
AcDbEntity
  8
0
100
AcDbLine
 62
7
  6
BYLAYER
 10
31.1271876745
 20
25.0415875
 11
13.6093878353
 21
25.0415875
  0
LINE
  5
249
100
AcDbEntity
  8
0
100
AcDbLine
 62
7
  6
BYLAYER
 10
16.8358558161
 20
48.4415875
 11
16.8358558161
 21
47.8415875
  0
LINE
  5
24A
100
AcDbEntity
  8
0
100
AcDbLine
 62
7
  6
BYLAYER
 10
32.5761718292
 20
26.1533589323
 11
30.0070449538
 21
26.1533589323
  0
LINE
  5
24B
100
AcDbEntity
  8
0
100
AcDbLine
 62
7
  6
BYLAYER
 10
29.1395651554
 20
26.1533589323
 11
15.5969893899
 21
26.1533589323
  0
LINE
  5
24C
100
AcDbEntity
  8
0
100
AcDbLine
 62
7
  6
BYLAYER
 10
14.7295095916
 20
26.1533589323
 11
12.1603827162
 21
26.1533589323
  0
LINE
  5
24D
100
AcDbEntity
  8
0
100
AcDbLine
 62
7
  6
BYLAYER
 10
20.2182772727
 20
6.540100872
 11
20.2182772727
 21
23.5415875
  0
LINE
  5
24E
100
AcDbEntity
  8
0
100
AcDbLine
 62
7
  6
BYLAYER
 10
20.3432772727
 20
7.89158793
 11
20.3432772727
 21
14.39158707
  0
LINE
  5
24F
100
AcDbEntity
  8
0
100
AcDbLine
 62
7
  6
BYLAYER
 10
20.4432772727
 20
4.9190882798
 11
20.4432772727
 21
17.3640867202
  0
LINE
  5
250
100
AcDbEntity
  8
0
100
AcDbLine
 62
7
  6
BYLAYER
 10
33.6682772727
 20
48.1415875
 11
33.8682772727
 21
48.3415875
  0
LINE
  5
251
100
AcDbEntity
  8
0
100
AcDbLine
 62
7
  6
BYLAYER
 10
20.6932778123
 20
4.6690875
 11
20.6932778123
 21
17.6140875
  0
LINE
  5
252
100
AcDbEntity
  8
0
100
AcDbLine
 62
7
  6
BYLAYER
 10
24.043276733
 20
17.6140875
 11
24.043276733
 21
4.6690875
  0
LINE
  5
253
100
AcDbEntity
  8
0
100
AcDbLine
 62
7
  6
BYLAYER
 10
24.2932772727
 20
17.3640867202
 11
24.2932772727
 21
4.9190882798
  0
LINE
  5
254
100
AcDbEntity
  8
0
100
AcDbLine
 62
7
  6
BYLAYER
 10
24.3932772727
 20
14.39158707
 11
24.3932772727
 21
7.89158793
  0
LINE
  5
255
100
AcDbEntity
  8
0
100
AcDbLine
 62
7
  6
BYLAYER
 10
24.5182772727
 20
23.5415875
 11
24.5182772727
 21
6.540100872
  0
LINE
  5
256
100
AcDbEntity
  8
0
100
AcDbLine
 62
7
  6
BYLAYER
 10
34.3682772727
 20
32.8415875
 11
32.7605821181
 21
32.8415875
  0
LINE
  5
257
100
AcDbEntity
  8
0
100
AcDbLine
 62
7
  6
BYLAYER
 10
28.3682772727
 20
32.8415875
 11
16.3682772727
 21
32.8415875
  0
LINE
  5
258
100
AcDbEntity
  8
0
100
AcDbLine
 62
7
  6
BYLAYER
 10
11.9759724273
 20
32.8415875
 11
10.3682772727
 21
32.8415875
  0
LINE
  5
259
100
AcDbEntity
  8
0
100
AcDbLine
 62
7
  6
BYLAYER
 10
11.0682772727
 20
48.1415875
 11
10.8682772727
 21
48.3415875
  0
LINE
  5
25A
100
AcDbEntity
  8
0
100
AcDbLine
 62
7
  6
BYLAYER
 10
26.7182772727
 20
12.0287414442
 11
26.7182772727
 21
10.2543437354
  0
LINE
  5
25B
100
AcDbEntity
  8
0
100
AcDbLine
 62
7
  6
BYLAYER
 10
27.9006987292
 20
47.8415875
 11
27.9006987292
 21
48.4415875
  0
LINE
  5
25C
100
AcDbEntity
  8
0
100
AcDbLine
 62
7
  6
BYLAYER
 10
28.3682772727
 20
31.5797952653
 11
28.3682772727
 21
39.1415875
  0
LINE
  5
25D
100
AcDbEntity
  8
0
100
AcDbLine
 62
7
  6
BYLAYER
 10
34.9183682615
 20
37.3415875
 11
29.8181862838
 21
37.3415875
  0
LINE
  5
25E
100
AcDbEntity
  8
0
100
AcDbLine
 62
7
  6
BYLAYER
 10
14.9183682615
 20
37.3415875
 11
9.8181862838
 21
37.3415875
  0
LINE
  5
25F
100
AcDbEntity
  8
0
100
AcDbLine
 62
7
  6
BYLAYER
 10
35.2172590029
 20
37.6154407772
 11
34.6697464149
 21
37.6154407772
  0
LINE
  5
260
100
AcDbEntity
  8
0
100
AcDbLine
 62
7
  6
BYLAYER
 10
34.0475439836
 20
37.6154407772
 11
29.5192955425
 21
37.6154407772
  0
LINE
  5
261
100
AcDbEntity
  8
0
100
AcDbLine
 62
7
  6
BYLAYER
 10
15.2172590029
 20
37.6154407772
 11
14.6697464149
 21
37.6154407772
  0
LINE
  5
262
100
AcDbEntity
  8
0
100
AcDbLine
 62
7
  6
BYLAYER
 10
14.0475439836
 20
37.6154407772
 11
9.5192955425
 21
37.6154407772
  0
LINE
  5
263
100
AcDbEntity
  8
0
100
AcDbLine
 62
7
  6
BYLAYER
 10
16.3682772727
 20
37.6415875
 11
28.3682772727
 21
37.6415875
  0
LINE
  5
264
100
AcDbEntity
  8
0
100
AcDbLine
 62
7
  6
BYLAYER
 10
9.499510268
 20
37.8415875
 11
9.4182772727
 21
37.8415875
  0
LINE
  5
265
100
AcDbEntity
  8
0
100
AcDbLine
 62
7
  6
BYLAYER
 10
16.3682772727
 20
37.8415875
 11
28.3682772727
 21
37.8415875
  0
LINE
  5
266
100
AcDbEntity
  8
0
100
AcDbLine
 62
7
  6
BYLAYER
 10
35.2370442774
 20
37.8415875
 11
35.3182772727
 21
37.8415875
  0
LINE
  5
267
100
AcDbEntity
  8
0
100
AcDbLine
 62
7
  6
BYLAYER
 10
29.5192955425
 20
37.6154407772
 11
29.3682772727
 21
39.3415875
  0
LINE
  5
268
100
AcDbEntity
  8
0
100
AcDbLine
 62
7
  6
BYLAYER
 10
30.3682772727
 20
13.7415875
 11
30.3682772727
 21
25.0415875
  0
LINE
  5
269
100
AcDbEntity
  8
0
100
AcDbLine
 62
7
  6
BYLAYER
 10
27.1488244799
 20
8.5282926048
 11
27.1467728418
 21
8.5130919308
  0
LINE
  5
26A
100
AcDbEntity
  8
0
100
AcDbLine
 62
7
  6
BYLAYER
 10
34.6944163797
 20
38.1415875
 11
34.0916984693
 21
38.1415875
  0
LINE
  5
26B
100
AcDbEntity
  8
0
100
AcDbLine
 62
7
  6
BYLAYER
 10
14.6944163797
 20
38.1415875
 11
14.0916984693
 21
38.1415875
  0
LINE
  5
26C
100
AcDbEntity
  8
0
100
AcDbLine
 62
7
  6
BYLAYER
 10
28.3682772727
 20
38.3415875
 11
16.3682772727
 21
38.3415875
  0
LINE
  5
26D
100
AcDbEntity
  8
0
100
AcDbLine
 62
7
  6
BYLAYER
 10
8.9182772727
 20
39.1415875
 11
9.3857750054
 21
39.1415875
  0
LINE
  5
26E
100
AcDbEntity
  8
0
100
AcDbLine
 62
7
  6
BYLAYER
 10
15.35077954
 20
39.1415875
 11
16.3682772727
 21
39.1415875
  0
LINE
  5
26F
100
AcDbEntity
  8
0
100
AcDbLine
 62
7
  6
BYLAYER
 10
28.3682772727
 20
39.1415875
 11
29.3857750054
 21
39.1415875
  0
LINE
  5
270
100
AcDbEntity
  8
0
100
AcDbLine
 62
7
  6
BYLAYER
 10
35.35077954
 20
39.1415875
 11
35.8182772727
 21
39.1415875
  0
LINE
  5
271
100
AcDbEntity
  8
0
100
AcDbLine
 62
7
  6
BYLAYER
 10
8.9182772727
 20
39.3415875
 11
16.1682772727
 21
39.3415875
  0
LINE
  5
272
100
AcDbEntity
  8
0
100
AcDbLine
 62
7
  6
BYLAYER
 10
28.5682772727
 20
39.3415875
 11
35.8182772727
 21
39.3415875
  0
LINE
  5
273
100
AcDbEntity
  8
0
100
AcDbLine
 62
7
  6
BYLAYER
 10
30.8682772727
 20
48.4415875
 11
30.8682772727
 21
53.1415875
  0
LINE
  5
274
100
AcDbEntity
  8
0
100
AcDbLine
 62
7
  6
BYLAYER
 10
31.8506391825
 20
48.4415875
 11
31.8506391825
 21
47.8415875
  0
LINE
  5
275
100
AcDbEntity
  8
0
100
AcDbLine
 62
7
  6
BYLAYER
 10
32.3682772727
 20
31.5797952653
 11
32.3682772727
 21
37.3415875
  0
LINE
  5
276
100
AcDbEntity
  8
0
100
AcDbLine
 62
7
  6
BYLAYER
 10
20.6932780863
 20
17.614087226
 11
20.4432775384
 21
17.3640867202
  0
LINE
  5
277
100
AcDbEntity
  8
0
100
AcDbLine
 62
7
  6
BYLAYER
 10
8.8682772727
 20
41.3415875
 11
35.8682772727
 21
41.3415875
  0
LINE
  5
278
100
AcDbEntity
  8
0
100
AcDbLine
 62
7
  6
BYLAYER
 10
13.6682772727
 20
53.3415875
 11
13.8682772727
 21
53.1415875
  0
LINE
  5
279
100
AcDbEntity
  8
0
100
AcDbLine
 62
7
  6
BYLAYER
 10
32.5805378376
 20
53.8681763664
 11
32.5897294805
 21
53.3415875
  0
LINE
  5
27A
100
AcDbEntity
  8
0
100
AcDbLine
 62
7
  6
BYLAYER
 10
32.7605821181
 20
37.3415875
 11
32.7605821181
 21
32.8415875
  0
LINE
  5
27B
100
AcDbEntity
  8
0
100
AcDbLine
 62
7
  6
BYLAYER
 10
33.148958247
 20
47.8415875
 11
33.148958247
 21
48.4415875
  0
LINE
  5
27C
100
AcDbEntity
  8
0
100
AcDbLine
 62
7
  6
BYLAYER
 10
33.6682772727
 20
47.8415875
 11
33.6682772727
 21
48.1415875
  0
LINE
  5
27D
100
AcDbEntity
  8
0
100
AcDbLine
 62
7
  6
BYLAYER
 10
33.8682772727
 20
48.3415875
 11
33.8682772727
 21
53.1415875
  0
LINE
  5
27E
100
AcDbEntity
  8
0
100
AcDbLine
 62
7
  6
BYLAYER
 10
34.2096184188
 20
48.4415875
 11
34.2096184188
 21
47.8415875
  0
LINE
  5
27F
100
AcDbEntity
  8
0
100
AcDbLine
 62
7
  6
BYLAYER
 10
34.3682772727
 20
37.3415875
 11
34.3682772727
 21
32.8415875
  0
LINE
  5
280
100
AcDbEntity
  8
0
100
AcDbLine
 62
7
  6
BYLAYER
 10
34.3682772727
 20
47.8415875
 11
34.3682772727
 21
48.4415875
  0
LINE
  5
281
100
AcDbEntity
  8
0
100
AcDbLine
 62
7
  6
BYLAYER
 10
34.0066688547
 20
47.8415875
 11
34.0148789076
 21
48.4415875
  0
LINE
  5
282
100
AcDbEntity
  8
0
100
AcDbLine
 62
7
  6
BYLAYER
 10
35.2172590029
 20
37.6154407772
 11
35.3682772727
 21
39.3415875
  0
LINE
  5
283
100
AcDbEntity
  8
0
100
AcDbLine
 62
7
  6
BYLAYER
 10
34.3682772727
 20
32.8415875
 11
32.5761718292
 21
26.1533589323
  0
LINE
  5
284
100
AcDbEntity
  8
0
100
AcDbLine
 62
7
  6
BYLAYER
 10
20.4432772727
 20
14.4915868692
 11
20.3432774546
 21
14.39158707
  0
LINE
  5
285
100
AcDbEntity
  8
0
100
AcDbLine
 62
7
  6
BYLAYER
 10
34.7290693087
 20
45.8415875
 11
34.6941591789
 21
47.8415875
  0
LINE
  5
286
100
AcDbEntity
  8
0
100
AcDbLine
 62
7
  6
BYLAYER
 10
35.1683838861
 20
41.3415875
 11
35.0898360939
 21
45.8415875
  0
LINE
  5
287
100
AcDbEntity
  8
0
100
AcDbLine
 62
7
  6
BYLAYER
 10
35.8682772727
 20
41.3415875
 11
35.7548193507
 21
47.8415875
  0
LINE
  5
288
100
AcDbEntity
  8
0
100
AcDbLine
 62
7
  6
BYLAYER
 10
35.1182772727
 20
41.3415875
 11
35.1182772727
 21
39.3415875
  0
LINE
  5
289
100
AcDbEntity
  8
0
100
AcDbLine
 62
7
  6
BYLAYER
 10
35.8182772727
 20
38.3415875
 11
35.8182772727
 21
41.3415875
  0
LINE
  5
28A
100
AcDbEntity
  8
0
100
AcDbLine
 62
7
  6
BYLAYER
 10
8.9468250649
 20
45.8415875
 11
10.0074852366
 21
45.8415875
  0
LINE
  5
28B
100
AcDbEntity
  8
0
100
AcDbLine
 62
7
  6
BYLAYER
 10
34.7290693087
 20
45.8415875
 11
35.7897294805
 21
45.8415875
  0
LINE
  5
28C
100
AcDbEntity
  8
0
100
AcDbLine
 62
7
  6
BYLAYER
 10
8.9817351947
 20
47.8415875
 11
35.7548193507
 21
47.8415875
  0
LINE
  5
28D
100
AcDbEntity
  8
0
100
AcDbLine
 62
7
  6
BYLAYER
 10
32.513626692
 20
54.1094501632
 11
32.5805378377
 21
53.8681763664
  0
LINE
  5
28E
100
AcDbEntity
  8
0
100
AcDbLine
 62
7
  6
BYLAYER
 10
24.5182777703
 20
9.3415874114
 11
24.3932772727
 21
9.2165868731
  0
LINE
  5
28F
100
AcDbEntity
  8
0
100
AcDbLine
 62
7
  6
BYLAYER
 10
24.3932770907
 20
7.89158793
 11
24.2932772727
 21
7.7915881308
  0
LINE
  5
290
100
AcDbEntity
  8
0
100
AcDbLine
 62
7
  6
BYLAYER
 10
11.0682772727
 20
48.1415875
 11
11.5875962984
 21
48.1415875
  0
LINE
  5
291
100
AcDbEntity
  8
0
100
AcDbLine
 62
7
  6
BYLAYER
 10
33.148958247
 20
48.1415875
 11
33.6682772727
 21
48.1415875
  0
LINE
  5
292
100
AcDbEntity
  8
0
100
AcDbLine
 62
7
  6
BYLAYER
 10
33.8682772727
 20
48.3415875
 11
33.148958247
 21
48.3415875
  0
LINE
  5
293
100
AcDbEntity
  8
0
100
AcDbLine
 62
7
  6
BYLAYER
 10
11.5875962984
 20
48.3415875
 11
10.8682772727
 21
48.3415875
  0
LINE
  5
294
100
AcDbEntity
  8
0
100
AcDbLine
 62
7
  6
BYLAYER
 10
10.3682772727
 20
48.4415875
 11
10.8682772727
 21
48.4415875
  0
LINE
  5
295
100
AcDbEntity
  8
0
100
AcDbLine
 62
7
  6
BYLAYER
 10
11.5875962984
 20
48.4415875
 11
16.8358558161
 21
48.4415875
  0
LINE
  5
296
100
AcDbEntity
  8
0
100
AcDbLine
 62
7
  6
BYLAYER
 10
27.9006987292
 20
48.4415875
 11
33.148958247
 21
48.4415875
  0
LINE
  5
297
100
AcDbEntity
  8
0
100
AcDbLine
 62
7
  6
BYLAYER
 10
33.8682772727
 20
48.4415875
 11
34.3682772727
 21
48.4415875
  0
LINE
  5
298
100
AcDbEntity
  8
0
100
AcDbLine
 62
7
  6
BYLAYER
 10
13.8682772727
 20
48.8415875
 11
14.7401104903
 21
48.8415875
  0
LINE
  5
299
100
AcDbEntity
  8
0
100
AcDbLine
 62
7
  6
BYLAYER
 10
15.4472172715
 20
48.8415875
 11
30.8682772727
 21
48.8415875
  0
LINE
  5
29A
100
AcDbEntity
  8
0
100
AcDbLine
 62
7
  6
BYLAYER
 10
24.293277007
 20
4.9190882798
 11
24.0432764591
 21
4.669087774
  0
LINE
  5
29B
100
AcDbEntity
  8
0
100
AcDbLine
 62
7
  6
BYLAYER
 10
31.9465894362
 20
55.0915875
 11
32.513626692
 21
54.1094501632
  0
LINE
  5
29C
100
AcDbEntity
  8
0
100
AcDbLine
 62
7
  6
BYLAYER
 10
10.8682772727
 20
53.1415875
 11
13.8682772727
 21
53.1415875
  0
LINE
  5
29D
100
AcDbEntity
  8
0
100
AcDbLine
 62
7
  6
BYLAYER
 10
30.8682772727
 20
53.1415875
 11
33.8682772727
 21
53.1415875
  0
LINE
  5
29E
100
AcDbEntity
  8
0
100
AcDbLine
 62
7
  6
BYLAYER
 10
11.0682797144
 20
53.3415875
 11
13.668274831
 21
53.3415875
  0
LINE
  5
29F
100
AcDbEntity
  8
0
100
AcDbLine
 62
7
  6
BYLAYER
 10
31.0682797144
 20
53.3415875
 11
33.668274831
 21
53.3415875
  0
LINE
  5
2A0
100
AcDbEntity
  8
0
100
AcDbLine
 62
7
  6
BYLAYER
 10
12.1560167077
 20
53.8681763664
 11
14.8022254992
 21
53.8681763664
  0
LINE
  5
2A1
100
AcDbEntity
  8
0
100
AcDbLine
 62
7
  6
BYLAYER
 10
15.5093322804
 20
53.8681763664
 11
32.5805378376
 21
53.8681763664
  0
LINE
  5
2A2
100
AcDbEntity
  8
0
100
AcDbLine
 62
7
  6
BYLAYER
 10
32.513626692
 20
54.1094501632
 11
15.5567027914
 21
54.1094501632
  0
LINE
  5
2A3
100
AcDbEntity
  8
0
100
AcDbLine
 62
7
  6
BYLAYER
 10
14.8495960103
 20
54.1094501632
 11
12.2229278534
 21
54.1094501632
  0
LINE
  5
2A4
100
AcDbEntity
  8
0
100
AcDbLine
 62
7
  6
BYLAYER
 10
12.7899651092
 20
55.0915875
 11
15.2510686609
 21
55.0915875
  0
LINE
  5
2A5
100
AcDbEntity
  8
0
100
AcDbLine
 62
7
  6
BYLAYER
 10
15.9581754421
 20
55.0915875
 11
31.9465894362
 21
55.0915875
  0
LINE
  5
2A6
100
AcDbEntity
  8
0
100
AcDbLine
 62
7
  6
BYLAYER
 10
13.2230945016
 20
55.3415875
 11
31.5134607636
 21
55.3415875
  0
LINE
  5
2A7
100
AcDbEntity
  8
0
100
AcDbLine
 62
7
  6
BYLAYER
 10
26.1438419754
 20
55.7547634112
 11
18.5927125699
 21
55.7547634112
  0
LINE
  5
2A8
100
AcDbEntity
  8
0
100
AcDbLine
 62
7
  6
BYLAYER
 10
33.6682772727
 20
53.3415875
 11
33.8682772727
 21
53.1415875
  0
LINE
  5
2A9
100
AcDbEntity
  8
0
100
AcDbLine
 62
7
  6
BYLAYER
 10
15.6406295378
 20
58.2784115888
 11
17.0548431002
 21
58.2784115888
  0
LINE
  5
2AA
100
AcDbEntity
  8
0
100
AcDbLine
 62
7
  6
BYLAYER
 10
18.9115525471
 20
58.2784115888
 11
25.8250019982
 21
58.2784115888
  0
LINE
  5
2AB
100
AcDbEntity
  8
0
100
AcDbLine
 62
7
  6
BYLAYER
 10
27.6817114452
 20
58.2784115888
 11
29.0959250075
 21
58.2784115888
  0
LINE
  5
2AC
100
AcDbEntity
  8
0
100
AcDbLine
 62
7
  6
BYLAYER
 10
15.9913523737
 20
58.6915875
 11
28.7452021779
 21
58.6915875
  0
ARC
  5
2AD
100
AcDbEntity
  8
0
100
AcDbCircle
 62
7
  6
BYLAYER
 10
461.6445076951
 20
171.9565138849
 40
470.6960318007
100
AcDbArc
 50
197.1906117016
 51
197.351456561
  0
ARC
  5
2AE
100
AcDbEntity
  8
0
100
AcDbCircle
 62
7
  6
BYLAYER
 10
-416.9079531415
 20
171.9565138824
 40
470.6960317922
100
AcDbArc
 50
342.648543439
 51
342.8093882984
  0
ARC
  5
2AF
100
AcDbEntity
  8
0
100
AcDbCircle
 62
7
  6
BYLAYER
 10
33.9915984208
 20
11.0375317428
 40
7.3429329684
100
AcDbArc
 50
169.0362289724
 51
172.124924983
  0
ARC
  5
2B0
100
AcDbEntity
  8
0
100
AcDbCircle
 62
7
  6
BYLAYER
 10
33.8884915592
 20
11.2285189423
 40
7.2384528715
100
AcDbArc
 50
187.8469478495
 51
190.9972832047
  0
ARC
  5
2B1
100
AcDbEntity
  8
0
100
AcDbCircle
 62
7
  6
BYLAYER
 10
22.3682772727
 20
12.1415875
 40
6.0
100
AcDbArc
 50
217.5514272837
 51
249.0021244541
  0
ARC
  5
2B2
100
AcDbEntity
  8
0
100
AcDbCircle
 62
7
  6
BYLAYER
 10
22.3682772727
 20
12.1415875
 40
6.0
100
AcDbArc
 50
290.9978755459
 51
322.7891989169
  0
ARC
  5
2B3
100
AcDbEntity
  8
0
100
AcDbCircle
 62
7
  6
BYLAYER
 10
31.1272830898
 20
26.5415875
 40
1.5
100
AcDbArc
 50
270.0
 51
345.0
  0
ARC
  5
2B4
100
AcDbEntity
  8
0
100
AcDbCircle
 62
7
  6
BYLAYER
 10
13.6092714556
 20
26.5415875
 40
1.5
100
AcDbArc
 50
195.0
 51
270.0
  0
ARC
  5
2B5
100
AcDbEntity
  8
0
100
AcDbCircle
 62
7
  6
BYLAYER
 10
31.5135767343
 20
54.8415875
 40
0.5
100
AcDbArc
 50
30.0
 51
90.0
  0
ARC
  5
2B6
100
AcDbEntity
  8
0
100
AcDbCircle
 62
7
  6
BYLAYER
 10
13.2229778111
 20
54.8415875
 40
0.5
100
AcDbArc
 50
90.0
 51
150.0
  0
ARC
  5
2B7
100
AcDbEntity
  8
0
100
AcDbCircle
 62
7
  6
BYLAYER
 10
9.4182772727
 20
38.3415875
 40
0.5
100
AcDbArc
 50
180.0
 51
270.0
  0
ARC
  5
2B8
100
AcDbEntity
  8
0
100
AcDbCircle
 62
7
  6
BYLAYER
 10
35.3182772727
 20
38.3415875
 40
0.5
100
AcDbArc
 50
270.0
 51
360.0
  0
ARC
  5
2B9
100
AcDbEntity
  8
0
100
AcDbCircle
 62
7
  6
BYLAYER
 10
9.8181539519
 20
37.6415875
 40
0.3
100
AcDbArc
 50
185.0
 51
270.0
  0
ARC
  5
2BA
100
AcDbEntity
  8
0
100
AcDbCircle
 62
7
  6
BYLAYER
 10
14.9184005934
 20
37.6415875
 40
0.3
100
AcDbArc
 50
270.0
 51
355.0
  0
ARC
  5
2BB
100
AcDbEntity
  8
0
100
AcDbCircle
 62
7
  6
BYLAYER
 10
29.8181539519
 20
37.6415875
 40
0.3
100
AcDbArc
 50
185.0
 51
270.0
  0
ARC
  5
2BC
100
AcDbEntity
  8
0
100
AcDbCircle
 62
7
  6
BYLAYER
 10
34.9184005934
 20
37.6415875
 40
0.3
100
AcDbArc
 50
270.0
 51
355.0
  0
ARC
  5
2BD
100
AcDbEntity
  8
0
100
AcDbCircle
 62
7
  6
BYLAYER
 10
30.1682772727
 20
13.7415875
 40
0.2
100
AcDbArc
 50
270.0
 51
360.0
  0
ARC
  5
2BE
100
AcDbEntity
  8
0
100
AcDbCircle
 62
7
  6
BYLAYER
 10
14.5682772727
 20
13.7415875
 40
0.2
100
AcDbArc
 50
180.0
 51
270.0
  0
ARC
  5
2BF
100
AcDbEntity
  8
0
100
AcDbCircle
 62
7
  6
BYLAYER
 10
28.5682772727
 20
39.1415875
 40
0.2
100
AcDbArc
 50
90.0
 51
180.0
  0
ARC
  5
2C0
100
AcDbEntity
  8
0
100
AcDbCircle
 62
7
  6
BYLAYER
 10
16.1682772727
 20
39.1415875
 40
0.2
100
AcDbArc
 50
0.0
 51
90.0
  0
SPLINE
  5
2C1
100
AcDbEntity
  8
0
100
AcDbSpline
 62
7
  6
BYLAYER
 70
0
 71
3
 72
14
 73
10
 74
0
 42
0.0000001
 43
0.0000001
 44
0.0000000001
 40
0.0
 40
0.0
 40
0.0
 40
0.0
 40
0.1041126864
 40
0.2119832382
 40
0.3259503295
 40
0.4474886714
 40
0.5768563707
 40
0.713286252
 40
1.0
 40
1.0
 40
1.0
 40
1.0
 10
13.8273798863
 20
37.3415875
 30
0.0
 10
13.8406751469
 20
37.3415875
 30
0.0
 10
13.8678595302
 20
37.345150162
 30
0.0
 10
13.9068753762
 20
37.3606968169
 30
0.0
 10
13.9432073731
 20
37.3858450166
 30
0.0
 10
13.9756838325
 20
37.4196309725
 30
0.0
 10
14.003286615
 20
37.4609654946
 30
0.0
 10
14.0328713937
 20
37.525241375
 30
0.0
 10
14.0444783213
 20
37.5789558075
 30
0.0
 10
14.0475439836
 20
37.6154407772
 30
0.0
  0
LINE
  5
2C2
100
AcDbEntity
  8
0
100
AcDbLine
 62
7
  6
BYLAYER
 10
14.0475439836
 20
37.6154407772
 11
14.0916984693
 21
38.1415875
  0
LINE
  5
2C3
100
AcDbEntity
  8
0
100
AcDbLine
 62
7
  6
BYLAYER
 10
14.6944163797
 20
38.1415875
 11
14.6697464149
 21
37.6154407772
  0
SPLINE
  5
2C4
100
AcDbEntity
  8
0
100
AcDbSpline
 62
7
  6
BYLAYER
 70
0
 71
3
 72
14
 73
10
 74
0
 42
0.0000001
 43
0.0000001
 44
0.0000000001
 40
0.0
 40
0.0
 40
0.0
 40
0.0
 40
0.2881500792
 40
0.4243676591
 40
0.5531173285
 40
0.6738925104
 40
0.7872772036
 40
0.8951001995
 40
1.0
 40
1.0
 40
1.0
 40
1.0
 10
14.6697464149
 20
37.6154407772
 30
0.0
 10
14.6680401017
 20
37.5791307302
 30
0.0
 10
14.6585084701
 20
37.525498145
 30
0.0
 10
14.6312472865
 20
37.4610352182
 30
0.0
 10
14.6051607042
 20
37.4196580628
 30
0.0
 10
14.5738953698
 20
37.3858257427
 30
0.0
 10
14.5384272613
 20
37.3606453283
 30
0.0
 10
14.4999130012
 20
37.345105307
 30
0.0
 10
14.4729568893
 20
37.3415875
 30
0.0
 10
14.459723785
 20
37.3415875
 30
0.0
  0
SPLINE
  5
2C5
100
AcDbEntity
  8
0
100
AcDbSpline
 62
7
  6
BYLAYER
 70
0
 71
3
 72
14
 73
10
 74
0
 42
0.0000001
 43
0.0000001
 44
0.0000000001
 40
0.0
 40
0.0
 40
0.0
 40
0.0
 40
0.1041126864
 40
0.2119832382
 40
0.3259503295
 40
0.4474886714
 40
0.5768563707
 40
0.713286252
 40
1.0
 40
1.0
 40
1.0
 40
1.0
 10
33.8273798863
 20
37.3415875
 30
0.0
 10
33.8406751469
 20
37.3415875
 30
0.0
 10
33.8678595302
 20
37.345150162
 30
0.0
 10
33.9068753762
 20
37.3606968169
 30
0.0
 10
33.9432073731
 20
37.3858450166
 30
0.0
 10
33.9756838325
 20
37.4196309725
 30
0.0
 10
34.003286615
 20
37.4609654946
 30
0.0
 10
34.0328713937
 20
37.525241375
 30
0.0
 10
34.0444783213
 20
37.5789558075
 30
0.0
 10
34.0475439836
 20
37.6154407772
 30
0.0
  0
LINE
  5
2C6
100
AcDbEntity
  8
0
100
AcDbLine
 62
7
  6
BYLAYER
 10
34.0475439836
 20
37.6154407772
 11
34.0916984693
 21
38.1415875
  0
LINE
  5
2C7
100
AcDbEntity
  8
0
100
AcDbLine
 62
7
  6
BYLAYER
 10
34.6944163797
 20
38.1415875
 11
34.6697464149
 21
37.6154407772
  0
SPLINE
  5
2C8
100
AcDbEntity
  8
0
100
AcDbSpline
 62
7
  6
BYLAYER
 70
0
 71
3
 72
14
 73
10
 74
0
 42
0.0000001
 43
0.0000001
 44
0.0000000001
 40
0.0
 40
0.0
 40
0.0
 40
0.0
 40
0.2881500792
 40
0.4243676591
 40
0.5531173285
 40
0.6738925104
 40
0.7872772036
 40
0.8951001995
 40
1.0
 40
1.0
 40
1.0
 40
1.0
 10
34.6697464149
 20
37.6154407772
 30
0.0
 10
34.6680401017
 20
37.5791307302
 30
0.0
 10
34.6585084701
 20
37.525498145
 30
0.0
 10
34.6312472865
 20
37.4610352182
 30
0.0
 10
34.6051607042
 20
37.4196580628
 30
0.0
 10
34.5738953698
 20
37.3858257427
 30
0.0
 10
34.5384272613
 20
37.3606453283
 30
0.0
 10
34.4999130012
 20
37.345105307
 30
0.0
 10
34.4729568893
 20
37.3415875
 30
0.0
 10
34.459723785
 20
37.3415875
 30
0.0
  0
SPLINE
  5
2C9
100
AcDbEntity
  8
0
100
AcDbSpline
 62
7
  6
BYLAYER
 70
0
 71
3
 72
9
 73
5
 74
0
 42
0.0000001
 43
0.0000001
 44
0.0000000001
 40
0.0
 40
0.0
 40
0.0
 40
0.0
 40
0.1954369503
 40
1.0
 40
1.0
 40
1.0
 40
1.0
 10
27.0785637272
 20
13.5494428092
 30
0.0
 10
27.0549226593
 20
13.4780583522
 30
0.0
 10
26.9377518845
 20
13.1116013182
 30
0.0
 10
26.8415054381
 20
12.738000954
 30
0.0
 10
26.7826913189
 20
12.4340713861
 30
0.0
  0
SPLINE
  5
2CA
100
AcDbEntity
  8
0
100
AcDbSpline
 62
7
  6
BYLAYER
 70
0
 71
3
 72
11
 73
7
 74
0
 42
0.0000001
 43
0.0000001
 44
0.0000000001
 40
0.0
 40
0.0
 40
0.0
 40
0.0
 40
0.2473979601
 40
0.4999916564
 40
0.7525893426
 40
1.0
 40
1.0
 40
1.0
 40
1.0
 10
26.7179154706
 20
12.043613707
 30
0.0
 10
26.697562064
 20
11.8958479839
 30
0.0
 10
26.6659944573
 20
11.5957917771
 30
0.0
 10
26.6497565425
 20
11.1419594247
 30
0.0
 10
26.6659409159
 20
10.6881171462
 30
0.0
 10
26.6974819028
 20
10.3880481462
 30
0.0
 10
26.717817365
 20
10.2402722249
 30
0.0
  0
SPLINE
  5
2CB
100
AcDbEntity
  8
0
100
AcDbSpline
 62
7
  6
BYLAYER
 70
0
 71
3
 72
9
 73
5
 74
0
 42
0.0000001
 43
0.0000001
 44
0.0000000001
 40
0.0
 40
0.0
 40
0.0
 40
0.0
 40
0.341606546
 40
1.0
 40
1.0
 40
1.0
 40
1.0
 10
26.7829639718
 20
9.8476939433
 30
0.0
 10
26.8126345008
 20
9.6945336733
 30
0.0
 10
26.9132648056
 20
9.2488086363
 30
0.0
 10
27.0488330955
 20
8.8118601391
 30
0.0
 10
27.1488244799
 20
8.5282926048
 30
0.0
  0
SPLINE
  5
2CC
100
AcDbEntity
  8
0
100
AcDbSpline
 62
7
  6
BYLAYER
 70
0
 71
3
 72
18
 73
14
 74
0
 42
0.0000001
 43
0.0000001
 44
0.0000000001
 40
0.0
 40
0.0
 40
0.0
 40
0.0
 40
0.0740854092
 40
0.1879171353
 40
0.3240646781
 40
0.3970050147
 40
0.4716962511
 40
0.5470864756
 40
0.6221261727
 40
0.6957654012
 40
0.766937552
 40
0.8970693744
 40
1.0
 40
1.0
 40
1.0
 40
1.0
 10
17.6055686786
 20
8.5282926048
 30
0.0
 10
17.647540473
 20
8.6475512787
 30
0.0
 10
17.7491332331
 20
8.9517893132
 30
0.0
 10
17.8997414646
 20
9.4842431265
 30
0.0
 10
18.0097108546
 20
10.0250891931
 30
0.0
 10
18.0704265348
 20
10.5057588042
 30
0.0
 10
18.0968235663
 20
10.8856568458
 30
0.0
 10
18.1006588773
 20
11.2700443533
 30
0.0
 10
18.0815890755
 20
11.6521723306
 30
0.0
 10
18.0413258871
 20
12.0253870393
 30
0.0
 10
17.9663087972
 20
12.4887313389
 30
0.0
 10
17.8484014304
 20
12.9950044634
 30
0.0
 10
17.7329588088
 20
13.3757955631
 30
0.0
 10
17.677946118
 20
13.5426127045
 30
0.0
  0
SPLINE
  5
2CD
100
AcDbEntity
  8
0
100
AcDbSpline
 62
7
  6
BYLAYER
 70
0
 71
3
 72
9
 73
5
 74
0
 42
0.0000001
 43
0.0000001
 44
0.0000000001
 40
0.0
 40
0.0
 40
0.0
 40
0.0
 40
0.2432887611
 40
1.0
 40
1.0
 40
1.0
 40
1.0
 10
15.5567027914
 20
54.1094501632
 30
0.0
 10
15.5491332741
 20
54.0909312393
 30
0.0
 10
15.5219748015
 20
54.0132288766
 30
0.0
 10
15.5101011758
 20
53.9303977465
 30
0.0
 10
15.5093322804
 20
53.8681763664
 30
0.0
  0
LINE
  5
2CE
100
AcDbEntity
  8
0
100
AcDbLine
 62
7
  6
BYLAYER
 10
15.9581754421
 20
55.0915875
 11
15.5567027914
 21
54.1094501632
  0
LINE
  5
2CF
100
AcDbEntity
  8
0
100
AcDbLine
 62
7
  6
BYLAYER
 10
15.6406295378
 20
58.2784115888
 11
15.2720882965
 21
55.3415875
  0
LINE
  5
2D0
100
AcDbEntity
  8
0
100
AcDbLine
 62
7
  6
BYLAYER
 10
29.4644662489
 20
55.3415875
 11
29.0959250075
 21
58.2784115888
  0
SPLINE
  5
2D1
100
AcDbEntity
  8
0
100
AcDbSpline
 62
7
  6
BYLAYER
 70
0
 71
3
 72
14
 73
10
 74
0
 42
0.0000001
 43
0.0000001
 44
0.0000000001
 40
0.0
 40
0.0
 40
0.0
 40
0.0
 40
0.1459743133
 40
0.2878226459
 40
0.5511457405
 40
0.6720835713
 40
0.7860158917
 40
0.8945864519
 40
1.0
 40
1.0
 40
1.0
 40
1.0
 10
29.0959250075
 20
58.2784115888
 30
0.0
 10
29.0923560544
 20
58.3068406263
 30
0.0
 10
29.0817693623
 20
58.3625502383
 30
0.0
 10
29.0478798868
 20
58.4654385848
 30
0.0
 10
28.9951865878
 20
58.5566291411
 30
0.0
 10
28.9254025975
 20
58.6258415346
 30
0.0
 10
28.8687406777
 20
58.663297278
 30
0.0
 10
28.8080588837
 20
58.686331745
 30
0.0
 10
28.7658929926
 20
58.6915875
 30
0.0
 10
28.7452021723
 20
58.6915875
 30
0.0
  0
SPLINE
  5
2D2
100
AcDbEntity
  8
0
100
AcDbSpline
 62
7
  6
BYLAYER
 70
0
 71
3
 72
14
 73
10
 74
0
 42
0.0000001
 43
0.0000001
 44
0.0000000001
 40
0.0
 40
0.0
 40
0.0
 40
0.0
 40
0.1054125424
 40
0.213981788
 40
0.3279146434
 40
0.4488539159
 40
0.7121798266
 40
0.8540268078
 40
1.0
 40
1.0
 40
1.0
 40
1.0
 10
15.99135295
 20
58.6915875
 30
0.0
 10
15.970662307
 20
58.6915875
 30
0.0
 10
15.9284967454
 20
58.6863324053
 30
0.0
 10
15.8678153143
 20
58.6632977283
 30
0.0
 10
15.8111529115
 20
58.6258424396
 30
0.0
 10
15.7413680181
 20
58.5566293694
 30
0.0
 10
15.6886747045
 20
58.4654380744
 30
0.0
 10
15.6547847478
 20
58.362549696
 30
0.0
 10
15.644198467
 20
58.3068404357
 30
0.0
 10
15.6406295378
 20
58.2784115888
 30
0.0
  0
SPLINE
  5
2D3
100
AcDbEntity
  8
0
100
AcDbSpline
 62
7
  6
BYLAYER
 70
0
 71
3
 72
9
 73
5
 74
0
 42
0.0000001
 43
0.0000001
 44
0.0000000001
 40
0.0
 40
0.0
 40
0.0
 40
0.0
 40
0.2429922929
 40
1.0
 40
1.0
 40
1.0
 40
1.0
 10
16.0129026964
 20
55.1929578255
 30
0.0
 10
16.0075484479
 20
55.1853025955
 30
0.0
 10
15.9864709486
 20
55.1531340251
 30
0.0
 10
15.9691883081
 20
55.1185266228
 30
0.0
 10
15.9581754421
 20
55.0915875
 30
0.0
  0
LINE
  5
2D4
100
AcDbEntity
  8
0
100
AcDbLine
 62
7
  6
BYLAYER
 10
16.6863018588
 20
55.3415875
 11
17.0548431002
 21
58.2784115888
  0
LINE
  5
2D5
100
AcDbEntity
  8
0
100
AcDbLine
 62
7
  6
BYLAYER
 10
27.6817114452
 20
58.2784115888
 11
28.0502526865
 21
55.3415875
  0
SPLINE
  5
2D6
100
AcDbEntity
  8
0
100
AcDbSpline
 62
7
  6
BYLAYER
 70
0
 71
3
 72
14
 73
10
 74
0
 42
0.0000001
 43
0.0000001
 44
0.0000000001
 40
0.0
 40
0.0
 40
0.0
 40
0.0
 40
0.1054125424
 40
0.213981788
 40
0.3279146434
 40
0.4488539159
 40
0.7121798266
 40
0.8540268078
 40
1.0
 40
1.0
 40
1.0
 40
1.0
 10
27.3309880329
 20
58.6915875
 30
0.0
 10
27.351678676
 20
58.6915875
 30
0.0
 10
27.3938442376
 20
58.6863324053
 30
0.0
 10
27.4545256687
 20
58.6632977283
 30
0.0
 10
27.5111880715
 20
58.6258424396
 30
0.0
 10
27.5809729649
 20
58.5566293694
 30
0.0
 10
27.6336662785
 20
58.4654380744
 30
0.0
 10
27.6675562352
 20
58.362549696
 30
0.0
 10
27.678142516
 20
58.3068404357
 30
0.0
 10
27.6817114452
 20
58.2784115888
 30
0.0
  0
LINE
  5
2D7
100
AcDbEntity
  8
0
100
AcDbLine
 62
7
  6
BYLAYER
 10
26.1438419754
 20
55.7547634112
 11
25.8250019982
 21
58.2784115888
  0
LINE
  5
2D8
100
AcDbEntity
  8
0
100
AcDbLine
 62
7
  6
BYLAYER
 10
18.9115525471
 20
58.2784115888
 11
18.5927125699
 21
55.7547634112
  0
SPLINE
  5
2D9
100
AcDbEntity
  8
0
100
AcDbSpline
 62
7
  6
BYLAYER
 70
0
 71
3
 72
14
 73
10
 74
0
 42
0.0000001
 43
0.0000001
 44
0.0000000001
 40
0.0
 40
0.0
 40
0.0
 40
0.0
 40
0.1054674622
 40
0.2140708251
 40
0.3279973723
 40
0.4488938536
 40
0.7121242169
 40
0.8539756277
 40
1.0
 40
1.0
 40
1.0
 40
1.0
 10
26.4959985535
 20
55.3415875
 30
0.0
 10
26.4752630787
 20
55.3415875
 30
0.0
 10
26.4330122505
 20
55.3468371916
 30
0.0
 10
26.3721874612
 20
55.3698267465
 30
0.0
 10
26.315349401
 20
55.4072070946
 30
0.0
 10
26.2452752847
 20
55.4763141001
 30
0.0
 10
26.192248026
 20
55.567489797
 30
0.0
 10
26.1581068125
 20
55.6704782077
 30
0.0
 10
26.1474372269
 20
55.7262802342
 30
0.0
 10
26.1438419754
 20
55.7547634112
 30
0.0
  0
SPLINE
  5
2DA
100
AcDbEntity
  8
0
100
AcDbSpline
 62
7
  6
BYLAYER
 70
0
 71
3
 72
14
 73
10
 74
0
 42
0.0000001
 43
0.0000001
 44
0.0000000001
 40
0.0
 40
0.0
 40
0.0
 40
0.0
 40
0.1460262252
 40
0.2878793373
 40
0.5511053122
 40
0.6719995827
 40
0.7859253904
 40
0.8945305476
 40
1.0
 40
1.0
 40
1.0
 40
1.0
 10
18.5927125699
 20
55.7547634112
 30
0.0
 10
18.5891172089
 20
55.7262793655
 30
0.0
 10
18.578446799
 20
55.670475754
 30
0.0
 10
18.5443051532
 20
55.567485634
 30
0.0
 10
18.4912760981
 20
55.4763097266
 30
0.0
 10
18.4212008136
 20
55.4072036581
 30
0.0
 10
18.3643616846
 20
55.3698228592
 30
0.0
 10
18.3035337567
 20
55.3468362823
 30
0.0
 10
18.261281519
 20
55.3415875
 30
0.0
 10
18.2405452836
 20
55.3415875
 30
0.0
  0
SPLINE
  5
2DB
100
AcDbEntity
  8
0
100
AcDbSpline
 62
7
  6
BYLAYER
 70
0
 71
3
 72
14
 73
10
 74
0
 42
0.0000001
 43
0.0000001
 44
0.0000000001
 40
0.0
 40
0.0
 40
0.0
 40
0.0
 40
0.1055197231
 40
0.2141301849
 40
0.3280178179
 40
0.4488553608
 40
0.7120244207
 40
0.8539081016
 40
1.0
 40
1.0
 40
1.0
 40
1.0
 10
19.2651868645
 20
58.6915875
 30
0.0
 10
19.2443997163
 20
58.6915875
 30
0.0
 10
19.2020545291
 20
58.68638668
 30
0.0
 10
19.1410387773
 20
58.663537298
 30
0.0
 10
19.0839706554
 20
58.6262937782
 30
0.0
 10
19.0135511262
 20
58.5572988477
 30
0.0
 10
18.9602171361
 20
58.4660570252
 30
0.0
 10
18.9258873084
 20
58.3628930587
 30
0.0
 10
18.9151634797
 20
58.306963938
 30
0.0
 10
18.9115525471
 20
58.2784115888
 30
0.0
  0
SPLINE
  5
2DC
100
AcDbEntity
  8
0
100
AcDbSpline
 62
7
  6
BYLAYER
 70
0
 71
3
 72
14
 73
10
 74
0
 42
0.0000001
 43
0.0000001
 44
0.0000000001
 40
0.0
 40
0.0
 40
0.0
 40
0.0
 40
0.1460950473
 40
0.2879823612
 40
0.5511452931
 40
0.6719795321
 40
0.7858656408
 40
0.8944779319
 40
1.0
 40
1.0
 40
1.0
 40
1.0
 10
25.8250019982
 20
58.2784115888
 30
0.0
 10
25.8213909166
 20
58.306965117
 30
0.0
 10
25.8106657486
 20
58.3628964803
 30
0.0
 10
25.7763356725
 20
58.4660627486
 30
0.0
 10
25.7229992321
 20
58.5573044994
 30
0.0
 10
25.6525787025
 20
58.6262978432
 30
0.0
 10
25.5955096653
 20
58.6635416667
 30
0.0
 10
25.5344905458
 20
58.6863875711
 30
0.0
 10
25.4921438142
 20
58.6915875
 30
0.0
 10
25.4713557937
 20
58.6915875
 30
0.0
  0
SPLINE
  5
2DD
100
AcDbEntity
  8
0
100
AcDbSpline
 62
7
  6
BYLAYER
 70
0
 71
3
 72
14
 73
10
 74
0
 42
0.0000001
 43
0.0000001
 44
0.0000000001
 40
0.0
 40
0.0
 40
0.0
 40
0.0
 40
0.1459743133
 40
0.2878226459
 40
0.5511457405
 40
0.6720835713
 40
0.7860158917
 40
0.8945864519
 40
1.0
 40
1.0
 40
1.0
 40
1.0
 10
17.0548431002
 20
58.2784115888
 30
0.0
 10
17.0584120533
 20
58.3068406263
 30
0.0
 10
17.0689987455
 20
58.3625502383
 30
0.0
 10
17.1028882209
 20
58.4654385848
 30
0.0
 10
17.1555815199
 20
58.5566291411
 30
0.0
 10
17.2253655102
 20
58.6258415346
 30
0.0
 10
17.2820274301
 20
58.663297278
 30
0.0
 10
17.342709224
 20
58.686331745
 30
0.0
 10
17.3848751152
 20
58.6915875
 30
0.0
 10
17.4055659354
 20
58.6915875
 30
0.0
  0
SPLINE
  5
2DE
100
AcDbEntity
  8
0
100
AcDbSpline
 62
7
  6
BYLAYER
 70
0
 71
3
 72
9
 73
5
 74
0
 42
0.0000001
 43
0.0000001
 44
0.0000000001
 40
0.0
 40
0.0
 40
0.0
 40
0.0
 40
0.4999999319
 40
1.0
 40
1.0
 40
1.0
 40
1.0
 10
15.3057959153
 20
55.1929578255
 30
0.0
 10
15.4233915633
 20
55.2018182155
 30
0.0
 10
15.6593492897
 20
55.2098050665
 30
0.0
 10
15.8953070164
 20
55.201818218
 30
0.0
 10
16.0129026964
 20
55.1929578255
 30
0.0
  0
SPLINE
  5
2DF
100
AcDbEntity
  8
0
100
AcDbSpline
 62
7
  6
BYLAYER
 70
0
 71
3
 72
9
 73
5
 74
0
 42
0.0000001
 43
0.0000001
 44
0.0000000001
 40
0.0
 40
0.0
 40
0.0
 40
0.0
 40
0.257125657
 40
1.0
 40
1.0
 40
1.0
 40
1.0
 10
15.2510686609
 20
55.0915875
 30
0.0
 10
15.2548091354
 20
55.100737262
 30
0.0
 10
15.2702629991
 20
55.1359390854
 30
0.0
 10
15.2894276514
 20
55.1695553213
 30
0.0
 10
15.3057959153
 20
55.1929578255
 30
0.0
  0
LINE
  5
2E0
100
AcDbEntity
  8
0
100
AcDbLine
 62
7
  6
BYLAYER
 10
14.8495960103
 20
54.1094501632
 11
15.2510686609
 21
55.0915875
  0
SPLINE
  5
2E1
100
AcDbEntity
  8
0
100
AcDbSpline
 62
7
  6
BYLAYER
 70
0
 71
3
 72
9
 73
5
 74
0
 42
0.0000001
 43
0.0000001
 44
0.0000000001
 40
0.0
 40
0.0
 40
0.0
 40
0.0
 40
0.2558967341
 40
1.0
 40
1.0
 40
1.0
 40
1.0
 10
14.8022254992
 20
53.8681763664
 30
0.0
 10
14.8024854877
 20
53.8892154335
 30
0.0
 10
14.807163452
 20
53.9713170668
 30
0.0
 10
14.8264470424
 20
54.0528159083
 30
0.0
 10
14.8495960103
 20
54.1094501632
 30
0.0
  0
SPLINE
  5
2E2
100
AcDbEntity
  8
0
100
AcDbSpline
 62
7
  6
BYLAYER
 70
0
 71
3
 72
15
 73
11
 74
0
 42
0.0000001
 43
0.0000001
 44
0.0000000001
 40
0.0
 40
0.0
 40
0.0
 40
0.0
 40
0.1441636513
 40
0.2797125485
 40
0.4076071185
 40
0.5290175663
 40
0.6456029327
 40
0.7599603176
 40
0.8761615852
 40
1.0
 40
1.0
 40
1.0
 40
1.0
 10
30.0070449538
 20
26.1533589324
 30
0.0
 10
29.9735507985
 20
26.1204578301
 30
0.0
 10
29.9011977653
 20
26.0637345149
 30
0.0
 10
29.781830904
 20
26.003973728
 30
0.0
 10
29.6607143787
 20
25.9691153849
 30
0.0
 10
29.54145147
 20
25.9573663078
 30
0.0
 10
29.4264379648
 20
25.9682419336
 30
0.0
 10
29.3177836479
 20
26.0028644344
 30
0.0
 10
29.2183311312
 20
26.0636979857
 30
0.0
 10
29.1636498499
 20
26.1210090158
 30
0.0
 10
29.1395651554
 20
26.1533589324
 30
0.0
  0
SPLINE
  5
2E3
100
AcDbEntity
  8
0
100
AcDbSpline
 62
7
  6
BYLAYER
 70
0
 71
3
 72
20
 73
16
 74
0
 42
0.0000001
 43
0.0000001
 44
0.0000000001
 40
0.0
 40
0.0
 40
0.0
 40
0.0
 40
0.0286101161
 40
0.0579847881
 40
0.087896603
 40
0.1181974007
 40
0.179582142
 40
0.2416542351
 40
0.3041558922
 40
0.3669416998
 40
0.493038759
 40
0.6195492198
 40
0.7462777185
 40
0.8731165295
 40
1.0
 40
1.0
 40
1.0
 40
1.0
 10
30.0070449538
 20
26.1533589324
 30
0.0
 10
30.0475459538
 20
26.193142815
 30
0.0
 10
30.1254428285
 20
26.278071115
 30
0.0
 10
30.233705263
 20
26.4149408495
 30
0.0
 10
30.3362636477
 20
26.5602345513
 30
0.0
 10
30.4669614882
 20
26.7631244793
 30
0.0
 10
30.6191787986
 20
27.0277585813
 30
0.0
 10
30.7885309108
 20
27.3556932275
 30
0.0
 10
30.9480252354
 20
27.6915909597
 30
0.0
 10
31.150338347
 20
28.1475986005
 30
0.0
 10
31.3866072431
 20
28.7272848832
 30
0.0
 10
31.6511922196
 20
29.4320488347
 30
0.0
 10
31.9014773816
 20
30.1435602824
 30
0.0
 10
32.1403093788
 20
30.8597576543
 30
0.0
 10
32.2931819717
 20
31.339474745
 30
0.0
 10
32.3682772727
 20
31.5797952653
 30
0.0
  0
SPLINE
  5
2E4
100
AcDbEntity
  8
0
100
AcDbSpline
 62
7
  6
BYLAYER
 70
0
 71
3
 72
20
 73
16
 74
0
 42
0.0000001
 43
0.0000001
 44
0.0000000001
 40
0.0
 40
0.0
 40
0.0
 40
0.0
 40
0.130044974
 40
0.2595213588
 40
0.3882740662
 40
0.5160613257
 40
0.6424786089
 40
0.7049683236
 40
0.7667899926
 40
0.8277143243
 40
0.8873733612
 40
0.916557216
 40
0.9451629961
 40
0.973041716
 40
1.0
 40
1.0
 40
1.0
 40
1.0
 10
28.3682772727
 20
31.5797952653
 30
0.0
 10
28.3682772727
 20
31.3399184624
 30
0.0
 10
28.3724665204
 20
30.8611995652
 30
0.0
 10
28.3930122172
 20
30.1452447507
 30
0.0
 10
28.4300618399
 20
29.4340940244
 30
0.0
 10
28.4869710346
 20
28.7298943443
 30
0.0
 10
28.555401466
 20
28.149534426
 30
0.0
 10
28.6274971689
 20
27.6926427357
 30
0.0
 10
28.6917307816
 20
27.3569718639
 30
0.0
 10
28.768806369
 20
27.0293486139
 30
0.0
 10
28.8473253236
 20
26.7642131819
 30
0.0
 10
28.9219930051
 20
26.5607649764
 30
0.0
 10
28.9844212287
 20
26.4154832919
 30
0.0
 10
29.0550288979
 20
26.2785627499
 30
0.0
 10
29.109869763
 20
26.1932449881
 30
0.0
 10
29.1395651554
 20
26.1533589324
 30
0.0
  0
SPLINE
  5
2E5
100
AcDbEntity
  8
0
100
AcDbSpline
 62
7
  6
BYLAYER
 70
0
 71
3
 72
20
 73
16
 74
0
 42
0.0000001
 43
0.0000001
 44
0.0000000001
 40
0.0
 40
0.0
 40
0.0
 40
0.0
 40
0.1268834263
 40
0.2537221911
 40
0.3804506438
 40
0.5069610578
 40
0.6330580669
 40
0.6958438485
 40
0.7583454694
 40
0.82041751
 40
0.8818022003
 40
0.9121030594
 40
0.9420148929
 40
0.9713897227
 40
1.0
 40
1.0
 40
1.0
 40
1.0
 10
12.3682772727
 20
31.5797952653
 30
0.0
 10
12.4433725478
 20
31.3394748277
 30
0.0
 10
12.596245087
 20
30.8597579064
 30
0.0
 10
12.8350769921
 20
30.1435607868
 30
0.0
 10
13.0853620135
 20
29.4320495785
 30
0.0
 10
13.3499469694
 20
28.7272859197
 30
0.0
 10
13.5862156504
 20
28.1475998128
 30
0.0
 10
13.7885285915
 20
27.6915923362
 30
0.0
 10
13.9480228013
 20
27.3556948049
 30
0.0
 10
14.1173745826
 20
27.0277602868
 30
0.0
 10
14.2695922182
 20
26.7631264784
 30
0.0
 10
14.4002896191
 20
26.5602362074
 30
0.0
 10
14.5028480356
 20
26.4149419352
 30
0.0
 10
14.6111111639
 20
26.2780718955
 30
0.0
 10
14.6890083633
 20
26.1931430392
 30
0.0
 10
14.7295095916
 20
26.1533589324
 30
0.0
  0
SPLINE
  5
2E6
100
AcDbEntity
  8
0
100
AcDbSpline
 62
7
  6
BYLAYER
 70
0
 71
3
 72
15
 73
11
 74
0
 42
0.0000001
 43
0.0000001
 44
0.0000000001
 40
0.0
 40
0.0
 40
0.0
 40
0.0
 40
0.1441631565
 40
0.2797128831
 40
0.4076072233
 40
0.5290175963
 40
0.6456027541
 40
0.7599601009
 40
0.8761622395
 40
1.0
 40
1.0
 40
1.0
 40
1.0
 10
14.7295095916
 20
26.1533589324
 30
0.0
 10
14.7630036324
 20
26.1204579425
 30
0.0
 10
14.8353567105
 20
26.0637345199
 30
0.0
 10
14.9547236041
 20
26.0039736754
 30
0.0
 10
15.0758403178
 20
25.9691153784
 30
0.0
 10
15.1951030601
 20
25.9573663105
 30
0.0
 10
15.3101164543
 20
25.96824193
 30
0.0
 10
15.4187710072
 20
26.0028643813
 30
0.0
 10
15.5182235132
 20
26.063698111
 30
0.0
 10
15.5729048224
 20
26.1210091862
 30
0.0
 10
15.5969893899
 20
26.1533589324
 30
0.0
  0
SPLINE
  5
2E7
100
AcDbEntity
  8
0
100
AcDbSpline
 62
7
  6
BYLAYER
 70
0
 71
3
 72
20
 73
16
 74
0
 42
0.0000001
 43
0.0000001
 44
0.0000000001
 40
0.0
 40
0.0
 40
0.0
 40
0.0
 40
0.0269581318
 40
0.0548367051
 40
0.083442462
 40
0.112626248
 40
0.1722853377
 40
0.2332097185
 40
0.295031421
 40
0.3575211592
 40
0.4839384878
 40
0.6117257957
 40
0.740478549
 40
0.8699549806
 40
1.0
 40
1.0
 40
1.0
 40
1.0
 10
15.5969893899
 20
26.1533589324
 30
0.0
 10
15.6266846145
 20
26.1932447626
 30
0.0
 10
15.6815253147
 20
26.2785619813
 30
0.0
 10
15.7521323573
 20
26.4154821789
 30
0.0
 10
15.8145607194
 20
26.5607633055
 30
0.0
 10
15.8892289548
 20
26.7642112421
 30
0.0
 10
15.9677474817
 20
27.0293468769
 30
0.0
 10
16.0448233803
 20
27.3569702938
 30
0.0
 10
16.1090570508
 20
27.6926413582
 30
0.0
 10
16.1811528824
 20
28.1495332139
 30
0.0
 10
16.2495834817
 20
28.7298933307
 30
0.0
 10
16.3064926148
 20
29.4340932711
 30
0.0
 10
16.3435423099
 20
30.1452442497
 30
0.0
 10
16.3640880231
 20
30.8611993152
 30
0.0
 10
16.3682772727
 20
31.3399183799
 30
0.0
 10
16.3682772727
 20
31.5797952653
 30
0.0
  0
ENDSEC
  0
SECTION
  2
OBJECTS
  0
DICTIONARY
  5
C
100
AcDbDictionary
280
0
281
1
  3
ACAD_GROUP
350
D
  3
ACAD_MLINESTYLE
350
17
  3
ACAD_LAYOUT
350
1A
  3
ACAD_PLOTSETTINGS
350
19
  3
ACAD_PLOTSTYLENAME
350
E
  0
DICTIONARY
  5
D
102
{ACAD_REACTORS
330
C
102
}
100
AcDbDictionary
280
0
281
1
  0
ACDBDICTIONARYWDFLT
  5
E
102
{ACAD_REACTORS
330
C
102
}
100
AcDbDictionary
281
1
  3
Normal
350
F
100
AcDbDictionaryWithDefault
340
F
  0
DICTIONARY
  5
17
102
{ACAD_REACTORS
330
C
102
}
100
AcDbDictionary
280
0
281
1
  3
Standard
350
18
  0
DICTIONARY
  5
19
102
{ACAD_REACTORS
330
C
102
}
100
AcDbDictionary
281
1
  0
DICTIONARY
  5
1A
102
{ACAD_REACTORS
330
C
102
}
100
AcDbDictionary
281
1
  3
Model
350
2E8
  3
Layout1
350
2E9
  0
ACDBPLACEHOLDER
  5
F
102
{ACAD_REACTORS
330
E
102
}
  0
MLINESTYLE
  5
18
102
{ACAD_REACTORS
330
17
102
}
100
AcDbMlineStyle
  2
STANDARD
 70
0
  3

 62
256
 51
90.0
 52
90.0
 71
2
 49
0.5
 62
256
  6
BYLAYER
 49
-0.5
 62
256
  6
BYLAYER
  0
LAYOUT
  5
2E8
102
{ACAD_REACTORS
330
1A
102
}
100
AcDbPlotSettings
  1

  2
none_device
  4

  6

 40
0.0
 41
0.0
 42
0.0
 43
0.0
 44
210.0
 45
297.0
 46
0.0
 47
0.0
 48
0.0
 49
0.0
140
0.0
141
0.0
142
1.0
143
1.0
 70
1024
 72
1
 73
0
 74
0
  7

 75
0
147
1.0
148
0.0
149
0.0
100
AcDbLayout
  1
Model
 70
0
 71
0
 10
0.0
 20
0.0
 11
210.0
 21
297.0
 12
0.0
 22
0.0
 32
0.0
 14
0.0
 24
0.0
 34
0.0
 15
0.0
 25
0.0
 35
0.0
146
0.0
 13
0.0
 23
0.0
 33
0.0
 16
1.0
 26
0.0
 36
0.0
 17
0.0
 27
1.0
 37
0.0
 76
0
330
210
345
0
346
0
  0
LAYOUT
  5
2E9
102
{ACAD_REACTORS
330
1A
102
}
100
AcDbPlotSettings
  1

  2
none_device
  4

  6

 40
0.0
 41
0.0
 42
0.0
 43
0.0
 44
210.0
 45
297.0
 46
0.0
 47
0.0
 48
0.0
 49
0.0
140
0.0
141
0.0
142
1.0
143
1.0
 70
0
 72
1
 73
0
 74
0
  7

 75
0
147
1.0
148
0.0
149
0.0
100
AcDbLayout
  1
Layout1
 70
0
 71
1
 10
0.0
 20
0.0
 11
210.0
 21
297.0
 12
0.0
 22
0.0
 32
0.0
 14
0.0
 24
0.0
 34
0.0
 15
0.0
 25
0.0
 35
0.0
146
0.0
 13
0.0
 23
0.0
 33
0.0
 16
1.0
 26
0.0
 36
0.0
 17
0.0
 27
1.0
 37
0.0
 76
0
330
211
345
0
346
0
  0
ENDSEC
  0
EOF
