999
DXF file: C:\Users\sesa63760\Dev\_Creo\CAD\MCADID0004323_3D-CAD\drw0001_3.dxf
999
Pro/ENGINEER 2019471 by Parametric Technology Corporation
  0
SECTION
  2
HEADER
  9
$ACADVER
  1
AC1024
  9
$DWGCODEPAGE
  3
ANSI_1252
  9
$EXTMAX
 10
80.7932801723
 20
114.264781958
 30
0.0
  9
$EXTMIN
 10
0.0
 20
0.0
 30
0.0
  9
$LIMMIN
 10
0.0
 20
0.0
  9
$LIMMAX
 10
80.7932801723
 20
114.264781958
  9
$VIEWCTR
 10
40.3966400862
 20
57.132390979
  9
$VIEWSIZE
 40
114.264781958
  9
$CLAYER
  8
0
  9
$LTSCALE
 40
7.4483709721
  9
$CELTYPE
  6
BYLAYER
  9
$DIMSCALE
 40
1.0
  9
$DIMASZ
 40
0.961824764
  9
$DIMEXO
 40
1.0
  9
$DIMDLI
 40
5.1461472171
  9
$DIMEXE
 40
1.0
  9
$DIMCEN
 40
1.2188243409
  9
$DIMLFAC
 40
1.0
  9
$DIMBLK
  1
_FILLED
  9
$DIMALT
 70
0
  9
$DIMALTF
 40
0.0393700787
  9
$DIMTXT
 40
1.3465546695
  9
$DIMTOL
 70
1
  9
$DIMLIM
 70
0
  9
$DIMTFAC
 40
1.0
  9
$DIMTP
 40
0.01
  9
$DIMTM
 40
0.01
  9
$DIMGAP
 40
0.625
  9
$DIMDSEP
 70
46
  9
$AUNITS
 70
0
  9
$PDMODE
 70
3
  9
$PDSIZE
 40
0.3125
  9
$HANDSEED
  5
293
  9
$TILEMODE
 70
1
  9
$MEASUREMENT
 70
1
  9
$INSUNITS
 70
4
  0
ENDSEC
  0
SECTION
  2
CLASSES
  0
CLASS
  1
ACDBDICTIONARYWDFLT
  2
AcDbDictionaryWithDefault
  3
AutoCAD 2000
 90
0
 91
1
280
0
281
0
  0
CLASS
  1
ACDBPLACEHOLDER
  2
AcDbPlaceHolder
  3
AutoCAD 2000
 90
0
 91
1
280
0
281
0
  0
CLASS
  1
LAYOUT
  2
AcDbLayout
  3
AutoCAD 2000
 90
0
 91
0
280
0
281
0
  0
ENDSEC
  0
SECTION
  2
TABLES
  0
TABLE
  2
VPORT
  5
8
100
AcDbSymbolTable
 70
2
  0
VPORT
  5
1F4
100
AcDbSymbolTableRecord
100
AcDbViewportTableRecord
  2
*ACTIVE
 70
0
 10
0.0
 20
0.0
 11
1.0
 21
1.0
 12
40.3966400862
 22
57.132390979
 13
0.0
 23
0.0
 14
1.0
 24
1.0
 15
0.0
 25
0.0
 16
0.0
 26
0.0
 36
1.0
 17
0.0
 27
0.0
 37
0.0
 40
114.264781958
 41
0.7070707071
 42
50.0
 43
0.0
 44
0.0
 50
0.0
 51
0.0
 71
0
 72
100
 73
1
 74
1
 75
0
 76
0
 77
0
 78
0
  0
ENDTAB
  0
TABLE
  2
LTYPE
  5
5
100
AcDbSymbolTable
 70
6
  0
LTYPE
  5
14
100
AcDbSymbolTableRecord
100
AcDbLinetypeTableRecord
  2
BYBLOCK
 70
0
  3

 72
65
 73
0
 40
0.0
  0
LTYPE
  5
15
100
AcDbSymbolTableRecord
100
AcDbLinetypeTableRecord
  2
BYLAYER
 70
0
  3

 72
65
 73
0
 40
0.0
  0
LTYPE
  5
16
100
AcDbSymbolTableRecord
100
AcDbLinetypeTableRecord
  2
CONTINUOUS
 70
64
  3
Solid line
 72
65
 73
0
 40
0.0
  0
LTYPE
  5
1F5
100
AcDbSymbolTableRecord
100
AcDbLinetypeTableRecord
  2
CENTER
 70
64
  3
____ _ ____ _ ____ _ ____ _ ____ _ ____ _ ____
 72
65
 73
4
 40
0.6
 49
0.375
 74
0
 49
-0.075
 74
0
 49
0.075
 74
0
 49
-0.075
 74
0
  0
LTYPE
  5
1F6
100
AcDbSymbolTableRecord
100
AcDbLinetypeTableRecord
  2
HIDDEN
 70
64
  3
- - - - - - - - - - - - - - - - - - - -
 72
65
 73
2
 40
0.2
 49
0.1
 74
0
 49
-0.1
 74
0
  0
LTYPE
  5
1F7
100
AcDbSymbolTableRecord
100
AcDbLinetypeTableRecord
  2
PHANTOM
 70
64
  3
_____ _ _ _____ _ _ _____ _ _ _____
 72
65
 73
6
 40
0.8
 49
0.45
 74
0
 49
-0.05
 74
0
 49
0.1
 74
0
 49
-0.05
 74
0
 49
0.1
 74
0
 49
-0.05
 74
0
  0
LTYPE
  5
1F8
100
AcDbSymbolTableRecord
100
AcDbLinetypeTableRecord
  2
DOT
 70
64
  3
. . . . . . . . . . . . . . . . . . . .
 72
65
 73
2
 40
0.2
 49
0.1
 74
0
 49
-0.1
 74
0
  0
LTYPE
  5
1F9
100
AcDbSymbolTableRecord
100
AcDbLinetypeTableRecord
  2
DASHED
 70
64
  3
- - - - - - - - - - - - - - - - - - - -
 72
65
 73
2
 40
0.2
 49
0.1
 74
0
 49
-0.1
 74
0
  0
ENDTAB
  0
TABLE
  2
LAYER
  5
2
100
AcDbSymbolTable
 70
36
  0
LAYER
  5
10
100
AcDbSymbolTableRecord
100
AcDbLayerTableRecord
  2
0
 70
0
 62
7
  6
CONTINUOUS
370
-3
390
F
  0
LAYER
  5
1FA
100
AcDbSymbolTableRecord
100
AcDbLayerTableRecord
  2
DEFAULT_1
 70
0
 62
7
  6
CENTER
370
-3
390
F
  0
LAYER
  5
1FB
100
AcDbSymbolTableRecord
100
AcDbLayerTableRecord
  2
DEFAULT_2
 70
0
 62
7
  6
HIDDEN
370
-3
390
F
  0
LAYER
  5
1FC
100
AcDbSymbolTableRecord
100
AcDbLayerTableRecord
  2
DEFAULT_3
 70
0
 62
7
  6
PHANTOM
370
-3
390
F
  0
LAYER
  5
1FD
100
AcDbSymbolTableRecord
100
AcDbLayerTableRecord
  2
00_COMPONENTS
 70
0
 62
7
  6
CONTINUOUS
370
-3
390
F
  0
LAYER
  5
1FE
100
AcDbSymbolTableRecord
100
AcDbLayerTableRecord
  2
01_1_DEFAULT_DATUMS
 70
0
 62
7
  6
CONTINUOUS
370
-3
390
F
  0
LAYER
  5
1FF
100
AcDbSymbolTableRecord
100
AcDbLayerTableRecord
  2
01_PLANES
 70
0
 62
7
  6
CONTINUOUS
370
-3
390
F
  0
LAYER
  5
200
100
AcDbSymbolTableRecord
100
AcDbLayerTableRecord
  2
02_COORD_SYS
 70
0
 62
7
  6
CONTINUOUS
370
-3
390
F
  0
LAYER
  5
201
100
AcDbSymbolTableRecord
100
AcDbLayerTableRecord
  2
03_AXES
 70
0
 62
7
  6
CONTINUOUS
370
-3
390
F
  0
LAYER
  5
202
100
AcDbSymbolTableRecord
100
AcDbLayerTableRecord
  2
04_POINTS
 70
0
 62
7
  6
CONTINUOUS
370
-3
390
F
  0
LAYER
  5
203
100
AcDbSymbolTableRecord
100
AcDbLayerTableRecord
  2
05_CURVES
 70
0
 62
7
  6
CONTINUOUS
370
-3
390
F
  0
LAYER
  5
204
100
AcDbSymbolTableRecord
100
AcDbLayerTableRecord
  2
06_SURFS
 70
0
 62
7
  6
CONTINUOUS
370
-3
390
F
  0
LAYER
  5
205
100
AcDbSymbolTableRecord
100
AcDbLayerTableRecord
  2
07_COSMETICS
 70
0
 62
7
  6
CONTINUOUS
370
-3
390
F
  0
LAYER
  5
206
100
AcDbSymbolTableRecord
100
AcDbLayerTableRecord
  2
10_NOTES
 70
0
 62
7
  6
CONTINUOUS
370
-3
390
F
  0
LAYER
  5
207
100
AcDbSymbolTableRecord
100
AcDbLayerTableRecord
  2
11_NOTES_PUB
 70
0
 62
7
  6
CONTINUOUS
370
-3
390
F
  0
LAYER
  5
208
100
AcDbSymbolTableRecord
100
AcDbLayerTableRecord
  2
13_REF_GTOL
 70
0
 62
7
  6
CONTINUOUS
370
-3
390
F
  0
LAYER
  5
209
100
AcDbSymbolTableRecord
100
AcDbLayerTableRecord
  2
16_MISC
 70
0
 62
7
  6
CONTINUOUS
370
-3
390
F
  0
LAYER
  5
20A
100
AcDbSymbolTableRecord
100
AcDbLayerTableRecord
  2
17_NO_PRINT
 70
0
 62
7
  6
CONTINUOUS
370
-3
390
F
  0
LAYER
  5
20B
100
AcDbSymbolTableRecord
100
AcDbLayerTableRecord
  2
18_DATUM_CAMS_JOINTS
 70
0
 62
7
  6
CONTINUOUS
370
-3
390
F
  0
LAYER
  5
20C
100
AcDbSymbolTableRecord
100
AcDbLayerTableRecord
  2
19_DATUM_FUNCTIONAL
 70
0
 62
7
  6
CONTINUOUS
370
-3
390
F
  0
LAYER
  5
20D
100
AcDbSymbolTableRecord
100
AcDbLayerTableRecord
  2
20_DATUM_KINEMATIC_SCHEME
 70
0
 62
7
  6
CONTINUOUS
370
-3
390
F
  0
LAYER
  5
20E
100
AcDbSymbolTableRecord
100
AcDbLayerTableRecord
  2
_1
 70
0
 62
7
  6
CONTINUOUS
370
-3
390
F
  0
ENDTAB
  0
TABLE
  2
STYLE
  5
3
100
AcDbSymbolTable
 70
1
  0
STYLE
  5
11
100
AcDbSymbolTableRecord
100
AcDbTextStyleTableRecord
  2
STANDARD
 70
0
 40
0.0
 41
1.0
 50
0.0
 71
0
 42
0.2
  3
ARIAL.TTF
  4

  0
STYLE
  5
20F
100
AcDbSymbolTableRecord
100
AcDbTextStyleTableRecord
  2
TEXTSTYLE_1
 70
0
 40
0.0
 41
0.8
 50
0.0
 71
0
 42
0.2
  3
gdt
  4

  0
ENDTAB
  0
TABLE
  2
VIEW
  5
6
100
AcDbSymbolTable
 70
0
  0
ENDTAB
  0
TABLE
  2
UCS
  5
7
100
AcDbSymbolTable
 70
0
  0
ENDTAB
  0
TABLE
  2
APPID
  5
9
100
AcDbSymbolTable
 70
1
  0
APPID
  5
210
100
AcDbSymbolTableRecord
100
AcDbRegAppTableRecord
  2
ACAD
 70
0
  0
ENDTAB
  0
TABLE
  2
BLOCK_RECORD
  5
1
100
AcDbSymbolTable
 70
0
  0
BLOCK_RECORD
  5
211
100
AcDbSymbolTableRecord
100
AcDbBlockTableRecord
  2
*Model_Space
  0
BLOCK_RECORD
  5
212
100
AcDbSymbolTableRecord
100
AcDbBlockTableRecord
  2
*Paper_Space
  0
BLOCK_RECORD
  5
213
100
AcDbSymbolTableRecord
100
AcDbBlockTableRecord
  2
_FILLED
  0
ENDTAB
  0
TABLE
  2
DIMSTYLE
  5
A
100
AcDbSymbolTable
 70
1
100
AcDbDimStyleTable
 71
0
  0
DIMSTYLE
105
214
100
AcDbSymbolTableRecord
100
AcDbDimStyleTableRecord
  2
STANDARD
 70
0
  3

  4

 40
1.0
 41
0.961824764
 42
1.0
 43
0.38
 44
1.0
 45
0.0
 46
0.0
 47
0.01
 48
0.01
140
1.3465546695
141
0.09
142
0.0
143
25.4
144
1.0
145
0.0
146
1.0
147
0.625
 71
1
 72
0
 73
0
 74
0
 75
0
 76
0
 77
1
 78
8
 79
2
170
0
171
1
172
0
173
0
174
0
175
0
176
0
177
0
178
0
270
2
179
2
271
2
272
2
273
2
274
2
275
0
280
0
281
0
282
0
283
1
284
8
285
0
286
0
287
3
288
0
340
11
278
46
341
213
342
213
343
213
344
213
  0
ENDTAB
  0
ENDSEC
  0
SECTION
  2
BLOCKS
  0
BLOCK
  5
20
100
AcDbEntity
  8
0
100
AcDbBlockBegin
  2
*Model_Space
 70
0
 10
0.0
 20
0.0
 30
0.0
  3
*Model_Space
  1

  0
ENDBLK
  5
21
100
AcDbEntity
  8
0
100
AcDbBlockEnd
  0
BLOCK
  5
1C
100
AcDbEntity
  8
0
100
AcDbBlockBegin
  2
*Paper_Space
 70
0
 10
0.0
 20
0.0
 30
0.0
  3
*Paper_Space
  1

  0
ENDBLK
  5
1D
100
AcDbEntity
  8
0
100
AcDbBlockEnd
  0
BLOCK
  5
215
100
AcDbEntity
  8
0
100
AcDbBlockBegin
  2
_FILLED
 70
64
 10
0.0
 20
0.0
  3
_FILLED
  1

  0
SOLID
  5
216
100
AcDbEntity
  8
0
  6
BYBLOCK
 62
0
100
AcDbTrace
 10
0.0
 20
0.0
 11
-1.0
 21
0.25
 12
-1.0
 22
-0.25
 13
-1.0
 23
-0.25
  0
ENDBLK
  5
217
100
AcDbEntity
  8
0
  6
BYBLOCK
 62
0
100
AcDbBlockEnd
  0
ENDSEC
  0
SECTION
  2
ENTITIES
  0
LINE
  5
218
100
AcDbEntity
  8
_1
100
AcDbLine
 62
7
  6
BYLAYER
 10
9.9949426776
 20
52.8859409494
 11
9.7577362652
 21
57.4121089275
  0
LINE
  5
219
100
AcDbEntity
  8
_1
100
AcDbLine
 62
7
  6
BYLAYER
 10
10.4570510326
 20
53.59588159
 11
10.494257445
 21
52.8859409494
  0
LINE
  5
21A
100
AcDbEntity
  8
_1
100
AcDbLine
 62
7
  6
BYLAYER
 10
9.5577362652
 20
56.3284396152
 11
9.5577362652
 21
58.4957782399
  0
LINE
  5
21B
100
AcDbEntity
  8
_1
100
AcDbLine
 62
7
  6
BYLAYER
 10
9.7577362652
 20
56.0759190364
 11
9.7577362652
 21
58.7482988186
  0
LINE
  5
21C
100
AcDbEntity
  8
_1
100
AcDbLine
 62
7
  6
BYLAYER
 10
10.2577362652
 20
54.34588159
 11
10.2577362652
 21
60.34588159
  0
LINE
  5
21D
100
AcDbEntity
  8
_1
100
AcDbLine
 62
7
  6
BYLAYER
 10
10.494257445
 20
52.4121089275
 11
10.494257445
 21
52.8859409494
  0
LINE
  5
21E
100
AcDbEntity
  8
_1
100
AcDbLine
 62
7
  6
BYLAYER
 10
10.494257445
 20
61.9382769056
 11
10.494257445
 21
62.4121089275
  0
LINE
  5
21F
100
AcDbEntity
  8
_1
100
AcDbLine
 62
7
  6
BYLAYER
 10
9.7577362652
 20
57.4121089275
 11
9.9949426776
 21
61.9382769056
  0
LINE
  5
220
100
AcDbEntity
  8
_1
100
AcDbLine
 62
7
  6
BYLAYER
 10
10.494257445
 20
61.9382769056
 11
10.4570510326
 21
61.228336265
  0
LINE
  5
221
100
AcDbEntity
  8
_1
100
AcDbLine
 62
7
  6
BYLAYER
 10
71.9077362652
 20
53.9621089275
 11
73.3077362652
 21
54.1121089275
  0
LINE
  5
222
100
AcDbEntity
  8
_1
100
AcDbLine
 62
7
  6
BYLAYER
 10
66.4181027152
 20
52.6105226762
 11
67.0077362652
 21
52.6621089275
  0
LINE
  5
223
100
AcDbEntity
  8
_1
100
AcDbLine
 62
7
  6
BYLAYER
 10
10.494257445
 20
52.4121089275
 11
66.0212150854
 21
52.4121089275
  0
LINE
  5
224
100
AcDbEntity
  8
_1
100
AcDbLine
 62
7
  6
BYLAYER
 10
66.5205298528
 20
52.8859409494
 11
10.494257445
 21
52.8859409494
  0
LINE
  5
225
100
AcDbEntity
  8
_1
100
AcDbLine
 62
7
  6
BYLAYER
 10
68.7527362652
 20
53.4121089275
 11
68.7627362652
 21
53.4121089275
  0
LINE
  5
226
100
AcDbEntity
  8
_1
100
AcDbLine
 62
7
  6
BYLAYER
 10
69.7527362652
 20
53.4121089275
 11
69.7627362652
 21
53.4121089275
  0
LINE
  5
227
100
AcDbEntity
  8
_1
100
AcDbLine
 62
7
  6
BYLAYER
 10
60.7577362652
 20
53.59588159
 11
10.4570510326
 21
53.59588159
  0
LINE
  5
228
100
AcDbEntity
  8
_1
100
AcDbLine
 62
7
  6
BYLAYER
 10
60.2577362652
 20
53.84588159
 11
10.7577362652
 21
53.84588159
  0
LINE
  5
229
100
AcDbEntity
  8
_1
100
AcDbLine
 62
7
  6
BYLAYER
 10
67.0077362652
 20
53.9621089275
 11
68.0077362652
 21
53.9621089275
  0
LINE
  5
22A
100
AcDbEntity
  8
_1
100
AcDbLine
 62
7
  6
BYLAYER
 10
71.5077362652
 20
53.9621089275
 11
71.9077362652
 21
53.9621089275
  0
LINE
  5
22B
100
AcDbEntity
  8
_1
100
AcDbLine
 62
7
  6
BYLAYER
 10
70.7077362652
 20
54.1121089275
 11
71.5077362652
 21
54.1121089275
  0
LINE
  5
22C
100
AcDbEntity
  8
_1
100
AcDbLine
 62
7
  6
BYLAYER
 10
9.8277630101
 20
56.0759190364
 11
9.7577362652
 21
56.0759190364
  0
LINE
  5
22D
100
AcDbEntity
  8
_1
100
AcDbLine
 62
7
  6
BYLAYER
 10
66.7577362652
 20
57.4121089275
 11
60.7577362652
 21
57.4121089275
  0
LINE
  5
22E
100
AcDbEntity
  8
_1
100
AcDbLine
 62
7
  6
BYLAYER
 10
9.7577362652
 20
57.4121089275
 11
9.8572574053
 21
57.4121089275
  0
LINE
  5
22F
100
AcDbEntity
  8
_1
100
AcDbLine
 62
7
  6
BYLAYER
 10
9.82776301
 20
58.7482988186
 11
9.7577362652
 21
58.7482988186
  0
LINE
  5
230
100
AcDbEntity
  8
_1
100
AcDbLine
 62
7
  6
BYLAYER
 10
70.7077362652
 20
60.7121089275
 11
71.5077362652
 21
60.7121089275
  0
LINE
  5
231
100
AcDbEntity
  8
_1
100
AcDbLine
 62
7
  6
BYLAYER
 10
10.7577362652
 20
60.84588159
 11
60.2577362652
 21
60.84588159
  0
LINE
  5
232
100
AcDbEntity
  8
_1
100
AcDbLine
 62
7
  6
BYLAYER
 10
67.0077362652
 20
60.8621089275
 11
68.0077362652
 21
60.8621089275
  0
LINE
  5
233
100
AcDbEntity
  8
_1
100
AcDbLine
 62
7
  6
BYLAYER
 10
71.5077362652
 20
60.8621089275
 11
71.9077362652
 21
60.8621089275
  0
LINE
  5
234
100
AcDbEntity
  8
_1
100
AcDbLine
 62
7
  6
BYLAYER
 10
60.7577362652
 20
61.228336265
 11
10.4570510326
 21
61.228336265
  0
LINE
  5
235
100
AcDbEntity
  8
_1
100
AcDbLine
 62
7
  6
BYLAYER
 10
68.2527362652
 20
61.4121089275
 11
68.2627362652
 21
61.4121089275
  0
LINE
  5
236
100
AcDbEntity
  8
_1
100
AcDbLine
 62
7
  6
BYLAYER
 10
69.2527362652
 20
61.4121089275
 11
69.2627362652
 21
61.4121089275
  0
LINE
  5
237
100
AcDbEntity
  8
_1
100
AcDbLine
 62
7
  6
BYLAYER
 10
70.2527362652
 20
61.4121089275
 11
70.2627362652
 21
61.4121089275
  0
LINE
  5
238
100
AcDbEntity
  8
_1
100
AcDbLine
 62
7
  6
BYLAYER
 10
10.494257445
 20
61.9382769056
 11
66.5205298528
 21
61.9382769056
  0
LINE
  5
239
100
AcDbEntity
  8
_1
100
AcDbLine
 62
7
  6
BYLAYER
 10
10.494257445
 20
62.4121089275
 11
66.0212150854
 21
62.4121089275
  0
LINE
  5
23A
100
AcDbEntity
  8
_1
100
AcDbLine
 62
7
  6
BYLAYER
 10
71.9077362652
 20
60.8621089275
 11
73.3077362652
 21
60.7121089275
  0
LINE
  5
23B
100
AcDbEntity
  8
_1
100
AcDbLine
 62
7
  6
BYLAYER
 10
68.2457180254
 20
61.4085883188
 11
68.2527362652
 21
61.4121089275
  0
LINE
  5
23C
100
AcDbEntity
  8
_1
100
AcDbLine
 62
7
  6
BYLAYER
 10
69.2457141083
 20
61.408588326
 11
69.2527362652
 21
61.4121089275
  0
LINE
  5
23D
100
AcDbEntity
  8
_1
100
AcDbLine
 62
7
  6
BYLAYER
 10
66.4181027152
 20
62.2136951788
 11
67.0077362652
 21
62.1621089275
  0
LINE
  5
23E
100
AcDbEntity
  8
_1
100
AcDbLine
 62
7
  6
BYLAYER
 10
68.7457141083
 20
53.415629529
 11
68.7527362652
 21
53.4121089275
  0
LINE
  5
23F
100
AcDbEntity
  8
_1
100
AcDbLine
 62
7
  6
BYLAYER
 10
70.2457141083
 20
61.408588326
 11
70.2527362652
 21
61.4121089275
  0
LINE
  5
240
100
AcDbEntity
  8
_1
100
AcDbLine
 62
7
  6
BYLAYER
 10
69.7457141083
 20
53.415629529
 11
69.7527362652
 21
53.4121089275
  0
LINE
  5
241
100
AcDbEntity
  8
_1
100
AcDbLine
 62
7
  6
BYLAYER
 10
68.2457539151
 20
61.408588256
 11
68.0077362652
 21
61.1683921245
  0
LINE
  5
242
100
AcDbEntity
  8
_1
100
AcDbLine
 62
7
  6
BYLAYER
 10
69.2457539158
 20
61.4085882563
 11
68.7576647919
 21
60.9160654129
  0
LINE
  5
243
100
AcDbEntity
  8
_1
100
AcDbLine
 62
7
  6
BYLAYER
 10
68.7697584224
 20
53.4156295293
 11
68.7627362652
 21
53.4121089275
  0
LINE
  5
244
100
AcDbEntity
  8
_1
100
AcDbLine
 62
7
  6
BYLAYER
 10
69.7697584224
 20
53.4156295293
 11
69.7627362652
 21
53.4121089275
  0
LINE
  5
245
100
AcDbEntity
  8
_1
100
AcDbLine
 62
7
  6
BYLAYER
 10
68.2697584224
 20
61.4085883257
 11
68.2627362652
 21
61.4121089275
  0
LINE
  5
246
100
AcDbEntity
  8
_1
100
AcDbLine
 62
7
  6
BYLAYER
 10
69.2697584224
 20
61.4085883257
 11
69.2627362652
 21
61.4121089275
  0
LINE
  5
247
100
AcDbEntity
  8
_1
100
AcDbLine
 62
7
  6
BYLAYER
 10
70.2697583335
 20
61.4085883255
 11
70.2627362652
 21
61.4121089275
  0
LINE
  5
248
100
AcDbEntity
  8
_1
100
AcDbLine
 62
7
  6
BYLAYER
 10
68.2497463002
 20
53.9161420874
 11
68.7457539158
 21
53.4156295987
  0
LINE
  5
249
100
AcDbEntity
  8
_1
100
AcDbLine
 62
7
  6
BYLAYER
 10
69.2497462999
 20
53.9161420877
 11
69.7457539158
 21
53.4156295987
  0
LINE
  5
24A
100
AcDbEntity
  8
_1
100
AcDbLine
 62
7
  6
BYLAYER
 10
60.7577362652
 20
53.59588159
 11
60.7577362652
 21
61.228336265
  0
LINE
  5
24B
100
AcDbEntity
  8
_1
100
AcDbLine
 62
7
  6
BYLAYER
 10
70.2457539158
 20
61.4085882563
 11
69.7576647919
 21
60.9160654129
  0
LINE
  5
24C
100
AcDbEntity
  8
_1
100
AcDbLine
 62
7
  6
BYLAYER
 10
70.2497462999
 20
53.9161420877
 11
70.7077362652
 21
53.4539970424
  0
LINE
  5
24D
100
AcDbEntity
  8
_1
100
AcDbLine
 62
7
  6
BYLAYER
 10
61.7577362652
 20
62.4121089275
 11
61.7577362652
 21
52.4121089275
  0
LINE
  5
24E
100
AcDbEntity
  8
_1
100
AcDbLine
 62
7
  6
BYLAYER
 10
68.0077362652
 20
53.6558257313
 11
68.2578077347
 21
53.9081524422
  0
LINE
  5
24F
100
AcDbEntity
  8
_1
100
AcDbLine
 62
7
  6
BYLAYER
 10
68.7657262301
 20
60.9080757677
 11
68.2697186149
 21
61.408588256
  0
LINE
  5
250
100
AcDbEntity
  8
_1
100
AcDbLine
 62
7
  6
BYLAYER
 10
68.7697186149
 20
53.415629599
 11
69.2578077348
 21
53.9081524421
  0
LINE
  5
251
100
AcDbEntity
  8
_1
100
AcDbLine
 62
7
  6
BYLAYER
 10
69.7697186149
 20
53.415629599
 11
70.2578077348
 21
53.9081524421
  0
LINE
  5
252
100
AcDbEntity
  8
_1
100
AcDbLine
 62
7
  6
BYLAYER
 10
69.7657262301
 20
60.9080757677
 11
69.2697186149
 21
61.408588256
  0
LINE
  5
253
100
AcDbEntity
  8
_1
100
AcDbLine
 62
7
  6
BYLAYER
 10
70.7077362652
 20
60.9665850972
 11
70.2697186149
 21
61.408588256
  0
LINE
  5
254
100
AcDbEntity
  8
_1
100
AcDbLine
 62
7
  6
BYLAYER
 10
66.7577362652
 20
57.4121089275
 11
66.5205298528
 21
61.9382769056
  0
LINE
  5
255
100
AcDbEntity
  8
_1
100
AcDbLine
 62
7
  6
BYLAYER
 10
67.0077362652
 20
62.1621089275
 11
67.0077362652
 21
52.6621089275
  0
LINE
  5
256
100
AcDbEntity
  8
_1
100
AcDbLine
 62
7
  6
BYLAYER
 10
66.7577362652
 20
57.4121089275
 11
66.5205298528
 21
52.8859409494
  0
LINE
  5
257
100
AcDbEntity
  8
_1
100
AcDbLine
 62
7
  6
BYLAYER
 10
68.0077362652
 20
61.1683463982
 11
68.0077362652
 21
53.6558581123
  0
LINE
  5
258
100
AcDbEntity
  8
_1
100
AcDbLine
 62
7
  6
BYLAYER
 10
70.7077362652
 20
60.9663732898
 11
70.7077362652
 21
53.453880709
  0
LINE
  5
259
100
AcDbEntity
  8
_1
100
AcDbLine
 62
7
  6
BYLAYER
 10
71.5077362652
 20
53.9621089275
 11
71.5077362652
 21
60.8621089275
  0
LINE
  5
25A
100
AcDbEntity
  8
_1
100
AcDbLine
 62
7
  6
BYLAYER
 10
71.9077362652
 20
60.8621089275
 11
71.9077362652
 21
53.9621089275
  0
LINE
  5
25B
100
AcDbEntity
  8
_1
100
AcDbLine
 62
7
  6
BYLAYER
 10
73.3077362652
 20
60.7121089275
 11
73.3077362652
 21
54.1121089275
  0
LINE
  5
25C
100
AcDbEntity
  8
_1
100
AcDbLine
 62
7
  6
BYLAYER
 10
73.4732874951
 20
59.1621089275
 11
73.4732874951
 21
59.0621089275
  0
LINE
  5
25D
100
AcDbEntity
  8
_1
100
AcDbLine
 62
7
  6
BYLAYER
 10
73.4732874951
 20
58.4621089275
 11
73.4732874951
 21
58.3621089275
  0
LINE
  5
25E
100
AcDbEntity
  8
_1
100
AcDbLine
 62
7
  6
BYLAYER
 10
73.4732874951
 20
56.4621089275
 11
73.4732874951
 21
56.3621089275
  0
LINE
  5
25F
100
AcDbEntity
  8
_1
100
AcDbLine
 62
7
  6
BYLAYER
 10
73.4732874951
 20
55.7621089275
 11
73.4732874951
 21
55.6621089275
  0
ARC
  5
260
100
AcDbEntity
  8
_1
100
AcDbCircle
 62
7
  6
BYLAYER
 10
10.7577362652
 20
54.34588159
 40
0.5
100
AcDbArc
 50
180.0
 51
270.0
  0
ARC
  5
261
100
AcDbEntity
  8
_1
100
AcDbCircle
 62
7
  6
BYLAYER
 10
10.494257445
 20
52.9121089275
 40
0.5
100
AcDbArc
 50
183.0
 51
270.0
  0
ARC
  5
262
100
AcDbEntity
  8
_1
100
AcDbCircle
 62
7
  6
BYLAYER
 10
10.7577362652
 20
60.34588159
 40
0.5
100
AcDbArc
 50
90.0
 51
180.0
  0
ARC
  5
263
100
AcDbEntity
  8
_1
100
AcDbCircle
 62
7
  6
BYLAYER
 10
10.494257445
 20
61.9121089275
 40
0.5
100
AcDbArc
 50
90.0
 51
177.0
  0
ARC
  5
264
100
AcDbEntity
  8
_1
100
AcDbCircle
 62
7
  6
BYLAYER
 10
60.2577362652
 20
54.34588159
 40
0.5
100
AcDbArc
 50
270.0
 51
360.0
  0
ARC
  5
265
100
AcDbEntity
  8
_1
100
AcDbCircle
 62
7
  6
BYLAYER
 10
66.0212150854
 20
52.9121089275
 40
0.5
100
AcDbArc
 50
270.0
 51
357.0
  0
ARC
  5
266
100
AcDbEntity
  8
_1
100
AcDbCircle
 62
7
  6
BYLAYER
 10
73.0232874951
 20
56.3621089275
 40
0.45
100
AcDbArc
 50
319.3033322933
 51
360.0
  0
ARC
  5
267
100
AcDbEntity
  8
_1
100
AcDbCircle
 62
7
  6
BYLAYER
 10
73.0232874951
 20
55.6621089275
 40
0.45
100
AcDbArc
 50
306.0104113432
 51
360.0
  0
ARC
  5
268
100
AcDbEntity
  8
_1
100
AcDbCircle
 62
7
  6
BYLAYER
 10
73.0232874951
 20
55.7621089275
 40
0.45
100
AcDbArc
 50
0.0
 51
53.9895886568
  0
ARC
  5
269
100
AcDbEntity
  8
_1
100
AcDbCircle
 62
7
  6
BYLAYER
 10
73.0232874951
 20
56.4621089275
 40
0.45
100
AcDbArc
 50
0.0
 51
53.9895886568
  0
ARC
  5
26A
100
AcDbEntity
  8
_1
100
AcDbCircle
 62
7
  6
BYLAYER
 10
68.762737444
 20
53.4190603418
 40
0.0069514144
100
AcDbArc
 50
264.198739765
 51
269.9902835095
  0
ARC
  5
26B
100
AcDbEntity
  8
_1
100
AcDbCircle
 62
7
  6
BYLAYER
 10
69.762737444
 20
53.4190603418
 40
0.0069514144
100
AcDbArc
 50
264.198739765
 51
269.9902835095
  0
ARC
  5
26C
100
AcDbEntity
  8
_1
100
AcDbCircle
 62
7
  6
BYLAYER
 10
60.2577362652
 20
60.34588159
 40
0.5
100
AcDbArc
 50
0.0
 51
90.0
  0
ARC
  5
26D
100
AcDbEntity
  8
_1
100
AcDbCircle
 62
7
  6
BYLAYER
 10
66.0212150854
 20
61.9121089275
 40
0.5
100
AcDbArc
 50
3.0
 51
90.0
  0
ARC
  5
26E
100
AcDbEntity
  8
_1
100
AcDbCircle
 62
7
  6
BYLAYER
 10
73.0232874951
 20
59.0621089275
 40
0.45
100
AcDbArc
 50
306.0104113432
 51
360.0
  0
ARC
  5
26F
100
AcDbEntity
  8
_1
100
AcDbCircle
 62
7
  6
BYLAYER
 10
73.0232874951
 20
59.1621089275
 40
0.45
100
AcDbArc
 50
0.0
 51
53.9895886568
  0
ARC
  5
270
100
AcDbEntity
  8
_1
100
AcDbCircle
 62
7
  6
BYLAYER
 10
73.0232874951
 20
58.3621089275
 40
0.45
100
AcDbArc
 50
306.0104113432
 51
360.0
  0
ARC
  5
271
100
AcDbEntity
  8
_1
100
AcDbCircle
 62
7
  6
BYLAYER
 10
73.0232874951
 20
58.4621089275
 40
0.45
100
AcDbArc
 50
0.0
 51
40.6966677067
  0
ARC
  5
272
100
AcDbEntity
  8
_1
100
AcDbCircle
 62
7
  6
BYLAYER
 10
70.252734779
 20
61.4051504721
 40
0.0069584555
100
AcDbArc
 50
83.7272963527
 51
89.9877627122
  0
ARC
  5
273
100
AcDbEntity
  8
_1
100
AcDbCircle
 62
7
  6
BYLAYER
 10
68.2527350859
 20
61.4051575129
 40
0.0069514147
100
AcDbArc
 50
84.1987364046
 51
89.9902798704
  0
ARC
  5
274
100
AcDbEntity
  8
_1
100
AcDbCircle
 62
7
  6
BYLAYER
 10
69.2527350863
 20
61.4051575132
 40
0.0069514144
100
AcDbArc
 50
84.1987397656
 51
89.9902835076
  0
LINE
  5
275
100
AcDbEntity
  8
_1
100
AcDbLine
 62
7
  6
BYLAYER
 10
70.2534950652
 20
61.4120672682
 11
70.2549632863
 21
61.411750293
  0
SPLINE
  5
276
100
AcDbEntity
  8
_1
100
AcDbSpline
 62
7
  6
BYLAYER
 70
0
 71
3
 72
42
 73
38
 74
0
 42
0.0000001
 43
0.0000001
 44
0.0000000001
 40
0.0
 40
0.0
 40
0.0
 40
0.0
 40
0.0005573606
 40
0.0012809691
 40
0.0022124105
 40
0.00337022
 40
0.0063945707
 40
0.0103808267
 40
0.0153226413
 40
0.0212047358
 40
0.0356459159
 40
0.0533328529
 40
0.0741280665
 40
0.0981485504
 40
0.1256848069
 40
0.1566596041
 40
0.1907675413
 40
0.22769618
 40
0.2670461784
 40
0.3510671376
 40
0.3947129023
 40
0.4387087668
 40
0.4824088612
 40
0.5258456193
 40
0.5693877736
 40
0.6133122954
 40
0.6571924047
 40
0.7003738779
 40
0.782604158
 40
0.8206327459
 40
0.8559993557
 40
0.8883640855
 40
0.9174211838
 40
0.9429319962
 40
0.9650891085
 40
0.9841156351
 40
1.0
 40
1.0
 40
1.0
 40
1.0
 10
70.2549632863
 20
61.411750293
 30
0.0
 10
70.2563457944
 20
61.4113052045
 30
0.0
 10
70.2592270885
 20
61.4094173008
 30
0.0
 10
70.2629164609
 20
61.4049457753
 30
0.0
 10
70.2665953991
 20
61.3985784538
 30
0.0
 10
70.2719662204
 20
61.386366852
 30
0.0
 10
70.2783056132
 20
61.3659949525
 30
0.0
 10
70.2854358023
 20
61.3356703483
 30
0.0
 10
70.2925305078
 20
61.2977223678
 30
0.0
 10
70.3026013129
 20
61.2326550576
 30
0.0
 10
70.3143314315
 20
61.1342776892
 30
0.0
 10
70.3270387942
 20
60.996948879
 30
0.0
 10
70.3393511399
 20
60.8345382794
 30
0.0
 10
70.3519087565
 20
60.6464191661
 30
0.0
 10
70.3652192421
 20
60.431767392
 30
0.0
 10
70.3792428896
 20
60.1908249905
 30
0.0
 10
70.3936827132
 20
59.9253923408
 30
0.0
 10
70.4084468574
 20
59.6381221602
 30
0.0
 10
70.4287722768
 20
59.2209025955
 30
0.0
 10
70.448337011
 20
58.7861231504
 30
0.0
 10
70.467123907
 20
58.3391937119
 30
0.0
 10
70.4808720268
 20
57.9972150634
 30
0.0
 10
70.4937973047
 20
57.6557494382
 30
0.0
 10
70.5062737185
 20
57.3154504543
 30
0.0
 10
70.5189198309
 20
56.9745723621
 30
0.0
 10
70.5323315378
 20
56.6325671728
 30
0.0
 10
70.546406502
 20
56.2915293652
 30
0.0
 10
70.5654173656
 20
55.850792744
 30
0.0
 10
70.5851132454
 20
55.4253482741
 30
0.0
 10
70.6054461598
 20
55.0203239208
 30
0.0
 10
70.6200444525
 20
54.7451177016
 30
0.0
 10
70.6342592894
 20
54.4933034817
 30
0.0
 10
70.6479345366
 20
54.2671841323
 30
0.0
 10
70.6607559087
 20
54.0676625269
 30
0.0
 10
70.6731172017
 20
53.8943051055
 30
0.0
 10
70.6855649748
 20
53.7461126961
 30
0.0
 10
70.6951985666
 20
53.6556361869
 30
0.0
 10
70.7003757917
 20
53.6145692412
 30
0.0
  0
SPLINE
  5
277
100
AcDbEntity
  8
_1
100
AcDbSpline
 62
7
  6
BYLAYER
 70
0
 71
3
 72
9
 73
5
 74
0
 42
0.0000001
 43
0.0000001
 44
0.0000000001
 40
0.0
 40
0.0
 40
0.0
 40
0.0
 40
0.2631160944
 40
1.0
 40
1.0
 40
1.0
 40
1.0
 10
70.7003757917
 20
53.6145692412
 30
0.0
 10
70.7009725304
 20
53.6098357719
 30
0.0
 10
70.7032831175
 20
53.5918511811
 30
0.0
 10
70.7057695667
 20
53.5738887946
 30
0.0
 10
70.7077347505
 20
53.5606726021
 30
0.0
  0
LINE
  5
278
100
AcDbEntity
  8
_1
100
AcDbLine
 62
7
  6
BYLAYER
 10
68.2534377226
 20
61.4120733258
 11
68.2548323544
 21
61.4117912077
  0
SPLINE
  5
279
100
AcDbEntity
  8
_1
100
AcDbSpline
 62
7
  6
BYLAYER
 70
0
 71
3
 72
52
 73
48
 74
0
 42
0.0000001
 43
0.0000001
 44
0.0000000001
 40
0.0
 40
0.0
 40
0.0
 40
0.0
 40
0.0005980259
 40
0.0013950979
 40
0.0024406671
 40
0.0037552822
 40
0.0072220416
 40
0.0118175322
 40
0.0175287215
 40
0.0243300313
 40
0.0321658917
 40
0.0409681018
 40
0.0613120144
 40
0.0853408992
 40
0.1133603559
 40
0.145497918
 40
0.1813952215
 40
0.220652873
 40
0.2627689147
 40
0.3071315775
 40
0.35306934
 40
0.3999324212
 40
0.4469100897
 40
0.4934584621
 40
0.5399357466
 40
0.5867906763
 40
0.6337850175
 40
0.6800666638
 40
0.7249674884
 40
0.7678202086
 40
0.8079875943
 40
0.8449277672
 40
0.8782253126
 40
0.9074901189
 40
0.9326610961
 40
0.9438325898
 40
0.9540906971
 40
0.9634396171
 40
0.9718587894
 40
0.97928385
 40
0.9856484234
 40
0.9909101176
 40
0.9950492402
 40
0.9966955867
 40
0.9980625949
 40
0.9991582193
 40
1.0
 40
1.0
 40
1.0
 40
1.0
 10
68.2548323544
 20
61.4117912077
 30
0.0
 10
68.2563629582
 20
61.4113273802
 30
0.0
 10
68.2595720271
 20
61.409160031
 30
0.0
 10
68.2635932936
 20
61.4039764562
 30
0.0
 10
68.2676190134
 20
61.396522575
 30
0.0
 10
68.2735152151
 20
61.3820801675
 30
0.0
 10
68.2804440634
 20
61.3579231364
 30
0.0
 10
68.2882315752
 20
61.3219156554
 30
0.0
 10
68.2959624408
 20
61.2768068546
 30
0.0
 10
68.3036011753
 20
61.2229230275
 30
0.0
 10
68.3110889106
 20
61.1606823577
 30
0.0
 10
68.3212912519
 20
61.062303381
 30
0.0
 10
68.3331282259
 20
60.9205764905
 30
0.0
 10
68.3466935893
 20
60.7274481134
 30
0.0
 10
68.3609223437
 20
60.5027531359
 30
0.0
 10
68.3761358698
 20
60.2463193598
 30
0.0
 10
68.3918858112
 20
59.9598119417
 30
0.0
 10
68.4080491851
 20
59.6466030434
 30
0.0
 10
68.4243931489
 20
59.3107353429
 30
0.0
 10
68.4406723268
 20
58.9569796078
 30
0.0
 10
68.4566406622
 20
58.5905019921
 30
0.0
 10
68.472140419
 20
58.2170047
 30
0.0
 10
68.4868729288
 20
57.8418419737
 30
0.0
 10
68.5007072641
 20
57.4676777801
 30
0.0
 10
68.5144209642
 20
57.0938377364
 30
0.0
 10
68.5288432031
 20
56.7188304388
 30
0.0
 10
68.5441670381
 20
56.344382585
 30
0.0
 10
68.560006303
 20
55.9751869513
 30
0.0
 10
68.576218638
 20
55.6170946098
 30
0.0
 10
68.5925675733
 20
55.2753780354
 30
0.0
 10
68.6088128272
 20
54.9549717891
 30
0.0
 10
68.6246993235
 20
54.6601355077
 30
0.0
 10
68.6401028655
 20
54.3944748935
 30
0.0
 10
68.6546557281
 20
54.1602955689
 30
0.0
 10
68.66647609
 20
53.9852340431
 30
0.0
 10
68.6759728898
 20
53.8609685882
 30
0.0
 10
68.6829000653
 20
53.7789464487
 30
0.0
 10
68.6900249084
 20
53.7043316941
 30
0.0
 10
68.6973944001
 20
53.6373571865
 30
0.0
 10
68.7049499665
 20
53.5784419523
 30
0.0
 10
68.7126300953
 20
53.5280652398
 30
0.0
 10
68.720399085
 20
53.4866189755
 30
0.0
 10
68.7272899202
 20
53.4578579437
 30
0.0
 10
68.7330824484
 20
53.4396197549
 30
0.0
 10
68.7370970808
 20
53.4293746448
 30
0.0
 10
68.7411029414
 20
53.4214863093
 30
0.0
 10
68.7441594655
 20
53.4172387239
 30
0.0
 10
68.7457440149
 20
53.4156395908
 30
0.0
  0
LINE
  5
27A
100
AcDbEntity
  8
_1
100
AcDbLine
 62
7
  6
BYLAYER
 10
68.7620348077
 20
53.4121445292
 11
68.7606401761
 21
53.4124266472
  0
SPLINE
  5
27B
100
AcDbEntity
  8
_1
100
AcDbSpline
 62
7
  6
BYLAYER
 70
0
 71
3
 72
52
 73
48
 74
0
 42
0.0000001
 43
0.0000001
 44
0.0000000001
 40
0.0
 40
0.0
 40
0.0
 40
0.0
 40
0.0005980259
 40
0.0013950979
 40
0.0024406671
 40
0.0037552822
 40
0.0072220415
 40
0.0118175321
 40
0.0175287214
 40
0.0243300312
 40
0.0321658916
 40
0.0409681016
 40
0.0613120142
 40
0.085340899
 40
0.1133603557
 40
0.1454979176
 40
0.1813952211
 40
0.2206528726
 40
0.2627689142
 40
0.307131577
 40
0.3530693395
 40
0.3999324207
 40
0.4469100891
 40
0.4934584615
 40
0.539935746
 40
0.5867906757
 40
0.6337850168
 40
0.6800666631
 40
0.7249674878
 40
0.767820208
 40
0.8079875938
 40
0.8449277666
 40
0.8782253121
 40
0.9074901185
 40
0.9326610957
 40
0.9438325895
 40
0.9540906968
 40
0.9634396168
 40
0.9718587892
 40
0.9792838498
 40
0.9856484232
 40
0.9909101175
 40
0.9950492401
 40
0.9966955866
 40
0.9980625949
 40
0.9991582193
 40
1.0
 40
1.0
 40
1.0
 40
1.0
 10
68.7606401761
 20
53.4124266472
 30
0.0
 10
68.7591095723
 20
53.4128904745
 30
0.0
 10
68.7559005033
 20
53.4150578236
 30
0.0
 10
68.7518792368
 20
53.4202413984
 30
0.0
 10
68.7478535171
 20
53.4276952796
 30
0.0
 10
68.7419573154
 20
53.4421376871
 30
0.0
 10
68.7350284671
 20
53.4662947181
 30
0.0
 10
68.7272409553
 20
53.5023021989
 30
0.0
 10
68.7195100897
 20
53.5474109995
 30
0.0
 10
68.7118713552
 20
53.6012948265
 30
0.0
 10
68.7043836199
 20
53.6635354961
 30
0.0
 10
68.6941812786
 20
53.7619144726
 30
0.0
 10
68.6823443046
 20
53.9036413628
 30
0.0
 10
68.6687789412
 20
54.0967697395
 30
0.0
 10
68.6545501868
 20
54.3214647166
 30
0.0
 10
68.6393366607
 20
54.5778984923
 30
0.0
 10
68.6235867193
 20
54.86440591
 30
0.0
 10
68.6074233455
 20
55.1776148079
 30
0.0
 10
68.5910793817
 20
55.513482508
 30
0.0
 10
68.5748002038
 20
55.8672382428
 30
0.0
 10
68.5588318683
 20
56.2337158582
 30
0.0
 10
68.5433321116
 20
56.6072131501
 30
0.0
 10
68.5285996018
 20
56.9823758763
 30
0.0
 10
68.5147652664
 20
57.3565400698
 30
0.0
 10
68.5010515663
 20
57.7303801133
 30
0.0
 10
68.4866293274
 20
58.1053874107
 30
0.0
 10
68.4713054925
 20
58.4798352645
 30
0.0
 10
68.4554662276
 20
58.8490308982
 30
0.0
 10
68.4392538926
 20
59.2071232397
 30
0.0
 10
68.4229049573
 20
59.5488398142
 30
0.0
 10
68.4066597035
 20
59.8692460609
 30
0.0
 10
68.3907732071
 20
60.1640823426
 30
0.0
 10
68.3753696651
 20
60.4297429572
 30
0.0
 10
68.3608168025
 20
60.6639222823
 30
0.0
 10
68.3489964406
 20
60.8389838085
 30
0.0
 10
68.3394996408
 20
60.9632492637
 30
0.0
 10
68.3325724653
 20
61.0452714034
 30
0.0
 10
68.3254476222
 20
61.1198861583
 30
0.0
 10
68.3180781305
 20
61.1868606661
 30
0.0
 10
68.3105225641
 20
61.2457759006
 30
0.0
 10
68.3028424354
 20
61.2961526134
 30
0.0
 10
68.2950734457
 20
61.3375988781
 30
0.0
 10
68.2881826105
 20
61.3663599102
 30
0.0
 10
68.2823900823
 20
61.3845980992
 30
0.0
 10
68.2783754499
 20
61.3948432095
 30
0.0
 10
68.2743695893
 20
61.4027315452
 30
0.0
 10
68.2713130652
 20
61.4069791307
 30
0.0
 10
68.2697285158
 20
61.4085782639
 30
0.0
  0
LINE
  5
27C
100
AcDbEntity
  8
_1
100
AcDbLine
 62
7
  6
BYLAYER
 10
69.2534377226
 20
61.4120733258
 11
69.2548323544
 21
61.4117912078
  0
SPLINE
  5
27D
100
AcDbEntity
  8
_1
100
AcDbSpline
 62
7
  6
BYLAYER
 70
0
 71
3
 72
52
 73
48
 74
0
 42
0.0000001
 43
0.0000001
 44
0.0000000001
 40
0.0
 40
0.0
 40
0.0
 40
0.0
 40
0.0005980259
 40
0.0013950979
 40
0.0024406671
 40
0.0037552822
 40
0.0072220416
 40
0.0118175322
 40
0.0175287215
 40
0.0243300313
 40
0.0321658917
 40
0.0409681018
 40
0.0613120144
 40
0.0853408992
 40
0.1133603559
 40
0.145497918
 40
0.1813952214
 40
0.220652873
 40
0.2627689147
 40
0.3071315775
 40
0.35306934
 40
0.3999324212
 40
0.4469100897
 40
0.4934584621
 40
0.5399357466
 40
0.5867906763
 40
0.6337850175
 40
0.6800666637
 40
0.7249674884
 40
0.7678202086
 40
0.8079875943
 40
0.8449277672
 40
0.8782253126
 40
0.9074901189
 40
0.9326610961
 40
0.9438325898
 40
0.9540906971
 40
0.9634396171
 40
0.9718587894
 40
0.97928385
 40
0.9856484234
 40
0.9909101176
 40
0.9950492402
 40
0.9966955867
 40
0.9980625949
 40
0.9991582193
 40
1.0
 40
1.0
 40
1.0
 40
1.0
 10
69.2548323544
 20
61.4117912078
 30
0.0
 10
69.2563629582
 20
61.4113273804
 30
0.0
 10
69.2595720271
 20
61.4091600313
 30
0.0
 10
69.2635932937
 20
61.4039764564
 30
0.0
 10
69.2676190134
 20
61.3965225752
 30
0.0
 10
69.2735152151
 20
61.3820801676
 30
0.0
 10
69.2804440633
 20
61.3579231365
 30
0.0
 10
69.2882315752
 20
61.3219156555
 30
0.0
 10
69.2959624408
 20
61.2768068547
 30
0.0
 10
69.3036011753
 20
61.2229230276
 30
0.0
 10
69.3110889106
 20
61.1606823578
 30
0.0
 10
69.3212912519
 20
61.0623033812
 30
0.0
 10
69.3331282259
 20
60.9205764907
 30
0.0
 10
69.3466935893
 20
60.7274481136
 30
0.0
 10
69.3609223437
 20
60.5027531361
 30
0.0
 10
69.3761358698
 20
60.2463193601
 30
0.0
 10
69.3918858112
 20
59.9598119419
 30
0.0
 10
69.4080491851
 20
59.6466030436
 30
0.0
 10
69.4243931489
 20
59.3107353432
 30
0.0
 10
69.4406723268
 20
58.956979608
 30
0.0
 10
69.4566406622
 20
58.5905019924
 30
0.0
 10
69.472140419
 20
58.2170047003
 30
0.0
 10
69.4868729288
 20
57.841841974
 30
0.0
 10
69.5007072641
 20
57.4676777803
 30
0.0
 10
69.5144209642
 20
57.0938377366
 30
0.0
 10
69.5288432031
 20
56.718830439
 30
0.0
 10
69.5441670381
 20
56.3443825851
 30
0.0
 10
69.560006303
 20
55.9751869514
 30
0.0
 10
69.576218638
 20
55.61709461
 30
0.0
 10
69.5925675733
 20
55.2753780356
 30
0.0
 10
69.6088128271
 20
54.9549717892
 30
0.0
 10
69.6246993235
 20
54.6601355078
 30
0.0
 10
69.6401028655
 20
54.3944748936
 30
0.0
 10
69.6546557281
 20
54.1602955689
 30
0.0
 10
69.66647609
 20
53.9852340431
 30
0.0
 10
69.6759728898
 20
53.8609685883
 30
0.0
 10
69.6829000653
 20
53.7789464488
 30
0.0
 10
69.6900249084
 20
53.7043316941
 30
0.0
 10
69.6973944001
 20
53.6373571865
 30
0.0
 10
69.7049499665
 20
53.5784419523
 30
0.0
 10
69.7126300953
 20
53.5280652398
 30
0.0
 10
69.720399085
 20
53.4866189755
 30
0.0
 10
69.7272899202
 20
53.4578579437
 30
0.0
 10
69.7330824484
 20
53.4396197549
 30
0.0
 10
69.7370970808
 20
53.4293746448
 30
0.0
 10
69.7411029414
 20
53.4214863093
 30
0.0
 10
69.7441594655
 20
53.4172387239
 30
0.0
 10
69.7457440149
 20
53.4156395908
 30
0.0
  0
LINE
  5
27E
100
AcDbEntity
  8
_1
100
AcDbLine
 62
7
  6
BYLAYER
 10
69.7620348077
 20
53.4121445292
 11
69.7606401761
 21
53.4124266472
  0
SPLINE
  5
27F
100
AcDbEntity
  8
_1
100
AcDbSpline
 62
7
  6
BYLAYER
 70
0
 71
3
 72
52
 73
48
 74
0
 42
0.0000001
 43
0.0000001
 44
0.0000000001
 40
0.0
 40
0.0
 40
0.0
 40
0.0
 40
0.0005980259
 40
0.0013950979
 40
0.0024406671
 40
0.0037552822
 40
0.0072220415
 40
0.0118175321
 40
0.0175287214
 40
0.0243300312
 40
0.0321658916
 40
0.0409681016
 40
0.0613120142
 40
0.085340899
 40
0.1133603557
 40
0.1454979176
 40
0.1813952211
 40
0.2206528726
 40
0.2627689142
 40
0.307131577
 40
0.3530693395
 40
0.3999324207
 40
0.4469100891
 40
0.4934584615
 40
0.539935746
 40
0.5867906757
 40
0.6337850168
 40
0.6800666631
 40
0.7249674878
 40
0.767820208
 40
0.8079875938
 40
0.8449277666
 40
0.8782253121
 40
0.9074901185
 40
0.9326610957
 40
0.9438325895
 40
0.9540906968
 40
0.9634396168
 40
0.9718587892
 40
0.9792838498
 40
0.9856484232
 40
0.9909101175
 40
0.9950492401
 40
0.9966955866
 40
0.9980625949
 40
0.9991582193
 40
1.0
 40
1.0
 40
1.0
 40
1.0
 10
69.7606401761
 20
53.4124266472
 30
0.0
 10
69.7591095723
 20
53.4128904745
 30
0.0
 10
69.7559005033
 20
53.4150578236
 30
0.0
 10
69.7518792368
 20
53.4202413984
 30
0.0
 10
69.7478535171
 20
53.4276952796
 30
0.0
 10
69.7419573154
 20
53.4421376871
 30
0.0
 10
69.7350284671
 20
53.4662947181
 30
0.0
 10
69.7272409553
 20
53.5023021989
 30
0.0
 10
69.7195100897
 20
53.5474109995
 30
0.0
 10
69.7118713552
 20
53.6012948265
 30
0.0
 10
69.7043836199
 20
53.6635354961
 30
0.0
 10
69.6941812786
 20
53.7619144726
 30
0.0
 10
69.6823443046
 20
53.9036413628
 30
0.0
 10
69.6687789412
 20
54.0967697395
 30
0.0
 10
69.6545501868
 20
54.3214647166
 30
0.0
 10
69.6393366607
 20
54.5778984923
 30
0.0
 10
69.6235867193
 20
54.86440591
 30
0.0
 10
69.6074233455
 20
55.1776148079
 30
0.0
 10
69.5910793817
 20
55.513482508
 30
0.0
 10
69.5748002038
 20
55.8672382428
 30
0.0
 10
69.5588318683
 20
56.2337158582
 30
0.0
 10
69.5433321116
 20
56.6072131501
 30
0.0
 10
69.5285996018
 20
56.9823758763
 30
0.0
 10
69.5147652664
 20
57.3565400698
 30
0.0
 10
69.5010515663
 20
57.7303801133
 30
0.0
 10
69.4866293274
 20
58.1053874107
 30
0.0
 10
69.4713054925
 20
58.4798352645
 30
0.0
 10
69.4554662276
 20
58.8490308982
 30
0.0
 10
69.4392538926
 20
59.2071232397
 30
0.0
 10
69.4229049573
 20
59.5488398142
 30
0.0
 10
69.4066597035
 20
59.8692460609
 30
0.0
 10
69.3907732071
 20
60.1640823426
 30
0.0
 10
69.3753696651
 20
60.4297429572
 30
0.0
 10
69.3608168025
 20
60.6639222823
 30
0.0
 10
69.3489964406
 20
60.8389838085
 30
0.0
 10
69.3394996408
 20
60.9632492637
 30
0.0
 10
69.3325724653
 20
61.0452714034
 30
0.0
 10
69.3254476222
 20
61.1198861583
 30
0.0
 10
69.3180781305
 20
61.1868606661
 30
0.0
 10
69.3105225641
 20
61.2457759006
 30
0.0
 10
69.3028424354
 20
61.2961526134
 30
0.0
 10
69.2950734457
 20
61.3375988781
 30
0.0
 10
69.2881826105
 20
61.3663599102
 30
0.0
 10
69.2823900823
 20
61.3845980992
 30
0.0
 10
69.2783754499
 20
61.3948432095
 30
0.0
 10
69.2743695893
 20
61.4027315452
 30
0.0
 10
69.2713130652
 20
61.4069791307
 30
0.0
 10
69.2697285158
 20
61.4085782639
 30
0.0
  0
SPLINE
  5
280
100
AcDbEntity
  8
_1
100
AcDbSpline
 62
7
  6
BYLAYER
 70
0
 71
3
 72
30
 73
26
 74
0
 42
0.0000001
 43
0.0000001
 44
0.0000000001
 40
0.0
 40
0.0
 40
0.0
 40
0.0
 40
0.0017569007
 40
0.0040754074
 40
0.0069932709
 40
0.0105253157
 40
0.0194341948
 40
0.0307731601
 40
0.044440926
 40
0.0602629513
 40
0.0781016866
 40
0.0979487504
 40
0.1198336316
 40
0.143879842
 40
0.1988568503
 40
0.2624164881
 40
0.3334847887
 40
0.4107182037
 40
0.4924285289
 40
0.5768401414
 40
0.6619645435
 40
0.7462461348
 40
0.8305761422
 40
0.9157309239
 40
1.0
 40
1.0
 40
1.0
 40
1.0
 10
69.2497462999
 20
53.9161420877
 30
0.0
 10
69.2477993477
 20
53.9181064388
 30
0.0
 10
69.244064788
 20
53.9234094247
 30
0.0
 10
69.2392071749
 20
53.9333005138
 30
0.0
 10
69.2343421345
 20
53.9462386764
 30
0.0
 10
69.2273255861
 20
53.9693853885
 30
0.0
 10
69.2190152743
 20
54.0059243778
 30
0.0
 10
69.2097061768
 20
54.0585035824
 30
0.0
 10
69.2005853201
 20
54.1221367326
 30
0.0
 10
69.1917371907
 20
54.1961189409
 30
0.0
 10
69.1832359523
 20
54.2799250262
 30
0.0
 10
69.1749161487
 20
54.3733335758
 30
0.0
 10
69.166581989
 20
54.476547336
 30
0.0
 10
69.1547071731
 20
54.634954178
 30
0.0
 10
69.1390988602
 20
54.8588682769
 30
0.0
 10
69.1200907652
 20
55.1567424498
 30
0.0
 10
69.1004819147
 20
55.4896815362
 30
0.0
 10
69.0806254322
 20
55.8512255203
 30
0.0
 10
69.0609932428
 20
56.2338161134
 30
0.0
 10
69.0419459082
 20
56.6288730478
 30
0.0
 10
69.0238765795
 20
57.0280281063
 30
0.0
 10
69.0071146723
 20
57.4271110091
 30
0.0
 10
68.9902912583
 20
57.8262392637
 30
0.0
 10
68.9721183369
 20
58.2252891526
 30
0.0
 10
68.9592178227
 20
58.4916866791
 30
0.0
 10
68.952592353
 20
58.6241786228
 30
0.0
  0
SPLINE
  5
281
100
AcDbEntity
  8
_1
100
AcDbSpline
 62
7
  6
BYLAYER
 70
0
 71
3
 72
9
 73
5
 74
0
 42
0.0000001
 43
0.0000001
 44
0.0000000001
 40
0.0
 40
0.0
 40
0.0
 40
0.0
 40
0.5234467823
 40
1.0
 40
1.0
 40
1.0
 40
1.0
 10
68.952592353
 20
58.6241786228
 30
0.0
 10
68.943870472
 20
58.798593272
 30
0.0
 10
68.9264922054
 20
59.1317621547
 30
0.0
 10
68.9074190623
 20
59.4648391698
 30
0.0
 10
68.8977990159
 20
59.6235357912
 30
0.0
  0
SPLINE
  5
282
100
AcDbEntity
  8
_1
100
AcDbSpline
 62
7
  6
BYLAYER
 70
0
 71
3
 72
10
 73
6
 74
0
 42
0.0000001
 43
0.0000001
 44
0.0000000001
 40
0.0
 40
0.0
 40
0.0
 40
0.0
 40
0.547688238
 40
0.7865435827
 40
1.0
 40
1.0
 40
1.0
 40
1.0
 10
68.8977990159
 20
59.6235357912
 30
0.0
 10
68.8900057304
 20
59.7520973425
 30
0.0
 10
68.8783019131
 20
59.9366970786
 30
0.0
 10
68.8619772881
 20
60.1712959199
 30
0.0
 10
68.8541955867
 20
60.2773797162
 30
0.0
 10
68.8503512218
 20
60.3274299406
 30
0.0
  0
SPLINE
  5
283
100
AcDbEntity
  8
_1
100
AcDbSpline
 62
7
  6
BYLAYER
 70
0
 71
3
 72
18
 73
14
 74
0
 42
0.0000001
 43
0.0000001
 44
0.0000000001
 40
0.0
 40
0.0
 40
0.0
 40
0.0
 40
0.2046788936
 40
0.3876051452
 40
0.5491939001
 40
0.6890748775
 40
0.8053003309
 40
0.8539345011
 40
0.8960908885
 40
0.9317104657
 40
0.9607807606
 40
0.9834153924
 40
1.0
 40
1.0
 40
1.0
 40
1.0
 10
68.8503512218
 20
60.3274299406
 30
0.0
 10
68.8472704043
 20
60.3675394543
 30
0.0
 10
68.8412223766
 20
60.4434798915
 30
0.0
 10
68.8316603021
 20
60.5509961881
 30
0.0
 10
68.8218480073
 20
60.6456986066
 30
0.0
 10
68.8115838101
 20
60.7271547437
 30
0.0
 10
68.8023392296
 20
60.7863489762
 30
0.0
 10
68.7945602012
 20
60.8262899795
 30
0.0
 10
68.7890333466
 20
60.8505190624
 30
0.0
 10
68.7834823585
 20
60.8707771667
 30
0.0
 10
68.7779130335
 20
60.8870390255
 30
0.0
 10
68.7723580106
 20
60.8992629901
 30
0.0
 10
68.7680208006
 20
60.9057606919
 30
0.0
 10
68.7657262301
 20
60.9080757677
 30
0.0
  0
SPLINE
  5
284
100
AcDbEntity
  8
_1
100
AcDbSpline
 62
7
  6
BYLAYER
 70
0
 71
3
 72
28
 73
24
 74
0
 42
0.0000001
 43
0.0000001
 44
0.0000000001
 40
0.0
 40
0.0
 40
0.0
 40
0.0
 40
0.0018612646
 40
0.0042088958
 40
0.0104781859
 40
0.0189189479
 40
0.0295283093
 40
0.0422722918
 40
0.0570682752
 40
0.0737894633
 40
0.0923141815
 40
0.1346762433
 40
0.184318075
 40
0.2419276482
 40
0.3074153429
 40
0.3800331016
 40
0.4589927707
 40
0.5432524034
 40
0.6316113752
 40
0.7228021192
 40
0.8155198495
 40
0.9081819718
 40
1.0
 40
1.0
 40
1.0
 40
1.0
 10
68.2497463
 20
53.9161420872
 30
0.0
 10
68.2482136134
 20
53.9176884706
 30
0.0
 10
68.2452270482
 20
53.9216520415
 30
0.0
 10
68.2393584297
 20
53.9324334677
 30
0.0
 10
68.2324861964
 20
53.9512547034
 30
0.0
 10
68.2247846018
 20
53.9798559234
 30
0.0
 10
68.2171257858
 20
54.0162707447
 30
0.0
 10
68.2095414324
 20
54.0602515537
 30
0.0
 10
68.202090335
 20
54.1114933929
 30
0.0
 10
68.1948207813
 20
54.1695805864
 30
0.0
 10
68.1850066739
 20
54.2598352675
 30
0.0
 10
68.1734312439
 20
54.3886177294
 30
0.0
 10
68.1599248634
 20
54.5631101274
 30
0.0
 10
68.1455920087
 20
54.7646674281
 30
0.0
 10
68.1304078783
 20
54.9931057956
 30
0.0
 10
68.114749798
 20
55.2465397669
 30
0.0
 10
68.0987245591
 20
55.5219497154
 30
0.0
 10
68.0825961338
 20
55.8157968259
 30
0.0
 10
68.0665842202
 20
56.1239779944
 30
0.0
 10
68.0508832816
 20
56.4420815478
 30
0.0
 10
68.0356899056
 20
56.7652491203
 30
0.0
 10
68.0213149647
 20
57.0891886852
 30
0.0
 10
68.0122409301
 20
57.3047973891
 30
0.0
 10
68.0077362652
 20
57.4121089275
 30
0.0
  0
SPLINE
  5
285
100
AcDbEntity
  8
_1
100
AcDbSpline
 62
7
  6
BYLAYER
 70
0
 71
3
 72
46
 73
42
 74
0
 42
0.0000001
 43
0.0000001
 44
0.0000000001
 40
0.0
 40
0.0
 40
0.0
 40
0.0
 40
0.0009306337
 40
0.0021044511
 40
0.0052391008
 40
0.0094594879
 40
0.0147641767
 40
0.0211361785
 40
0.0285341825
 40
0.0368947885
 40
0.0461571578
 40
0.0673382241
 40
0.0921591988
 40
0.1209639363
 40
0.1537080123
 40
0.2093893562
 40
0.2716300177
 40
0.338470783
 40
0.4077632887
 40
0.4425507403
 40
0.4770710552
 40
0.5459174073
 40
0.6154697074
 40
0.684187643
 40
0.7497350431
 40
0.8099843278
 40
0.8375355685
 40
0.8631346375
 40
0.8866217738
 40
0.9078421515
 40
0.9268100769
 40
0.9436981022
 40
0.9585857403
 40
0.9714670981
 40
0.9821825994
 40
0.9866639276
 40
0.9905417193
 40
0.9938094639
 40
0.9964647742
 40
0.9985165452
 40
1.0
 40
1.0
 40
1.0
 40
1.0
 10
70.2497462999
 20
53.9161420877
 30
0.0
 10
70.2482136133
 20
53.9176884711
 30
0.0
 10
70.2452270481
 20
53.9216520421
 30
0.0
 10
70.2393584298
 20
53.9324334679
 30
0.0
 10
70.2324861967
 20
53.9512547024
 30
0.0
 10
70.2247846024
 20
53.9798559213
 30
0.0
 10
70.2171257863
 20
54.016270744
 30
0.0
 10
70.2095414313
 20
54.0602515574
 30
0.0
 10
70.2020903324
 20
54.111493399
 30
0.0
 10
70.1948207795
 20
54.1695805838
 30
0.0
 10
70.1850066846
 20
54.2598352621
 30
0.0
 10
70.1734312195
 20
54.3886177688
 30
0.0
 10
70.1599249555
 20
54.5631100115
 30
0.0
 10
70.1455914014
 20
54.7646675208
 30
0.0
 10
70.1274062442
 20
55.038329236
 30
0.0
 10
70.1060927387
 20
55.3901756665
 30
0.0
 10
70.0820846816
 20
55.8217693004
 30
0.0
 10
70.0583581818
 20
56.2852670506
 30
0.0
 10
70.0393637726
 20
56.6846920753
 30
0.0
 10
70.0248588141
 20
57.0086282976
 30
0.0
 10
70.011054696
 20
57.3315502948
 30
0.0
 10
69.994287426
 20
57.7357533889
 30
0.0
 10
69.9724778702
 20
58.2198206823
 30
0.0
 10
69.9492806257
 20
58.696096263
 30
0.0
 10
69.9253746142
 20
59.1505435059
 30
0.0
 10
69.9048930576
 20
59.5087233916
 30
0.0
 10
69.8886338317
 20
59.7735276978
 30
0.0
 10
69.8770662433
 20
59.9524507587
 30
0.0
 10
69.8658444842
 20
60.116552799
 30
0.0
 10
69.855164953
 20
60.2651409077
 30
0.0
 10
69.844947752
 20
60.398282677
 30
0.0
 10
69.8348842299
 20
60.5165735416
 30
0.0
 10
69.8246678592
 20
60.6205554169
 30
0.0
 10
69.8139707949
 20
60.7099602287
 30
0.0
 10
69.8042857193
 20
60.774951187
 30
0.0
 10
69.7961111928
 20
60.8188264733
 30
0.0
 10
69.7902986111
 20
60.845407188
 30
0.0
 10
69.784457939
 20
60.8675851433
 30
0.0
 10
69.778598128
 20
60.8853299303
 30
0.0
 10
69.7727566437
 20
60.8985842883
 30
0.0
 10
69.7681693733
 20
60.9056107914
 30
0.0
 10
69.7657262301
 20
60.9080757677
 30
0.0
  0
SPLINE
  5
286
100
AcDbEntity
  8
_1
100
AcDbSpline
 62
7
  6
BYLAYER
 70
0
 71
3
 72
42
 73
38
 74
0
 42
0.0000001
 43
0.0000001
 44
0.0000000001
 40
0.0
 40
0.0
 40
0.0
 40
0.0
 40
0.0163187267
 40
0.0356124542
 40
0.0579514104
 40
0.0836352792
 40
0.1127380132
 40
0.145043878
 40
0.1802305364
 40
0.2179369245
 40
0.2993075949
 40
0.3419742924
 40
0.3853108306
 40
0.4286906313
 40
0.4716957351
 40
0.5145873077
 40
0.5577193357
 40
0.6011649968
 40
0.6443222744
 40
0.7276058481
 40
0.7667528055
 40
0.8036087221
 40
0.8377770176
 40
0.8689521845
 40
0.8968405393
 40
0.9212828988
 40
0.9425316329
 40
0.9607522785
 40
0.96872412
 40
0.9758886107
 40
0.9821951559
 40
0.9876011706
 40
0.9920863914
 40
0.995638818
 40
0.9982601297
 40
0.999234064
 40
1.0
 40
1.0
 40
1.0
 40
1.0
 10
70.7077411239
 20
53.6361876027
 30
0.0
 10
70.702723988
 20
53.6782637087
 30
0.0
 10
70.6933071621
 20
53.7702696008
 30
0.0
 10
70.6811511169
 20
53.9202625455
 30
0.0
 10
70.6689977068
 20
54.094639617
 30
0.0
 10
70.6562267751
 20
54.2945013099
 30
0.0
 10
70.642695823
 20
54.520246208
 30
0.0
 10
70.6286585341
 20
54.770678606
 30
0.0
 10
70.6142563836
 20
55.043464804
 30
0.0
 10
70.5942536474
 20
55.4435357556
 30
0.0
 10
70.5748744659
 20
55.8630836348
 30
0.0
 10
70.556166761
 20
56.297293935
 30
0.0
 10
70.5423192009
 20
56.6329722949
 30
0.0
 10
70.529113975
 20
56.9695559964
 30
0.0
 10
70.516657261
 20
57.3050118557
 30
0.0
 10
70.5043823631
 20
57.6398304515
 30
0.0
 10
70.4917037186
 20
57.9757790305
 30
0.0
 10
70.4782220522
 20
58.31238694
 30
0.0
 10
70.4597640896
 20
58.7531380807
 30
0.0
 10
70.4405378338
 20
59.1826847566
 30
0.0
 10
70.4205511005
 20
59.5958145537
 30
0.0
 10
70.4059866727
 20
59.8815209005
 30
0.0
 10
70.3917114771
 20
60.1465140641
 30
0.0
 10
70.3778260964
 20
60.3882074356
 30
0.0
 10
70.3645512372
 20
60.604637348
 30
0.0
 10
70.3520809253
 20
60.7952919851
 30
0.0
 10
70.3399370339
 20
60.9608058159
 30
0.0
 10
70.3292238787
 20
61.0835369014
 30
0.0
 10
70.320039786
 20
61.1696681998
 30
0.0
 10
70.3132967989
 20
61.2249405416
 30
0.0
 10
70.3064313597
 20
61.2734795277
 30
0.0
 10
70.2994744148
 20
61.314963653
 30
0.0
 10
70.2924762656
 20
61.349182237
 30
0.0
 10
70.2854538441
 20
61.3759549594
 30
0.0
 10
70.2791977506
 20
61.3935111011
 30
0.0
 10
70.2738507184
 20
61.4035121314
 30
0.0
 10
70.2711284056
 20
61.4071654898
 30
0.0
 10
70.2697285158
 20
61.4085782639
 30
0.0
  0
SPLINE
  5
287
100
AcDbEntity
  8
_1
100
AcDbSpline
 62
7
  6
BYLAYER
 70
0
 71
3
 72
11
 73
7
 74
0
 42
0.0000001
 43
0.0000001
 44
0.0000000001
 40
0.0
 40
0.0
 40
0.0
 40
0.0
 40
0.2363747857
 40
0.4773747404
 40
0.7288344445
 40
1.0
 40
1.0
 40
1.0
 40
1.0
 10
9.5577362652
 20
58.4957782399
 30
0.0
 10
9.5577362652
 20
58.5179464837
 30
0.0
 10
9.5624415721
 20
58.5628615211
 30
0.0
 10
9.5843736522
 20
58.6282239742
 30
0.0
 10
9.6235412201
 20
58.6891470444
 30
0.0
 10
9.6631619083
 20
58.7205336752
 30
0.0
 10
9.6860749901
 20
58.7315668115
 30
0.0
  0
SPLINE
  5
288
100
AcDbEntity
  8
_1
100
AcDbSpline
 62
7
  6
BYLAYER
 70
0
 71
3
 72
11
 73
7
 74
0
 42
0.0000001
 43
0.0000001
 44
0.0000000001
 40
0.0
 40
0.0
 40
0.0
 40
0.0
 40
0.2369209567
 40
0.4780383343
 40
0.7289530518
 40
1.0
 40
1.0
 40
1.0
 40
1.0
 10
9.5577362652
 20
56.3284396152
 30
0.0
 10
9.5577362652
 20
56.3062177493
 30
0.0
 10
9.5624341822
 20
56.2612388229
 30
0.0
 10
9.5843164613
 20
56.1958283924
 30
0.0
 10
9.6235910856
 20
56.1350207203
 30
0.0
 10
9.6631623045
 20
56.1036907518
 30
0.0
 10
9.6860634821
 20
56.0926522094
 30
0.0
  0
SPLINE
  5
289
100
AcDbEntity
  8
_1
100
AcDbSpline
 62
7
  6
BYLAYER
 70
0
 71
3
 72
14
 73
10
 74
0
 42
0.0000001
 43
0.0000001
 44
0.0000000001
 40
0.0
 40
0.0
 40
0.0
 40
0.0
 40
0.1352089363
 40
0.2652168626
 40
0.3907804448
 40
0.5143158417
 40
0.6365807374
 40
0.7581191918
 40
1.0
 40
1.0
 40
1.0
 40
1.0
 10
9.7577362652
 20
56.0759190364
 30
0.0
 10
9.7371572565
 20
56.0759190364
 30
0.0
 10
9.696404704
 20
56.0884688101
 30
0.0
 10
9.6515910798
 20
56.1289239938
 30
0.0
 10
9.618714338
 20
56.1767424255
 30
0.0
 10
9.5948459883
 20
56.2281908568
 30
0.0
 10
9.577631022
 20
56.2815016543
 30
0.0
 10
9.562129445
 20
56.3538650669
 30
0.0
 10
9.5577362652
 20
56.4093424043
 30
0.0
 10
9.5577362652
 20
56.4461570364
 30
0.0
  0
SPLINE
  5
28A
100
AcDbEntity
  8
_1
100
AcDbSpline
 62
7
  6
BYLAYER
 70
0
 71
3
 72
14
 73
10
 74
0
 42
0.0000001
 43
0.0000001
 44
0.0000000001
 40
0.0
 40
0.0
 40
0.0
 40
0.0
 40
0.1352209712
 40
0.2652642439
 40
0.3907915167
 40
0.5143339437
 40
0.6365851923
 40
0.7581156989
 40
1.0
 40
1.0
 40
1.0
 40
1.0
 10
9.7577362652
 20
58.7482988186
 30
0.0
 10
9.7371560299
 20
58.7482988186
 30
0.0
 10
9.6963971782
 20
58.7357346246
 30
0.0
 10
9.65160599
 20
58.6952599552
 30
0.0
 10
9.6187060033
 20
58.6474597577
 30
0.0
 10
9.5948495612
 20
58.5960132128
 30
0.0
 10
9.5776299656
 20
58.5427087899
 30
0.0
 10
9.5621292565
 20
58.47034977
 30
0.0
 10
9.5577362652
 20
58.4148748998
 30
0.0
 10
9.5577362652
 20
58.3780608186
 30
0.0
  0
SPLINE
  5
28B
100
AcDbEntity
  8
_1
100
AcDbSpline
 62
7
  6
BYLAYER
 70
0
 71
3
 72
9
 73
5
 74
0
 42
0.0000001
 43
0.0000001
 44
0.0000000001
 40
0.0
 40
0.0
 40
0.0
 40
0.0
 40
0.4587711265
 40
1.0
 40
1.0
 40
1.0
 40
1.0
 10
10.141671133
 20
61.9490654587
 30
0.0
 10
10.1956191996
 20
61.9490654587
 30
0.0
 10
10.3132071935
 20
61.9465854804
 30
0.0
 10
10.4306997079
 20
61.9415987019
 30
0.0
 10
10.494257445
 20
61.9382769056
 30
0.0
  0
SPLINE
  5
28C
100
AcDbEntity
  8
_1
100
AcDbSpline
 62
7
  6
BYLAYER
 70
0
 71
3
 72
14
 73
10
 74
0
 42
0.0000001
 43
0.0000001
 44
0.0000000001
 40
0.0
 40
0.0
 40
0.0
 40
0.0
 40
0.0236623408
 40
0.074971393
 40
0.1567827382
 40
0.2690410079
 40
0.4109034146
 40
0.5813101134
 40
1.0
 40
1.0
 40
1.0
 40
1.0
 10
9.9949426776
 20
61.9382769056
 30
0.0
 10
9.9950038881
 20
61.9394448712
 30
0.0
 10
9.999033423
 20
61.9416718135
 30
0.0
 10
10.0060262861
 20
61.9431924272
 30
0.0
 10
10.0183348482
 20
61.9450738936
 30
0.0
 10
10.0347553062
 20
61.9464472937
 30
0.0
 10
10.0557560658
 20
61.9476358977
 30
0.0
 10
10.0918454816
 20
61.9488178215
 30
0.0
 10
10.1209763717
 20
61.9490654587
 30
0.0
 10
10.141671133
 20
61.9490654587
 30
0.0
  0
SPLINE
  5
28D
100
AcDbEntity
  8
_1
100
AcDbSpline
 62
7
  6
BYLAYER
 70
0
 71
3
 72
14
 73
10
 74
0
 42
0.0000001
 43
0.0000001
 44
0.0000000001
 40
0.0
 40
0.0
 40
0.0
 40
0.0
 40
0.4186898866
 40
0.5890965854
 40
0.7309589921
 40
0.8432172618
 40
0.925028607
 40
0.9763376592
 40
1.0
 40
1.0
 40
1.0
 40
1.0
 10
10.141671133
 20
52.8751523963
 30
0.0
 10
10.1209763717
 20
52.8751523963
 30
0.0
 10
10.0918454816
 20
52.8754000335
 30
0.0
 10
10.0557560658
 20
52.8765819573
 30
0.0
 10
10.0347553062
 20
52.8777705613
 30
0.0
 10
10.0183348482
 20
52.8791439614
 30
0.0
 10
10.0060262861
 20
52.8810254278
 30
0.0
 10
9.999033423
 20
52.8825460415
 30
0.0
 10
9.9950038881
 20
52.8847729838
 30
0.0
 10
9.9949426776
 20
52.8859409494
 30
0.0
  0
SPLINE
  5
28E
100
AcDbEntity
  8
_1
100
AcDbSpline
 62
7
  6
BYLAYER
 70
0
 71
3
 72
9
 73
5
 74
0
 42
0.0000001
 43
0.0000001
 44
0.0000000001
 40
0.0
 40
0.0
 40
0.0
 40
0.0
 40
0.5412288735
 40
1.0
 40
1.0
 40
1.0
 40
1.0
 10
10.494257445
 20
52.8859409494
 30
0.0
 10
10.4306997079
 20
52.8826191531
 30
0.0
 10
10.3132071935
 20
52.8776323746
 30
0.0
 10
10.1956191996
 20
52.8751523963
 30
0.0
 10
10.141671133
 20
52.8751523963
 30
0.0
  0
ELLIPSE
  5
28F
100
AcDbEntity
  8
_1
100
AcDbEllipse
 62
7
  6
BYLAYER
 10
9.9577362652
 20
51.6746749604
 30
0.0
 11
0.5006842948
 21
9.5536254669
 31
0.0
 40
0.0522644277
 41
0.0027390557
 42
0.9293488649
  0
ELLIPSE
  5
290
100
AcDbEntity
  8
_1
100
AcDbEllipse
 62
7
  6
BYLAYER
 10
9.9577362652
 20
63.1495428946
 30
0.0
 11
-0.5006842948
 21
9.5536254669
 31
0.0
 40
0.0522644277
 41
8.4954290959
 42
9.422038905
  0
ENDSEC
  0
SECTION
  2
OBJECTS
  0
DICTIONARY
  5
C
100
AcDbDictionary
280
0
281
1
  3
ACAD_GROUP
350
D
  3
ACAD_MLINESTYLE
350
17
  3
ACAD_LAYOUT
350
1A
  3
ACAD_PLOTSETTINGS
350
19
  3
ACAD_PLOTSTYLENAME
350
E
  0
DICTIONARY
  5
D
102
{ACAD_REACTORS
330
C
102
}
100
AcDbDictionary
280
0
281
1
  0
ACDBDICTIONARYWDFLT
  5
E
102
{ACAD_REACTORS
330
C
102
}
100
AcDbDictionary
281
1
  3
Normal
350
F
100
AcDbDictionaryWithDefault
340
F
  0
DICTIONARY
  5
17
102
{ACAD_REACTORS
330
C
102
}
100
AcDbDictionary
280
0
281
1
  3
Standard
350
18
  0
DICTIONARY
  5
19
102
{ACAD_REACTORS
330
C
102
}
100
AcDbDictionary
281
1
  0
DICTIONARY
  5
1A
102
{ACAD_REACTORS
330
C
102
}
100
AcDbDictionary
281
1
  3
Model
350
291
  3
Layout1
350
292
  0
ACDBPLACEHOLDER
  5
F
102
{ACAD_REACTORS
330
E
102
}
  0
MLINESTYLE
  5
18
102
{ACAD_REACTORS
330
17
102
}
100
AcDbMlineStyle
  2
STANDARD
 70
0
  3

 62
256
 51
90.0
 52
90.0
 71
2
 49
0.5
 62
256
  6
BYLAYER
 49
-0.5
 62
256
  6
BYLAYER
  0
LAYOUT
  5
291
102
{ACAD_REACTORS
330
1A
102
}
100
AcDbPlotSettings
  1

  2
none_device
  4

  6

 40
0.0
 41
0.0
 42
0.0
 43
0.0
 44
210.0
 45
297.0
 46
0.0
 47
0.0
 48
0.0
 49
0.0
140
0.0
141
0.0
142
1.0
143
1.0
 70
1024
 72
1
 73
0
 74
0
  7

 75
0
147
1.0
148
0.0
149
0.0
100
AcDbLayout
  1
Model
 70
0
 71
0
 10
0.0
 20
0.0
 11
210.0
 21
297.0
 12
0.0
 22
0.0
 32
0.0
 14
0.0
 24
0.0
 34
0.0
 15
0.0
 25
0.0
 35
0.0
146
0.0
 13
0.0
 23
0.0
 33
0.0
 16
1.0
 26
0.0
 36
0.0
 17
0.0
 27
1.0
 37
0.0
 76
0
330
211
345
0
346
0
  0
LAYOUT
  5
292
102
{ACAD_REACTORS
330
1A
102
}
100
AcDbPlotSettings
  1

  2
none_device
  4

  6

 40
0.0
 41
0.0
 42
0.0
 43
0.0
 44
210.0
 45
297.0
 46
0.0
 47
0.0
 48
0.0
 49
0.0
140
0.0
141
0.0
142
1.0
143
1.0
 70
0
 72
1
 73
0
 74
0
  7

 75
0
147
1.0
148
0.0
149
0.0
100
AcDbLayout
  1
Layout1
 70
0
 71
1
 10
0.0
 20
0.0
 11
210.0
 21
297.0
 12
0.0
 22
0.0
 32
0.0
 14
0.0
 24
0.0
 34
0.0
 15
0.0
 25
0.0
 35
0.0
146
0.0
 13
0.0
 23
0.0
 33
0.0
 16
1.0
 26
0.0
 36
0.0
 17
0.0
 27
1.0
 37
0.0
 76
0
330
212
345
0
346
0
  0
ENDSEC
  0
EOF
