999
DXF file: C:\Users\sesa63760\Dev\_Creo\CAD\MCADID0003702_3D-CAD\drw0001_1.dxf
999
Pro/ENGINEER 2019471 by Parametric Technology Corporation
  0
SECTION
  2
HEADER
  9
$ACADVER
  1
AC1024
  9
$DWGCODEPAGE
  3
ANSI_1252
  9
$EXTMAX
 10
68.2247120631
 20
96.4892356321
 30
0.0
  9
$EXTMIN
 10
0.0
 20
0.0
 30
0.0
  9
$LIMMIN
 10
0.0
 20
0.0
  9
$LIMMAX
 10
68.2247120631
 20
96.4892356321
  9
$VIEWCTR
 10
34.1123560316
 20
48.2446178161
  9
$VIEWSIZE
 40
96.4892356321
  9
$CLAYER
  8
0
  9
$LTSCALE
 40
6.2896686931
  9
$CELTYPE
  6
BYLAYER
  9
$DIMSCALE
 40
1.0
  9
$DIMASZ
 40
0.8121989531
  9
$DIMEXO
 40
1.0
  9
$DIMDLI
 40
4.3455892788
  9
$DIMEXE
 40
1.0
  9
$DIMCEN
 40
1.0292185134
  9
$DIMLFAC
 40
1.0
  9
$DIMBLK
  1
_FILLED
  9
$DIMALT
 70
0
  9
$DIMALTF
 40
0.0393700787
  9
$DIMTXT
 40
1.1370785344
  9
$DIMTOL
 70
1
  9
$DIMLIM
 70
0
  9
$DIMTFAC
 40
1.0
  9
$DIMTP
 40
0.01
  9
$DIMTM
 40
0.01
  9
$DIMGAP
 40
0.625
  9
$DIMDSEP
 70
46
  9
$AUNITS
 70
0
  9
$PDMODE
 70
3
  9
$PDSIZE
 40
0.3125
  9
$HANDSEED
  5
2A2
  9
$TILEMODE
 70
1
  9
$MEASUREMENT
 70
1
  9
$INSUNITS
 70
4
  0
ENDSEC
  0
SECTION
  2
CLASSES
  0
CLASS
  1
ACDBDICTIONARYWDFLT
  2
AcDbDictionaryWithDefault
  3
AutoCAD 2000
 90
0
 91
1
280
0
281
0
  0
CLASS
  1
ACDBPLACEHOLDER
  2
AcDbPlaceHolder
  3
AutoCAD 2000
 90
0
 91
1
280
0
281
0
  0
CLASS
  1
LAYOUT
  2
AcDbLayout
  3
AutoCAD 2000
 90
0
 91
0
280
0
281
0
  0
ENDSEC
  0
SECTION
  2
TABLES
  0
TABLE
  2
VPORT
  5
8
100
AcDbSymbolTable
 70
2
  0
VPORT
  5
1F4
100
AcDbSymbolTableRecord
100
AcDbViewportTableRecord
  2
*ACTIVE
 70
0
 10
0.0
 20
0.0
 11
1.0
 21
1.0
 12
34.1123560316
 22
48.2446178161
 13
0.0
 23
0.0
 14
1.0
 24
1.0
 15
0.0
 25
0.0
 16
0.0
 26
0.0
 36
1.0
 17
0.0
 27
0.0
 37
0.0
 40
96.4892356321
 41
0.7070707071
 42
50.0
 43
0.0
 44
0.0
 50
0.0
 51
0.0
 71
0
 72
100
 73
1
 74
1
 75
0
 76
0
 77
0
 78
0
  0
ENDTAB
  0
TABLE
  2
LTYPE
  5
5
100
AcDbSymbolTable
 70
6
  0
LTYPE
  5
14
100
AcDbSymbolTableRecord
100
AcDbLinetypeTableRecord
  2
BYBLOCK
 70
0
  3

 72
65
 73
0
 40
0.0
  0
LTYPE
  5
15
100
AcDbSymbolTableRecord
100
AcDbLinetypeTableRecord
  2
BYLAYER
 70
0
  3

 72
65
 73
0
 40
0.0
  0
LTYPE
  5
16
100
AcDbSymbolTableRecord
100
AcDbLinetypeTableRecord
  2
CONTINUOUS
 70
64
  3
Solid line
 72
65
 73
0
 40
0.0
  0
LTYPE
  5
1F5
100
AcDbSymbolTableRecord
100
AcDbLinetypeTableRecord
  2
CENTER
 70
64
  3
____ _ ____ _ ____ _ ____ _ ____ _ ____ _ ____
 72
65
 73
4
 40
0.6
 49
0.375
 74
0
 49
-0.075
 74
0
 49
0.075
 74
0
 49
-0.075
 74
0
  0
LTYPE
  5
1F6
100
AcDbSymbolTableRecord
100
AcDbLinetypeTableRecord
  2
HIDDEN
 70
64
  3
- - - - - - - - - - - - - - - - - - - -
 72
65
 73
2
 40
0.2
 49
0.1
 74
0
 49
-0.1
 74
0
  0
LTYPE
  5
1F7
100
AcDbSymbolTableRecord
100
AcDbLinetypeTableRecord
  2
PHANTOM
 70
64
  3
_____ _ _ _____ _ _ _____ _ _ _____
 72
65
 73
6
 40
0.8
 49
0.45
 74
0
 49
-0.05
 74
0
 49
0.1
 74
0
 49
-0.05
 74
0
 49
0.1
 74
0
 49
-0.05
 74
0
  0
LTYPE
  5
1F8
100
AcDbSymbolTableRecord
100
AcDbLinetypeTableRecord
  2
DOT
 70
64
  3
. . . . . . . . . . . . . . . . . . . .
 72
65
 73
2
 40
0.2
 49
0.1
 74
0
 49
-0.1
 74
0
  0
LTYPE
  5
1F9
100
AcDbSymbolTableRecord
100
AcDbLinetypeTableRecord
  2
DASHED
 70
64
  3
- - - - - - - - - - - - - - - - - - - -
 72
65
 73
2
 40
0.2
 49
0.1
 74
0
 49
-0.1
 74
0
  0
ENDTAB
  0
TABLE
  2
LAYER
  5
2
100
AcDbSymbolTable
 70
36
  0
LAYER
  5
10
100
AcDbSymbolTableRecord
100
AcDbLayerTableRecord
  2
0
 70
0
 62
7
  6
CONTINUOUS
370
-3
390
F
  0
LAYER
  5
1FA
100
AcDbSymbolTableRecord
100
AcDbLayerTableRecord
  2
DEFAULT_1
 70
0
 62
7
  6
CENTER
370
-3
390
F
  0
LAYER
  5
1FB
100
AcDbSymbolTableRecord
100
AcDbLayerTableRecord
  2
DEFAULT_2
 70
0
 62
7
  6
HIDDEN
370
-3
390
F
  0
LAYER
  5
1FC
100
AcDbSymbolTableRecord
100
AcDbLayerTableRecord
  2
DEFAULT_3
 70
0
 62
7
  6
PHANTOM
370
-3
390
F
  0
LAYER
  5
1FD
100
AcDbSymbolTableRecord
100
AcDbLayerTableRecord
  2
00_COMPONENTS
 70
0
 62
7
  6
CONTINUOUS
370
-3
390
F
  0
LAYER
  5
1FE
100
AcDbSymbolTableRecord
100
AcDbLayerTableRecord
  2
01_1_DEFAULT_DATUMS
 70
0
 62
7
  6
CONTINUOUS
370
-3
390
F
  0
LAYER
  5
1FF
100
AcDbSymbolTableRecord
100
AcDbLayerTableRecord
  2
01_PLANES
 70
0
 62
7
  6
CONTINUOUS
370
-3
390
F
  0
LAYER
  5
200
100
AcDbSymbolTableRecord
100
AcDbLayerTableRecord
  2
02_COORD_SYS
 70
0
 62
7
  6
CONTINUOUS
370
-3
390
F
  0
LAYER
  5
201
100
AcDbSymbolTableRecord
100
AcDbLayerTableRecord
  2
03_AXES
 70
0
 62
7
  6
CONTINUOUS
370
-3
390
F
  0
LAYER
  5
202
100
AcDbSymbolTableRecord
100
AcDbLayerTableRecord
  2
04_POINTS
 70
0
 62
7
  6
CONTINUOUS
370
-3
390
F
  0
LAYER
  5
203
100
AcDbSymbolTableRecord
100
AcDbLayerTableRecord
  2
05_CURVES
 70
0
 62
7
  6
CONTINUOUS
370
-3
390
F
  0
LAYER
  5
204
100
AcDbSymbolTableRecord
100
AcDbLayerTableRecord
  2
06_SURFS
 70
0
 62
7
  6
CONTINUOUS
370
-3
390
F
  0
LAYER
  5
205
100
AcDbSymbolTableRecord
100
AcDbLayerTableRecord
  2
07_COSMETICS
 70
0
 62
7
  6
CONTINUOUS
370
-3
390
F
  0
LAYER
  5
206
100
AcDbSymbolTableRecord
100
AcDbLayerTableRecord
  2
10_NOTES
 70
0
 62
7
  6
CONTINUOUS
370
-3
390
F
  0
LAYER
  5
207
100
AcDbSymbolTableRecord
100
AcDbLayerTableRecord
  2
11_NOTES_PUB
 70
0
 62
7
  6
CONTINUOUS
370
-3
390
F
  0
LAYER
  5
208
100
AcDbSymbolTableRecord
100
AcDbLayerTableRecord
  2
13_REF_GTOL
 70
0
 62
7
  6
CONTINUOUS
370
-3
390
F
  0
LAYER
  5
209
100
AcDbSymbolTableRecord
100
AcDbLayerTableRecord
  2
16_MISC
 70
0
 62
7
  6
CONTINUOUS
370
-3
390
F
  0
LAYER
  5
20A
100
AcDbSymbolTableRecord
100
AcDbLayerTableRecord
  2
17_NO_PRINT
 70
0
 62
7
  6
CONTINUOUS
370
-3
390
F
  0
LAYER
  5
20B
100
AcDbSymbolTableRecord
100
AcDbLayerTableRecord
  2
18_DATUM_CAMS_JOINTS
 70
0
 62
7
  6
CONTINUOUS
370
-3
390
F
  0
LAYER
  5
20C
100
AcDbSymbolTableRecord
100
AcDbLayerTableRecord
  2
19_DATUM_FUNCTIONAL
 70
0
 62
7
  6
CONTINUOUS
370
-3
390
F
  0
LAYER
  5
20D
100
AcDbSymbolTableRecord
100
AcDbLayerTableRecord
  2
20_DATUM_KINEMATIC_SCHEME
 70
0
 62
7
  6
CONTINUOUS
370
-3
390
F
  0
ENDTAB
  0
TABLE
  2
STYLE
  5
3
100
AcDbSymbolTable
 70
1
  0
STYLE
  5
11
100
AcDbSymbolTableRecord
100
AcDbTextStyleTableRecord
  2
STANDARD
 70
0
 40
0.0
 41
1.0
 50
0.0
 71
0
 42
0.2
  3
ARIAL.TTF
  4

  0
STYLE
  5
20E
100
AcDbSymbolTableRecord
100
AcDbTextStyleTableRecord
  2
TEXTSTYLE_1
 70
0
 40
0.0
 41
0.8
 50
0.0
 71
0
 42
0.2
  3
gdt
  4

  0
ENDTAB
  0
TABLE
  2
VIEW
  5
6
100
AcDbSymbolTable
 70
0
  0
ENDTAB
  0
TABLE
  2
UCS
  5
7
100
AcDbSymbolTable
 70
0
  0
ENDTAB
  0
TABLE
  2
APPID
  5
9
100
AcDbSymbolTable
 70
1
  0
APPID
  5
20F
100
AcDbSymbolTableRecord
100
AcDbRegAppTableRecord
  2
ACAD
 70
0
  0
ENDTAB
  0
TABLE
  2
BLOCK_RECORD
  5
1
100
AcDbSymbolTable
 70
0
  0
BLOCK_RECORD
  5
210
100
AcDbSymbolTableRecord
100
AcDbBlockTableRecord
  2
*Model_Space
  0
BLOCK_RECORD
  5
211
100
AcDbSymbolTableRecord
100
AcDbBlockTableRecord
  2
*Paper_Space
  0
BLOCK_RECORD
  5
212
100
AcDbSymbolTableRecord
100
AcDbBlockTableRecord
  2
_FILLED
  0
ENDTAB
  0
TABLE
  2
DIMSTYLE
  5
A
100
AcDbSymbolTable
 70
1
100
AcDbDimStyleTable
 71
0
  0
DIMSTYLE
105
213
100
AcDbSymbolTableRecord
100
AcDbDimStyleTableRecord
  2
STANDARD
 70
0
  3

  4

 40
1.0
 41
0.8121989531
 42
1.0
 43
0.38
 44
1.0
 45
0.0
 46
0.0
 47
0.01
 48
0.01
140
1.1370785344
141
0.09
142
0.0
143
25.4
144
1.0
145
0.0
146
1.0
147
0.625
 71
1
 72
0
 73
0
 74
0
 75
0
 76
0
 77
1
 78
8
 79
2
170
0
171
1
172
0
173
0
174
0
175
0
176
0
177
0
178
0
270
2
179
2
271
2
272
2
273
2
274
2
275
0
280
0
281
0
282
0
283
1
284
8
285
0
286
0
287
3
288
0
340
11
278
46
341
212
342
212
343
212
344
212
  0
ENDTAB
  0
ENDSEC
  0
SECTION
  2
BLOCKS
  0
BLOCK
  5
20
100
AcDbEntity
  8
0
100
AcDbBlockBegin
  2
*Model_Space
 70
0
 10
0.0
 20
0.0
 30
0.0
  3
*Model_Space
  1

  0
ENDBLK
  5
21
100
AcDbEntity
  8
0
100
AcDbBlockEnd
  0
BLOCK
  5
1C
100
AcDbEntity
  8
0
100
AcDbBlockBegin
  2
*Paper_Space
 70
0
 10
0.0
 20
0.0
 30
0.0
  3
*Paper_Space
  1

  0
ENDBLK
  5
1D
100
AcDbEntity
  8
0
100
AcDbBlockEnd
  0
BLOCK
  5
214
100
AcDbEntity
  8
0
100
AcDbBlockBegin
  2
_FILLED
 70
64
 10
0.0
 20
0.0
  3
_FILLED
  1

  0
SOLID
  5
215
100
AcDbEntity
  8
0
  6
BYBLOCK
 62
0
100
AcDbTrace
 10
0.0
 20
0.0
 11
-1.0
 21
0.25
 12
-1.0
 22
-0.25
 13
-1.0
 23
-0.25
  0
ENDBLK
  5
216
100
AcDbEntity
  8
0
  6
BYBLOCK
 62
0
100
AcDbBlockEnd
  0
ENDSEC
  0
SECTION
  2
ENTITIES
  0
LINE
  5
217
100
AcDbEntity
  8
0
100
AcDbLine
 62
7
  6
BYLAYER
 10
7.9148515431
 20
43.3886330277
 11
7.9148515431
 21
45.021637862
  0
LINE
  5
218
100
AcDbEntity
  8
0
100
AcDbLine
 62
7
  6
BYLAYER
 10
8.3541957873
 20
42.7762667969
 11
8.3541957873
 21
44.4092716312
  0
LINE
  5
219
100
AcDbEntity
  8
0
100
AcDbLine
 62
7
  6
BYLAYER
 10
9.6977042651
 20
42.0006093633
 11
9.6977042651
 21
43.6336141976
  0
LINE
  5
21A
100
AcDbEntity
  8
0
100
AcDbLine
 62
7
  6
BYLAYER
 10
26.7389485463
 20
25.6296901938
 11
25.3954400685
 21
26.4053476274
  0
LINE
  5
21B
100
AcDbEntity
  8
0
100
AcDbLine
 62
7
  6
BYLAYER
 10
21.7184694977
 20
28.5281995509
 11
20.37496102
 21
29.3038569845
  0
LINE
  5
21C
100
AcDbEntity
  8
0
100
AcDbLine
 62
7
  6
BYLAYER
 10
13.3746748359
 20
39.8777574398
 11
13.3746748359
 21
41.5107622741
  0
LINE
  5
21D
100
AcDbEntity
  8
0
100
AcDbLine
 62
7
  6
BYLAYER
 10
14.6474311256
 20
46.4913232747
 11
14.6474311256
 21
44.8583184404
  0
LINE
  5
21E
100
AcDbEntity
  8
0
100
AcDbLine
 62
7
  6
BYLAYER
 10
14.7181833136
 20
40.7351048405
 11
14.7181833136
 21
39.1021000063
  0
LINE
  5
21F
100
AcDbEntity
  8
0
100
AcDbLine
 62
7
  6
BYLAYER
 10
26.7389485463
 20
29.7122022795
 11
25.2186626372
 21
30.5899199017
  0
LINE
  5
220
100
AcDbEntity
  8
0
100
AcDbLine
 62
7
  6
BYLAYER
 10
20.37496102
 20
33.3863690702
 11
21.895246929
 21
32.5086514479
  0
LINE
  5
221
100
AcDbEntity
  8
0
100
AcDbLine
 62
7
  6
BYLAYER
 10
25.2186626372
 20
30.5735898534
 11
25.3954400685
 21
30.3536776921
  0
LINE
  5
222
100
AcDbEntity
  8
0
100
AcDbLine
 62
7
  6
BYLAYER
 10
16.8395036572
 20
39.1021051053
 11
16.8395036572
 21
40.7351099395
  0
LINE
  5
223
100
AcDbEntity
  8
0
100
AcDbLine
 62
7
  6
BYLAYER
 10
14.7181833136
 20
39.1021000063
 11
13.3746748359
 21
39.8777574398
  0
LINE
  5
224
100
AcDbEntity
  8
0
100
AcDbLine
 62
7
  6
BYLAYER
 10
9.6977042651
 20
42.0006093633
 11
8.3541957873
 21
42.7762667969
  0
LINE
  5
225
100
AcDbEntity
  8
0
100
AcDbLine
 62
7
  6
BYLAYER
 10
14.7181833136
 20
40.7351048405
 11
13.3746748359
 21
41.5107622741
  0
LINE
  5
226
100
AcDbEntity
  8
0
100
AcDbLine
 62
7
  6
BYLAYER
 10
9.6977042651
 20
43.6336141976
 11
8.3541957873
 21
44.4092716312
  0
LINE
  5
227
100
AcDbEntity
  8
0
100
AcDbLine
 62
7
  6
BYLAYER
 10
19.9356167758
 20
33.998735301
 11
19.9356167758
 21
29.9162232153
  0
LINE
  5
228
100
AcDbEntity
  8
0
100
AcDbLine
 62
7
  6
BYLAYER
 10
20.37496102
 20
29.3038569845
 11
20.37496102
 21
33.3863690702
  0
LINE
  5
229
100
AcDbEntity
  8
0
100
AcDbLine
 62
7
  6
BYLAYER
 10
53.0882850382
 20
71.3023869826
 11
49.341004157
 21
69.7875006703
  0
LINE
  5
22A
100
AcDbEntity
  8
0
100
AcDbLine
 62
7
  6
BYLAYER
 10
21.7184694977
 20
32.4765296156
 11
21.895246929
 21
32.4923213996
  0
LINE
  5
22B
100
AcDbEntity
  8
0
100
AcDbLine
 62
7
  6
BYLAYER
 10
21.7184694977
 20
32.4765296156
 11
21.7184694977
 21
28.5281995509
  0
LINE
  5
22C
100
AcDbEntity
  8
0
100
AcDbLine
 62
7
  6
BYLAYER
 10
21.895246929
 20
32.4923213996
 11
21.895246929
 21
32.5086514479
  0
LINE
  5
22D
100
AcDbEntity
  8
0
100
AcDbLine
 62
7
  6
BYLAYER
 10
23.4862290908
 20
49.9613703638
 11
23.4862290908
 21
51.5943751981
  0
LINE
  5
22E
100
AcDbEntity
  8
0
100
AcDbLine
 62
7
  6
BYLAYER
 10
25.2186626372
 20
30.5735898534
 11
25.2186626372
 21
30.5899199017
  0
LINE
  5
22F
100
AcDbEntity
  8
0
100
AcDbLine
 62
7
  6
BYLAYER
 10
25.3954400685
 20
30.3536776921
 11
25.3954400685
 21
26.4053476274
  0
LINE
  5
230
100
AcDbEntity
  8
0
100
AcDbLine
 62
7
  6
BYLAYER
 10
34.4463150158
 20
61.1880992167
 11
49.341004157
 21
69.7875006703
  0
LINE
  5
231
100
AcDbEntity
  8
0
100
AcDbLine
 62
7
  6
BYLAYER
 10
34.1634770137
 20
60.5349106101
 11
8.3541869554
 21
45.6339989938
  0
LINE
  5
232
100
AcDbEntity
  8
0
100
AcDbLine
 62
7
  6
BYLAYER
 10
51.275402239
 20
68.6998008262
 11
41.0223965994
 21
62.780260595
  0
LINE
  5
233
100
AcDbEntity
  8
0
100
AcDbLine
 62
7
  6
BYLAYER
 10
26.6681963582
 20
35.2479685884
 11
26.6681963582
 21
31.4268035902
  0
LINE
  5
234
100
AcDbEntity
  8
0
100
AcDbLine
 62
7
  6
BYLAYER
 10
26.7389485463
 20
29.7122022795
 11
26.7389485463
 21
25.6296901938
  0
LINE
  5
235
100
AcDbEntity
  8
0
100
AcDbLine
 62
7
  6
BYLAYER
 10
26.8449737895
 20
35.366360525
 11
26.8449737895
 21
35.3500304767
  0
LINE
  5
236
100
AcDbEntity
  8
0
100
AcDbLine
 62
7
  6
BYLAYER
 10
27.0217482768
 20
53.6355959675
 11
27.0217482768
 21
52.0025911332
  0
LINE
  5
237
100
AcDbEntity
  8
0
100
AcDbLine
 62
7
  6
BYLAYER
 10
27.0217482768
 20
53.6355959675
 11
23.4862290908
 21
51.5943751981
  0
LINE
  5
238
100
AcDbEntity
  8
0
100
AcDbLine
 62
7
  6
BYLAYER
 10
14.6474311256
 20
46.4913232747
 11
9.6977042651
 21
43.6336141976
  0
LINE
  5
239
100
AcDbEntity
  8
0
100
AcDbLine
 62
7
  6
BYLAYER
 10
51.275402239
 20
67.0667959919
 11
42.4366404881
 21
61.9637649767
  0
LINE
  5
23A
100
AcDbEntity
  8
0
100
AcDbLine
 62
7
  6
BYLAYER
 10
27.0217482768
 20
52.0025911332
 11
23.4862290908
 21
49.9613703638
  0
LINE
  5
23B
100
AcDbEntity
  8
0
100
AcDbLine
 62
7
  6
BYLAYER
 10
14.6474311256
 20
44.8583184404
 11
9.6977042651
 21
42.0006093633
  0
LINE
  5
23C
100
AcDbEntity
  8
0
100
AcDbLine
 62
7
  6
BYLAYER
 10
58.7004067262
 20
68.035675652
 11
57.7097036163
 21
67.5676925154
  0
LINE
  5
23D
100
AcDbEntity
  8
0
100
AcDbLine
 62
7
  6
BYLAYER
 10
28.8602688898
 20
25.6296952929
 11
28.8602688898
 21
29.7122073785
  0
LINE
  5
23E
100
AcDbEntity
  8
0
100
AcDbLine
 62
7
  6
BYLAYER
 10
34.4463150158
 20
61.1880992167
 11
34.1634770137
 21
60.5349106101
  0
LINE
  5
23F
100
AcDbEntity
  8
0
100
AcDbLine
 62
7
  6
BYLAYER
 10
54.8299073715
 20
69.2303060392
 11
55.6423594272
 21
69.8036097739
  0
LINE
  5
240
100
AcDbEntity
  8
0
100
AcDbLine
 62
7
  6
BYLAYER
 10
18.3244016964
 20
44.3684713512
 11
13.3746748359
 21
41.5107622741
  0
LINE
  5
241
100
AcDbEntity
  8
0
100
AcDbLine
 62
7
  6
BYLAYER
 10
27.1631996615
 20
49.4715232746
 11
30.6987188476
 21
51.512744044
  0
LINE
  5
242
100
AcDbEntity
  8
0
100
AcDbLine
 62
7
  6
BYLAYER
 10
46.5378524555
 20
59.5959827098
 11
56.7908580951
 21
65.5155229409
  0
LINE
  5
243
100
AcDbEntity
  8
0
100
AcDbLine
 62
7
  6
BYLAYER
 10
42.6487937155
 20
55.6360215558
 11
16.8395036572
 21
40.7351099395
  0
LINE
  5
244
100
AcDbEntity
  8
0
100
AcDbLine
 62
7
  6
BYLAYER
 10
43.7801633878
 20
55.799321257
 11
58.6748525289
 21
64.3987227106
  0
LINE
  5
245
100
AcDbEntity
  8
0
100
AcDbLine
 62
7
  6
BYLAYER
 10
42.6487937155
 20
54.0030167216
 11
16.8395036572
 21
39.1021051053
  0
LINE
  5
246
100
AcDbEntity
  8
0
100
AcDbLine
 62
7
  6
BYLAYER
 10
58.6748525289
 20
62.7657178764
 11
43.7801633878
 21
54.1663164227
  0
LINE
  5
247
100
AcDbEntity
  8
0
100
AcDbLine
 62
7
  6
BYLAYER
 10
35.5069943234
 20
38.6708148632
 11
35.5069943234
 21
40.327046441
  0
LINE
  5
248
100
AcDbEntity
  8
0
100
AcDbLine
 62
7
  6
BYLAYER
 10
35.6837717547
 20
40.4530824001
 11
35.6837717547
 21
40.4694124484
  0
LINE
  5
249
100
AcDbEntity
  8
0
100
AcDbLine
 62
7
  6
BYLAYER
 10
39.0425135095
 20
42.3922412811
 11
39.0425135095
 21
38.571076283
  0
LINE
  5
24A
100
AcDbEntity
  8
0
100
AcDbLine
 62
7
  6
BYLAYER
 10
39.2192909408
 20
42.5106332178
 11
39.2192909408
 21
42.4943031694
  0
LINE
  5
24B
100
AcDbEntity
  8
0
100
AcDbLine
 62
7
  6
BYLAYER
 10
58.6748525289
 20
64.3987227106
 11
61.2987188975
 21
66.5621980212
  0
LINE
  5
24C
100
AcDbEntity
  8
0
100
AcDbLine
 62
7
  6
BYLAYER
 10
61.2987188975
 20
64.9291931869
 11
58.6748525289
 21
62.7657178764
  0
LINE
  5
24D
100
AcDbEntity
  8
0
100
AcDbLine
 62
7
  6
BYLAYER
 10
20.3749521881
 20
34.6110964327
 11
44.4164826533
 21
48.4913976644
  0
LINE
  5
24E
100
AcDbEntity
  8
0
100
AcDbLine
 62
7
  6
BYLAYER
 10
43.7801633878
 20
54.1663164227
 11
42.6487937155
 21
54.0030167216
  0
LINE
  5
24F
100
AcDbEntity
  8
0
100
AcDbLine
 62
7
  6
BYLAYER
 10
55.6423594272
 20
69.8036097739
 11
55.7327389279
 21
69.9498469895
  0
LINE
  5
250
100
AcDbEntity
  8
0
100
AcDbLine
 62
7
  6
BYLAYER
 10
54.7376432095
 20
69.0827435267
 11
54.8299073715
 21
69.2303060392
  0
LINE
  5
251
100
AcDbEntity
  8
0
100
AcDbLine
 62
7
  6
BYLAYER
 10
39.2192909408
 20
42.5106332178
 11
35.6837717547
 21
40.4694124484
  0
LINE
  5
252
100
AcDbEntity
  8
0
100
AcDbLine
 62
7
  6
BYLAYER
 10
26.8449737895
 20
35.366360525
 11
21.895246929
 21
32.5086514479
  0
LINE
  5
253
100
AcDbEntity
  8
0
100
AcDbLine
 62
7
  6
BYLAYER
 10
42.6487937155
 20
55.6360215558
 11
43.7801633878
 21
55.799321257
  0
LINE
  5
254
100
AcDbEntity
  8
0
100
AcDbLine
 62
7
  6
BYLAYER
 10
46.5378029969
 20
48.4914027634
 11
52.9017905232
 21
44.8172359727
  0
LINE
  5
255
100
AcDbEntity
  8
0
100
AcDbLine
 62
7
  6
BYLAYER
 10
42.6487937155
 20
55.6360215558
 11
42.6487937155
 21
54.0030167216
  0
LINE
  5
256
100
AcDbEntity
  8
0
100
AcDbLine
 62
7
  6
BYLAYER
 10
43.7801633878
 20
55.799321257
 11
43.7801633878
 21
54.1663164227
  0
LINE
  5
257
100
AcDbEntity
  8
0
100
AcDbLine
 62
7
  6
BYLAYER
 10
39.2192909408
 20
42.4943031694
 11
35.6837717547
 21
40.4530824001
  0
LINE
  5
258
100
AcDbEntity
  8
0
100
AcDbLine
 62
7
  6
BYLAYER
 10
26.8449737895
 20
35.3500304767
 11
21.895246929
 21
32.4923213996
  0
LINE
  5
259
100
AcDbEntity
  8
0
100
AcDbLine
 62
7
  6
BYLAYER
 10
25.2186626372
 20
30.5899199017
 11
30.1683894977
 21
33.4476289788
  0
LINE
  5
25A
100
AcDbEntity
  8
0
100
AcDbLine
 62
7
  6
BYLAYER
 10
39.0071874629
 20
38.5506809022
 11
42.542706649
 21
40.5919016715
  0
LINE
  5
25B
100
AcDbEntity
  8
0
100
AcDbLine
 62
7
  6
BYLAYER
 10
25.2292995252
 20
30.555166113
 11
21.7184694977
 21
28.5281995509
  0
LINE
  5
25C
100
AcDbEntity
  8
0
100
AcDbLine
 62
7
  6
BYLAYER
 10
52.9017993551
 20
43.5925086101
 11
28.8602688898
 21
29.7122073785
  0
LINE
  5
25D
100
AcDbEntity
  8
0
100
AcDbLine
 62
7
  6
BYLAYER
 10
51.275402239
 20
68.6998008262
 11
51.275402239
 21
67.0667959919
  0
LINE
  5
25E
100
AcDbEntity
  8
0
100
AcDbLine
 62
7
  6
BYLAYER
 10
61.2987188975
 20
66.5621980212
 11
61.3709999682
 21
66.6946572031
  0
LINE
  5
25F
100
AcDbEntity
  8
0
100
AcDbLine
 62
7
  6
BYLAYER
 10
61.3709999682
 20
65.0616523689
 11
61.2987188975
 21
64.9291931869
  0
LINE
  5
260
100
AcDbEntity
  8
0
100
AcDbLine
 62
7
  6
BYLAYER
 10
41.0223965994
 20
62.780260595
 11
46.5378524555
 21
59.5959827098
  0
LINE
  5
261
100
AcDbEntity
  8
0
100
AcDbLine
 62
7
  6
BYLAYER
 10
52.9017993551
 20
43.5925086101
 11
52.9017993551
 21
39.5099965245
  0
LINE
  5
262
100
AcDbEntity
  8
0
100
AcDbLine
 62
7
  6
BYLAYER
 10
53.3411347674
 20
44.2048697419
 11
53.3411347674
 21
40.1223576563
  0
LINE
  5
263
100
AcDbEntity
  8
0
100
AcDbLine
 62
7
  6
BYLAYER
 10
52.9017993551
 20
39.5099965245
 11
28.8602688898
 21
25.6296952929
  0
LINE
  5
264
100
AcDbEntity
  8
0
100
AcDbLine
 62
7
  6
BYLAYER
 10
54.8280292241
 20
68.9567295561
 11
54.8280292241
 21
69.2289807316
  0
LINE
  5
265
100
AcDbEntity
  8
0
100
AcDbLine
 62
7
  6
BYLAYER
 10
55.6423594272
 20
69.8036097739
 11
55.6423594272
 21
68.4647421807
  0
LINE
  5
266
100
AcDbEntity
  8
0
100
AcDbLine
 62
7
  6
BYLAYER
 10
55.7327754529
 20
69.9498469426
 11
55.7327754529
 21
68.4125416448
  0
LINE
  5
267
100
AcDbEntity
  8
0
100
AcDbLine
 62
7
  6
BYLAYER
 10
58.6748525289
 20
64.3987227106
 11
58.6748525289
 21
62.7657178764
  0
LINE
  5
268
100
AcDbEntity
  8
0
100
AcDbLine
 62
7
  6
BYLAYER
 10
55.3766142063
 20
64.6990137249
 11
51.275402239
 21
67.0667959919
  0
LINE
  5
269
100
AcDbEntity
  8
0
100
AcDbLine
 62
7
  6
BYLAYER
 10
56.7908580951
 20
65.5155229409
 11
51.275402239
 21
68.6998008262
  0
LINE
  5
26A
100
AcDbEntity
  8
0
100
AcDbLine
 62
7
  6
BYLAYER
 10
61.2987188975
 20
66.5621980212
 11
61.2987188975
 21
64.9291931869
  0
LINE
  5
26B
100
AcDbEntity
  8
0
100
AcDbLine
 62
7
  6
BYLAYER
 10
61.3710571246
 20
66.6946571439
 11
61.3710571246
 21
65.0616523096
  0
LINE
  5
26C
100
AcDbEntity
  8
0
100
AcDbLine
 62
7
  6
BYLAYER
 10
57.171270159
 20
67.5820451274
 11
54.8547716635
 21
68.9194459013
  0
LINE
  5
26D
100
AcDbEntity
  8
0
100
AcDbLine
 62
7
  6
BYLAYER
 10
54.8547716635
 20
68.9194459013
 11
54.7376432095
 21
69.0827435267
  0
LINE
  5
26E
100
AcDbEntity
  8
0
100
AcDbLine
 62
7
  6
BYLAYER
 10
61.2538986595
 20
66.8579548055
 11
59.2388401835
 21
68.0213230401
  0
LINE
  5
26F
100
AcDbEntity
  8
0
100
AcDbLine
 62
7
  6
BYLAYER
 10
55.6135197298
 20
70.1143554292
 11
53.6005585118
 21
71.2765128388
  0
LINE
  5
270
100
AcDbEntity
  8
0
100
AcDbLine
 62
7
  6
BYLAYER
 10
55.7327389279
 20
69.9498469895
 11
55.6135197298
 21
70.1143554292
  0
ARC
  5
271
100
AcDbEntity
  8
0
100
AcDbCircle
 62
7
  6
BYLAYER
 10
40.3222103836
 20
40.5839729127
 40
2.2058542534
100
AcDbArc
 50
119.8295230701
 51
119.9997695414
  0
ARC
  5
272
100
AcDbEntity
  8
0
100
AcDbCircle
 62
7
  6
BYLAYER
 10
27.9478932282
 20
33.4397002272
 40
2.205854245
100
AcDbArc
 50
119.8295230698
 51
119.9997695417
  0
ARC
  5
273
100
AcDbEntity
  8
0
100
AcDbCircle
 62
7
  6
BYLAYER
 10
36.7796447265
 20
38.571282046
 40
2.1917656341
100
AcDbArc
 50
119.9997028155
 51
120.2601153582
  0
ARC
  5
274
100
AcDbEntity
  8
0
100
AcDbCircle
 62
7
  6
BYLAYER
 10
30.0727644627
 20
34.4070734152
 40
0.7839078226
100
AcDbArc
 50
358.820665292
 51
359.9942505267
  0
ARC
  5
275
100
AcDbEntity
  8
0
100
AcDbCircle
 62
7
  6
BYLAYER
 10
42.4470816144
 20
41.551346108
 40
0.7839078222
100
AcDbArc
 50
358.820665292
 51
359.9942505269
  0
ARC
  5
276
100
AcDbEntity
  8
0
100
AcDbCircle
 62
7
  6
BYLAYER
 10
35.7790538498
 20
39.5099678721
 40
0.7835648809
100
AcDbArc
 50
179.9942811106
 51
181.129883504
  0
SPLINE
  5
277
100
AcDbEntity
  8
0
100
AcDbSpline
 62
7
  6
BYLAYER
 70
0
 71
3
 72
13
 73
9
 74
0
 42
0.0000001
 43
0.0000001
 44
0.0000000001
 40
0.0
 40
0.0
 40
0.0
 40
0.0
 40
0.2893791468
 40
0.548316804
 40
0.6677447649
 40
0.7817680404
 40
0.8919063684
 40
1.0
 40
1.0
 40
1.0
 40
1.0
 10
20.3749521881
 20
34.6110964327
 30
0.0
 10
20.3091172387
 20
34.5730868339
 30
0.0
 10
20.1897292577
 20
34.4909256969
 30
0.0
 10
20.0676335586
 20
34.3624824035
 30
0.0
 10
19.9988988114
 20
34.2524390829
 30
0.0
 10
19.9625820961
 20
34.1694175804
 30
0.0
 10
19.9405443868
 20
34.0845782296
 30
0.0
 10
19.9356278016
 20
34.027131362
 30
0.0
 10
19.935627802
 20
33.998735301
 30
0.0
  0
SPLINE
  5
278
100
AcDbEntity
  8
0
100
AcDbSpline
 62
7
  6
BYLAYER
 70
0
 71
3
 72
15
 73
11
 74
0
 42
0.0000001
 43
0.0000001
 44
0.0000000001
 40
0.0
 40
0.0
 40
0.0
 40
0.0
 40
0.1141469224
 40
0.2373360366
 40
0.366976904
 40
0.5000005214
 40
0.6330240662
 40
0.7626647219
 40
0.8858535023
 40
1.0
 40
1.0
 40
1.0
 40
1.0
 10
46.5378029969
 20
48.4914027634
 30
0.0
 10
46.465197212
 20
48.5333207845
 30
0.0
 10
46.306410993
 20
48.6072498002
 30
0.0
 10
46.047856942
 20
48.6858498407
 30
0.0
 10
45.7679183349
 20
48.7342014676
 30
0.0
 10
45.4771410364
 20
48.7505342151
 30
0.0
 10
45.1863639703
 20
48.7342000875
 30
0.0
 10
44.9064260499
 20
48.6858471314
 30
0.0
 10
44.647873112
 20
48.6072458618
 30
0.0
 10
44.4890878658
 20
48.5333160531
 30
0.0
 10
44.4164826533
 20
48.4913976644
 30
0.0
  0
SPLINE
  5
279
100
AcDbEntity
  8
0
100
AcDbSpline
 62
7
  6
BYLAYER
 70
0
 71
3
 72
23
 73
19
 74
0
 42
0.0000001
 43
0.0000001
 44
0.0000000001
 40
0.0
 40
0.0
 40
0.0
 40
0.0
 40
0.0622711096
 40
0.1285135265
 40
0.1979669205
 40
0.2698117506
 40
0.3430670615
 40
0.4166986199
 40
0.4896607425
 40
0.5609289046
 40
0.6295589545
 40
0.6947339042
 40
0.7558179799
 40
0.8124315379
 40
0.8645283951
 40
0.9124840475
 40
0.9571793179
 40
1.0
 40
1.0
 40
1.0
 40
1.0
 10
39.0071874629
 20
38.5506809022
 30
0.0
 10
38.9231997505
 20
38.5021908633
 30
0.0
 10
38.7432054662
 20
38.4133975656
 30
0.0
 10
38.4529510281
 20
38.3079314524
 30
0.0
 10
38.1392776438
 20
38.2279262448
 30
0.0
 10
37.8089111797
 20
38.1750272468
 30
0.0
 10
37.4687428051
 20
38.1503430143
 30
0.0
 10
37.1259716477
 20
38.1543910107
 30
0.0
 10
36.7878364016
 20
38.187086107
 30
0.0
 10
36.4614759184
 20
38.2477592262
 30
0.0
 10
36.1537583144
 20
38.3351127324
 30
0.0
 10
35.8711273851
 20
38.4473435705
 30
0.0
 10
35.6194789696
 20
38.5822042251
 30
0.0
 10
35.4040233704
 20
38.7370399233
 30
0.0
 10
35.2292823162
 20
38.9089464451
 30
0.0
 10
35.0992322197
 20
39.0949329665
 30
0.0
 10
35.0174714223
 20
39.2913661431
 30
0.0
 10
34.9969563558
 20
39.4278412175
 30
0.0
 10
34.9956413226
 20
39.4945168274
 30
0.0
  0
SPLINE
  5
27A
100
AcDbEntity
  8
0
100
AcDbSpline
 62
7
  6
BYLAYER
 70
0
 71
3
 72
14
 73
10
 74
0
 42
0.0000001
 43
0.0000001
 44
0.0000000001
 40
0.0
 40
0.0
 40
0.0
 40
0.0
 40
0.1079428409
 40
0.2180961333
 40
0.3322263364
 40
0.4517653781
 40
0.5778124642
 40
0.7111163678
 40
1.0
 40
1.0
 40
1.0
 40
1.0
 10
30.8565061842
 20
34.3909363226
 30
0.0
 10
30.8556032766
 20
34.3470759295
 30
0.0
 10
30.8462841654
 20
34.2584395625
 30
0.0
 10
30.8101384726
 20
34.1277719322
 30
0.0
 10
30.7522948428
 20
33.9999948725
 30
0.0
 10
30.6734773624
 20
33.876341923
 30
0.0
 10
30.5744636112
 20
33.7578941933
 30
0.0
 10
30.4126001877
 20
33.604246222
 30
0.0
 10
30.2700670062
 20
33.5063321653
 30
0.0
 10
30.1683894977
 20
33.4476289788
 30
0.0
  0
SPLINE
  5
27B
100
AcDbEntity
  8
0
100
AcDbSpline
 62
7
  6
BYLAYER
 70
0
 71
3
 72
23
 73
19
 74
0
 42
0.0000001
 43
0.0000001
 44
0.0000000001
 40
0.0
 40
0.0
 40
0.0
 40
0.0
 40
0.0428177089
 40
0.0875047128
 40
0.1354441778
 40
0.187516262
 40
0.2440974849
 40
0.3051440682
 40
0.3702795108
 40
0.4388717764
 40
0.5101080763
 40
0.5830488141
 40
0.6566747111
 40
0.7299417604
 40
0.8018166801
 40
0.8713208296
 40
0.9376345018
 40
1.0
 40
1.0
 40
1.0
 40
1.0
 10
30.8565234799
 20
34.4062100429
 30
0.0
 10
30.8552096477
 20
34.4727875524
 30
0.0
 10
30.8347511447
 20
34.6090527829
 30
0.0
 10
30.7532229631
 20
34.8052082968
 30
0.0
 10
30.6235392343
 20
34.9909654682
 30
0.0
 10
30.4492739436
 20
35.162700595
 30
0.0
 10
30.2343857495
 20
35.3174341392
 30
0.0
 10
29.9833727943
 20
35.4522712881
 30
0.0
 10
29.7014183925
 20
35.5645646529
 30
0.0
 10
29.3943884866
 20
35.6520737226
 30
0.0
 10
29.0686928876
 20
35.7129972302
 30
0.0
 10
28.7311626037
 20
35.7460372805
 30
0.0
 10
28.3889023759
 20
35.7505170729
 30
0.0
 10
28.0491213939
 20
35.7263474589
 30
0.0
 10
27.7189938291
 20
35.6740258367
 30
0.0
 10
27.4053866979
 20
35.5946536776
 30
0.0
 10
27.114995575
 20
35.4898562925
 30
0.0
 10
26.9347957679
 20
35.4015448758
 30
0.0
 10
26.8506549317
 20
35.3532992111
 30
0.0
  0
SPLINE
  5
27C
100
AcDbEntity
  8
0
100
AcDbSpline
 62
7
  6
BYLAYER
 70
0
 71
3
 72
14
 73
10
 74
0
 42
0.0000001
 43
0.0000001
 44
0.0000000001
 40
0.0
 40
0.0
 40
0.0
 40
0.0
 40
0.1079428409
 40
0.2180961333
 40
0.3322263364
 40
0.4517653781
 40
0.5778124642
 40
0.7111163678
 40
1.0
 40
1.0
 40
1.0
 40
1.0
 10
43.2308233354
 20
41.5352090154
 30
0.0
 10
43.2299204278
 20
41.4913486222
 30
0.0
 10
43.2206013166
 20
41.4027122553
 30
0.0
 10
43.1844556238
 20
41.272044625
 30
0.0
 10
43.126611994
 20
41.1442675652
 30
0.0
 10
43.0477945136
 20
41.0206146158
 30
0.0
 10
42.9487807624
 20
40.9021668861
 30
0.0
 10
42.7869173389
 20
40.7485189147
 30
0.0
 10
42.6443841574
 20
40.650604858
 30
0.0
 10
42.542706649
 20
40.5919016715
 30
0.0
  0
SPLINE
  5
27D
100
AcDbEntity
  8
0
100
AcDbSpline
 62
7
  6
BYLAYER
 70
0
 71
3
 72
23
 73
19
 74
0
 42
0.0000001
 43
0.0000001
 44
0.0000000001
 40
0.0
 40
0.0
 40
0.0
 40
0.0
 40
0.0428177089
 40
0.0875047128
 40
0.1354441778
 40
0.187516262
 40
0.2440974849
 40
0.3051440682
 40
0.3702795108
 40
0.4388717764
 40
0.5101080763
 40
0.5830488141
 40
0.6566747111
 40
0.7299417604
 40
0.8018166801
 40
0.8713208296
 40
0.9376345018
 40
1.0
 40
1.0
 40
1.0
 40
1.0
 10
43.2308406311
 20
41.5504827357
 30
0.0
 10
43.229526799
 20
41.6170602452
 30
0.0
 10
43.2090682959
 20
41.7533254756
 30
0.0
 10
43.1275401143
 20
41.9494809896
 30
0.0
 10
42.9978563855
 20
42.1352381609
 30
0.0
 10
42.8235910948
 20
42.3069732877
 30
0.0
 10
42.6087029007
 20
42.461706832
 30
0.0
 10
42.3576899455
 20
42.5965439808
 30
0.0
 10
42.0757355437
 20
42.7088373456
 30
0.0
 10
41.7687056379
 20
42.7963464153
 30
0.0
 10
41.4430100389
 20
42.857269923
 30
0.0
 10
41.1054797549
 20
42.8903099733
 30
0.0
 10
40.7632195271
 20
42.8947897656
 30
0.0
 10
40.4234385451
 20
42.8706201517
 30
0.0
 10
40.0933109804
 20
42.8182985295
 30
0.0
 10
39.7797038492
 20
42.7389263704
 30
0.0
 10
39.4893127263
 20
42.6341289853
 30
0.0
 10
39.3091129191
 20
42.5458175685
 30
0.0
 10
39.2249720829
 20
42.4975719038
 30
0.0
  0
SPLINE
  5
27E
100
AcDbEntity
  8
0
100
AcDbSpline
 62
7
  6
BYLAYER
 70
0
 71
3
 72
13
 73
9
 74
0
 42
0.0000001
 43
0.0000001
 44
0.0000000001
 40
0.0
 40
0.0
 40
0.0
 40
0.0
 40
0.2893796193
 40
0.5483174434
 40
0.6677453536
 40
0.7817684919
 40
0.8919066128
 40
1.0
 40
1.0
 40
1.0
 40
1.0
 10
20.37496102
 20
29.3038569845
 30
0.0
 10
20.3091248395
 20
29.3418666611
 30
0.0
 10
20.1897345946
 20
29.4240281106
 30
0.0
 10
20.067636371
 20
29.5524723996
 30
0.0
 10
19.9989001639
 20
29.6625167824
 30
0.0
 10
19.9625826744
 20
29.7455391154
 30
0.0
 10
19.9405444942
 20
29.8303793598
 30
0.0
 10
19.9356278023
 20
29.887826852
 30
0.0
 10
19.935627802
 20
29.9162232153
 30
0.0
  0
SPLINE
  5
27F
100
AcDbEntity
  8
0
100
AcDbSpline
 62
7
  6
BYLAYER
 70
0
 71
3
 72
15
 73
11
 74
0
 42
0.0000001
 43
0.0000001
 44
0.0000000001
 40
0.0
 40
0.0
 40
0.0
 40
0.0
 40
0.1141464977
 40
0.2373352781
 40
0.3669759338
 40
0.4999994786
 40
0.633023096
 40
0.7626639634
 40
0.8858530776
 40
1.0
 40
1.0
 40
1.0
 40
1.0
 10
28.8602688898
 20
25.6296952929
 30
0.0
 10
28.7876636774
 20
25.5877769041
 30
0.0
 10
28.6288784311
 20
25.5138470954
 30
0.0
 10
28.3703254932
 20
25.4352458258
 30
0.0
 10
28.0903875729
 20
25.3868928698
 30
0.0
 10
27.7996105068
 20
25.3705587421
 30
0.0
 10
27.5088332082
 20
25.3868914897
 30
0.0
 10
27.2288946011
 20
25.4352431166
 30
0.0
 10
26.9703405501
 20
25.513843157
 30
0.0
 10
26.8115543311
 20
25.5877721727
 30
0.0
 10
26.7389485463
 20
25.6296901938
 30
0.0
  0
SPLINE
  5
280
100
AcDbEntity
  8
0
100
AcDbSpline
 62
7
  6
BYLAYER
 70
0
 71
3
 72
13
 73
9
 74
0
 42
0.0000001
 43
0.0000001
 44
0.0000000001
 40
0.0
 40
0.0
 40
0.0
 40
0.0
 40
0.1080936316
 40
0.2182319596
 40
0.3322552351
 40
0.451683196
 40
0.7106208532
 40
1.0
 40
1.0
 40
1.0
 40
1.0
 10
53.3411237412
 20
40.1223576563
 30
0.0
 10
53.3411237416
 20
40.0939615952
 30
0.0
 10
53.3362071564
 20
40.0365147276
 30
0.0
 10
53.314169447
 20
39.9516753769
 30
0.0
 10
53.2778527318
 20
39.8686538743
 30
0.0
 10
53.2091179845
 20
39.7586105537
 30
0.0
 10
53.0870222854
 20
39.6301672603
 30
0.0
 10
52.9676343044
 20
39.5480061233
 30
0.0
 10
52.9017993551
 20
39.5099965245
 30
0.0
  0
SPLINE
  5
281
100
AcDbEntity
  8
0
100
AcDbSpline
 62
7
  6
BYLAYER
 70
0
 71
3
 72
13
 73
9
 74
0
 42
0.0000001
 43
0.0000001
 44
0.0000000001
 40
0.0
 40
0.0
 40
0.0
 40
0.0
 40
0.1080933872
 40
0.2182315081
 40
0.3322546464
 40
0.4516825566
 40
0.7106203807
 40
1.0
 40
1.0
 40
1.0
 40
1.0
 10
53.3411237412
 20
44.2048697419
 30
0.0
 10
53.3411237408
 20
44.2332661052
 30
0.0
 10
53.336207049
 20
44.2907135974
 30
0.0
 10
53.3141688687
 20
44.3755538419
 30
0.0
 10
53.2778513792
 20
44.4585761749
 30
0.0
 10
53.2091151721
 20
44.5686205576
 30
0.0
 10
53.0870169485
 20
44.6970648466
 30
0.0
 10
52.9676267037
 20
44.7792262961
 30
0.0
 10
52.9017905232
 20
44.8172359727
 30
0.0
  0
SPLINE
  5
282
100
AcDbEntity
  8
0
100
AcDbSpline
 62
7
  6
BYLAYER
 70
0
 71
3
 72
14
 73
10
 74
0
 42
0.0000001
 43
0.0000001
 44
0.0000000001
 40
0.0
 40
0.0
 40
0.0
 40
0.0
 40
0.2888839579
 40
0.4221852789
 40
0.5482307436
 40
0.6677691316
 40
0.7818994094
 40
0.892053864
 40
1.0
 40
1.0
 40
1.0
 40
1.0
 10
35.6837717547
 20
40.4530824001
 30
0.0
 10
35.582092949
 20
40.3943784647
 30
0.0
 10
35.4395583631
 20
40.2964643539
 30
0.0
 10
35.2776949803
 20
40.1428149396
 30
0.0
 10
35.178680758
 20
40.0243677587
 30
0.0
 10
35.0998636562
 20
39.9007138133
 30
0.0
 10
35.0420160805
 20
39.772936279
 30
0.0
 10
35.0058741547
 20
39.6422639525
 30
0.0
 10
34.9965541367
 20
39.5536249841
 30
0.0
 10
34.9956513111
 20
39.5097627394
 30
0.0
  0
SPLINE
  5
283
100
AcDbEntity
  8
0
100
AcDbSpline
 62
7
  6
BYLAYER
 70
0
 71
3
 72
13
 73
9
 74
0
 42
0.0000001
 43
0.0000001
 44
0.0000000001
 40
0.0
 40
0.0
 40
0.0
 40
0.0
 40
0.1080933872
 40
0.2182315081
 40
0.3322546464
 40
0.4516825566
 40
0.7106203807
 40
1.0
 40
1.0
 40
1.0
 40
1.0
 10
19.935627802
 20
33.998735301
 30
0.0
 10
19.9356278023
 20
33.9703389376
 30
0.0
 10
19.9405444942
 20
33.9128914455
 30
0.0
 10
19.9625826744
 20
33.828051201
 30
0.0
 10
19.9989001639
 20
33.745028868
 30
0.0
 10
20.067636371
 20
33.6349844852
 30
0.0
 10
20.1897345946
 20
33.5065401962
 30
0.0
 10
20.3091248395
 20
33.4243787468
 30
0.0
 10
20.37496102
 20
33.3863690702
 30
0.0
  0
SPLINE
  5
284
100
AcDbEntity
  8
0
100
AcDbSpline
 62
7
  6
BYLAYER
 70
0
 71
3
 72
15
 73
11
 74
0
 42
0.0000001
 43
0.0000001
 44
0.0000000001
 40
0.0
 40
0.0
 40
0.0
 40
0.0
 40
0.1141469224
 40
0.2373360366
 40
0.366976904
 40
0.5000005214
 40
0.6330240662
 40
0.7626647219
 40
0.8858535023
 40
1.0
 40
1.0
 40
1.0
 40
1.0
 10
26.7389485463
 20
29.7122022795
 30
0.0
 10
26.8115543311
 20
29.6702842584
 30
0.0
 10
26.9703405501
 20
29.5963552427
 30
0.0
 10
27.2288946011
 20
29.5177552022
 30
0.0
 10
27.5088332082
 20
29.4694035753
 30
0.0
 10
27.7996105068
 20
29.4530708278
 30
0.0
 10
28.0903875729
 20
29.4694049554
 30
0.0
 10
28.3703254932
 20
29.5177579115
 30
0.0
 10
28.6288784311
 20
29.596359181
 30
0.0
 10
28.7876636774
 20
29.6702889898
 30
0.0
 10
28.8602688898
 20
29.7122073785
 30
0.0
  0
SPLINE
  5
285
100
AcDbEntity
  8
0
100
AcDbSpline
 62
7
  6
BYLAYER
 70
0
 71
3
 72
23
 73
19
 74
0
 42
0.0000001
 43
0.0000001
 44
0.0000000001
 40
0.0
 40
0.0
 40
0.0
 40
0.0
 40
0.0623787777
 40
0.1287507674
 40
0.1983470598
 40
0.2703366052
 40
0.3437256964
 40
0.4174677577
 40
0.4905053514
 40
0.561804046
 40
0.630412623
 40
0.6955116216
 40
0.7564684289
 40
0.8129138272
 40
0.8648231088
 40
0.9126056877
 40
0.9571867145
 40
1.0
 40
1.0
 40
1.0
 40
1.0
 10
26.8449737895
 20
35.366360525
 30
0.0
 10
26.929385044
 20
35.4150950946
 30
0.0
 10
27.1103415255
 20
35.5042905578
 30
0.0
 10
27.4022026275
 20
35.6100801964
 30
0.0
 10
27.7176438862
 20
35.6901432656
 30
0.0
 10
28.0498377443
 20
35.7428192403
 30
0.0
 10
28.3917878731
 20
35.76698957
 30
0.0
 10
28.73618707
 20
35.7621445756
 30
0.0
 10
29.0756928616
 20
35.7283896854
 30
0.0
 10
29.4030683505
 20
35.6664191967
 30
0.0
 10
29.711358736
 20
35.5775699599
 30
0.0
 10
29.9940495461
 20
35.4636952726
 30
0.0
 10
30.2451895836
 20
35.3270933071
 30
0.0
 10
30.4595265196
 20
35.1704659131
 30
0.0
 10
30.6325115003
 20
34.996769904
 30
0.0
 10
30.7601416529
 20
34.8090518255
 30
0.0
 10
30.8387696054
 20
34.6110289282
 30
0.0
 10
30.8566789527
 20
34.473892388
 30
0.0
 10
30.8566722814
 20
34.4069947522
 30
0.0
  0
SPLINE
  5
286
100
AcDbEntity
  8
0
100
AcDbSpline
 62
7
  6
BYLAYER
 70
0
 71
3
 72
13
 73
9
 74
0
 42
0.0000001
 43
0.0000001
 44
0.0000000001
 40
0.0
 40
0.0
 40
0.0
 40
0.0
 40
0.2893791468
 40
0.548316804
 40
0.6677447649
 40
0.7817680404
 40
0.8919063684
 40
1.0
 40
1.0
 40
1.0
 40
1.0
 10
52.9017993551
 20
43.5925086101
 30
0.0
 10
52.9676343044
 20
43.630518209
 30
0.0
 10
53.0870222854
 20
43.712679346
 30
0.0
 10
53.2091179845
 20
43.8411226393
 30
0.0
 10
53.2778527318
 20
43.95116596
 30
0.0
 10
53.314169447
 20
44.0341874625
 30
0.0
 10
53.3362071564
 20
44.1190268133
 30
0.0
 10
53.3411237416
 20
44.1764736808
 30
0.0
 10
53.3411237412
 20
44.2048697419
 30
0.0
  0
SPLINE
  5
287
100
AcDbEntity
  8
0
100
AcDbSpline
 62
7
  6
BYLAYER
 70
0
 71
3
 72
14
 73
10
 74
0
 42
0.0000001
 43
0.0000001
 44
0.0000000001
 40
0.0
 40
0.0
 40
0.0
 40
0.0
 40
0.1081955262
 40
0.2184080394
 40
0.3324730108
 40
0.4518866085
 40
0.5778039263
 40
0.7110176093
 40
1.0
 40
1.0
 40
1.0
 40
1.0
 10
34.995488971
 20
39.510046675
 30
0.0
 10
34.9954933778
 20
39.5542373895
 30
0.0
 10
35.0031075609
 20
39.6436195288
 30
0.0
 10
35.0371310676
 20
39.7756734585
 30
0.0
 10
35.0933124937
 20
39.9049113288
 30
0.0
 10
35.1708917871
 20
40.0300664365
 30
0.0
 10
35.2691009496
 20
40.1500097189
 30
0.0
 10
35.4304702286
 20
40.3057242148
 30
0.0
 10
35.5732079803
 20
40.4049332529
 30
0.0
 10
35.6751559939
 20
40.4644120559
 30
0.0
  0
SPLINE
  5
288
100
AcDbEntity
  8
0
100
AcDbSpline
 62
7
  6
BYLAYER
 70
0
 71
3
 72
23
 73
19
 74
0
 42
0.0000001
 43
0.0000001
 44
0.0000000001
 40
0.0
 40
0.0
 40
0.0
 40
0.0
 40
0.0623787777
 40
0.1287507674
 40
0.1983470598
 40
0.2703366052
 40
0.3437256964
 40
0.4174677577
 40
0.4905053514
 40
0.561804046
 40
0.630412623
 40
0.6955116216
 40
0.7564684289
 40
0.8129138272
 40
0.8648231088
 40
0.9126056877
 40
0.9571867145
 40
1.0
 40
1.0
 40
1.0
 40
1.0
 10
39.2192909408
 20
42.5106332178
 30
0.0
 10
39.3037021952
 20
42.5593677874
 30
0.0
 10
39.4846586767
 20
42.6485632506
 30
0.0
 10
39.7765197787
 20
42.7543528891
 30
0.0
 10
40.0919610375
 20
42.8344159584
 30
0.0
 10
40.4241548955
 20
42.887091933
 30
0.0
 10
40.7661050243
 20
42.9112622627
 30
0.0
 10
41.1105042212
 20
42.9064172683
 30
0.0
 10
41.4500100128
 20
42.8726623782
 30
0.0
 10
41.7773855017
 20
42.8106918895
 30
0.0
 10
42.0856758872
 20
42.7218426527
 30
0.0
 10
42.3683666973
 20
42.6079679654
 30
0.0
 10
42.6195067349
 20
42.4713659998
 30
0.0
 10
42.8338436708
 20
42.3147386059
 30
0.0
 10
43.0068286515
 20
42.1410425967
 30
0.0
 10
43.1344588041
 20
41.9533245183
 30
0.0
 10
43.2130867567
 20
41.7553016209
 30
0.0
 10
43.2309961039
 20
41.6181650807
 30
0.0
 10
43.2309894327
 20
41.551267445
 30
0.0
  0
SPLINE
  5
289
100
AcDbEntity
  8
0
100
AcDbSpline
 62
7
  6
BYLAYER
 70
0
 71
3
 72
11
 73
7
 74
0
 42
0.0000001
 43
0.0000001
 44
0.0000000001
 40
0.0
 40
0.0
 40
0.0
 40
0.0
 40
0.2427370264
 40
0.5055160047
 40
0.7653280211
 40
1.0
 40
1.0
 40
1.0
 40
1.0
 10
57.7097036163
 20
67.5676925154
 30
0.0
 10
57.6690384158
 20
67.5484833014
 30
0.0
 10
57.5784748696
 20
67.5204532529
 30
0.0
 10
57.4360767239
 20
67.5096871169
 30
0.0
 10
57.2960125566
 20
67.5277471216
 30
0.0
 10
57.208924836
 20
67.5603056813
 30
0.0
 10
57.171270159
 20
67.5820451274
 30
0.0
  0
SPLINE
  5
28A
100
AcDbEntity
  8
0
100
AcDbSpline
 62
7
  6
BYLAYER
 70
0
 71
3
 72
11
 73
7
 74
0
 42
0.0000001
 43
0.0000001
 44
0.0000000001
 40
0.0
 40
0.0
 40
0.0
 40
0.0
 40
0.2346719789
 40
0.4944839953
 40
0.7572629736
 40
1.0
 40
1.0
 40
1.0
 40
1.0
 10
59.2388401835
 20
68.0213230401
 30
0.0
 10
59.2011855065
 20
68.0430624862
 30
0.0
 10
59.1140977859
 20
68.0756210459
 30
0.0
 10
58.9740336186
 20
68.0936810506
 30
0.0
 10
58.8316354729
 20
68.0829149146
 30
0.0
 10
58.7410719267
 20
68.054884866
 30
0.0
 10
58.7004067262
 20
68.035675652
 30
0.0
  0
SPLINE
  5
28B
100
AcDbEntity
  8
0
100
AcDbSpline
 62
7
  6
BYLAYER
 70
0
 71
3
 72
11
 73
7
 74
0
 42
0.0000001
 43
0.0000001
 44
0.0000000001
 40
0.0
 40
0.0
 40
0.0
 40
0.0
 40
0.2897048043
 40
0.5490913404
 40
0.7822177947
 40
1.0
 40
1.0
 40
1.0
 40
1.0
 10
8.3541869554
 20
45.6339989938
 30
0.0
 10
8.2883690368
 20
45.5959992276
 30
0.0
 10
8.168958741
 20
45.5137531001
 30
0.0
 10
8.0262468007
 20
45.3637693534
 30
0.0
 10
7.935971906
 20
45.1978509914
 30
0.0
 10
7.9148590174
 20
45.0787698792
 30
0.0
 10
7.9148590279
 20
45.021637862
 30
0.0
  0
SPLINE
  5
28C
100
AcDbEntity
  8
0
100
AcDbSpline
 62
7
  6
BYLAYER
 70
0
 71
3
 72
11
 73
7
 74
0
 42
0.0000001
 43
0.0000001
 44
0.0000000001
 40
0.0
 40
0.0
 40
0.0
 40
0.0
 40
0.2327133696
 40
0.4901154221
 40
0.7527964819
 40
1.0
 40
1.0
 40
1.0
 40
1.0
 10
53.6005585118
 20
71.2765128388
 30
0.0
 10
53.5651233652
 20
71.2969708674
 30
0.0
 10
53.4836072807
 20
71.3282919942
 30
0.0
 10
53.3518672183
 20
71.3477932565
 30
0.0
 10
53.2163030263
 20
71.3412513704
 30
0.0
 10
53.1285812875
 20
71.3186772577
 30
0.0
 10
53.0882850382
 20
71.3023869826
 30
0.0
  0
SPLINE
  5
28D
100
AcDbEntity
  8
0
100
AcDbSpline
 62
7
  6
BYLAYER
 70
0
 71
3
 72
13
 73
9
 74
0
 42
0.0000001
 43
0.0000001
 44
0.0000000001
 40
0.0
 40
0.0
 40
0.0
 40
0.0
 40
0.2893796193
 40
0.5483174434
 40
0.6677453536
 40
0.7817684919
 40
0.8919066128
 40
1.0
 40
1.0
 40
1.0
 40
1.0
 10
23.4862443994
 20
49.4715144363
 30
0.0
 10
23.3721283532
 20
49.5373978758
 30
0.0
 10
23.1651852622
 20
49.6798110548
 30
0.0
 10
22.9535483413
 20
49.9024478224
 30
0.0
 10
22.8344055823
 20
50.0931914193
 30
0.0
 10
22.7714552671
 20
50.2370967964
 30
0.0
 10
22.7332557547
 20
50.3841532201
 30
0.0
 10
22.7247334888
 20
50.4837288732
 30
0.0
 10
22.7247334882
 20
50.5329492364
 30
0.0
  0
SPLINE
  5
28E
100
AcDbEntity
  8
0
100
AcDbSpline
 62
7
  6
BYLAYER
 70
0
 71
3
 72
15
 73
11
 74
0
 42
0.0000001
 43
0.0000001
 44
0.0000000001
 40
0.0
 40
0.0
 40
0.0
 40
0.0
 40
0.1141464977
 40
0.2373352781
 40
0.3669759338
 40
0.4999994786
 40
0.633023096
 40
0.7626639634
 40
0.8858530776
 40
1.0
 40
1.0
 40
1.0
 40
1.0
 10
27.1631996615
 20
49.4715232746
 30
0.0
 10
27.0373506266
 20
49.3988647341
 30
0.0
 10
26.7621228665
 20
49.2707197323
 30
0.0
 10
26.3139644408
 20
49.1344775317
 30
0.0
 10
25.8287387121
 20
49.0506657412
 30
0.0
 10
25.3247251309
 20
49.0223532533
 30
0.0
 10
24.8207111468
 20
49.0506633491
 30
0.0
 10
24.3354842278
 20
49.1344728357
 30
0.0
 10
23.8873238727
 20
49.2707129058
 30
0.0
 10
23.6120944265
 20
49.398856533
 30
0.0
 10
23.4862443994
 20
49.4715144363
 30
0.0
  0
SPLINE
  5
28F
100
AcDbEntity
  8
0
100
AcDbSpline
 62
7
  6
BYLAYER
 70
0
 71
3
 72
13
 73
9
 74
0
 42
0.0000001
 43
0.0000001
 44
0.0000000001
 40
0.0
 40
0.0
 40
0.0
 40
0.0
 40
0.1080936316
 40
0.2182319596
 40
0.3322552351
 40
0.451683196
 40
0.7106208532
 40
1.0
 40
1.0
 40
1.0
 40
1.0
 10
31.4602144502
 20
52.5741700057
 30
0.0
 10
31.4602144508
 20
52.5249501665
 30
0.0
 10
31.4516923698
 20
52.4253755961
 30
0.0
 10
31.4134936736
 20
52.2783207214
 30
0.0
 10
31.3505447005
 20
52.1344167837
 30
0.0
 10
31.231404472
 20
51.9436750279
 30
0.0
 10
31.0197719269
 20
51.7210399861
 30
0.0
 10
30.8128327598
 20
51.5786273486
 30
0.0
 10
30.6987188476
 20
51.512744044
 30
0.0
  0
SPLINE
  5
290
100
AcDbEntity
  8
0
100
AcDbSpline
 62
7
  6
BYLAYER
 70
0
 71
3
 72
9
 73
5
 74
0
 42
0.0000001
 43
0.0000001
 44
0.0000000001
 40
0.0
 40
0.0
 40
0.0
 40
0.0
 40
0.2396793172
 40
1.0
 40
1.0
 40
1.0
 40
1.0
 10
31.0403712332
 20
51.7590684716
 30
0.0
 10
31.0152829891
 20
51.7813499642
 30
0.0
 10
30.9079249256
 20
51.8712788405
 30
0.0
 10
30.7908855828
 20
51.9493798477
 30
0.0
 10
30.698703539
 20
52.0025999715
 30
0.0
  0
SPLINE
  5
291
100
AcDbEntity
  8
0
100
AcDbSpline
 62
7
  6
BYLAYER
 70
0
 71
3
 72
11
 73
7
 74
0
 42
0.0000001
 43
0.0000001
 44
0.0000000001
 40
0.0
 40
0.0
 40
0.0
 40
0.0
 40
0.2176504336
 40
0.4508373832
 40
0.7105818393
 40
1.0
 40
1.0
 40
1.0
 40
1.0
 10
61.3710469805
 20
66.694657199
 30
0.0
 10
61.3710509539
 20
66.7098828345
 30
0.0
 10
61.3654202785
 20
66.7416299173
 30
0.0
 10
61.3413606746
 20
66.7859079186
 30
0.0
 10
61.3032535167
 20
66.8258677717
 30
0.0
 10
61.271432408
 20
66.84783192
 30
0.0
 10
61.2538986595
 20
66.8579548055
 30
0.0
  0
SPLINE
  5
292
100
AcDbEntity
  8
0
100
AcDbSpline
 62
7
  6
BYLAYER
 70
0
 71
3
 72
11
 73
7
 74
0
 42
0.0000001
 43
0.0000001
 44
0.0000000001
 40
0.0
 40
0.0
 40
0.0
 40
0.0
 40
0.2897052857
 40
0.5490919933
 40
0.7822182543
 40
1.0
 40
1.0
 40
1.0
 40
1.0
 10
8.3541957873
 20
42.7762667969
 30
0.0
 10
8.2883766375
 20
42.8142666411
 30
0.0
 10
8.1689640754
 20
42.8965130824
 30
0.0
 10
8.0262492358
 20
43.0464979406
 30
0.0
 10
7.9359723966
 20
43.21241791
 30
0.0
 10
7.9148590119
 20
43.3315003952
 30
0.0
 10
7.9148590279
 20
43.3886330277
 30
0.0
  0
SPLINE
  5
293
100
AcDbEntity
  8
0
100
AcDbSpline
 62
7
  6
BYLAYER
 70
0
 71
3
 72
15
 73
11
 74
0
 42
0.0000001
 43
0.0000001
 44
0.0000000001
 40
0.0
 40
0.0
 40
0.0
 40
0.0
 40
0.1141469224
 40
0.2373360366
 40
0.366976904
 40
0.5000005214
 40
0.6330240662
 40
0.7626647219
 40
0.8858535023
 40
1.0
 40
1.0
 40
1.0
 40
1.0
 10
18.3243863877
 20
44.8583272788
 30
0.0
 10
18.1985363606
 20
44.930985182
 30
0.0
 10
17.9233069144
 20
45.0591288092
 30
0.0
 10
17.4751465593
 20
45.1953688794
 30
0.0
 10
16.9899196403
 20
45.279178366
 30
0.0
 10
16.4859056562
 20
45.3074884617
 30
0.0
 10
15.981892075
 20
45.2791759738
 30
0.0
 10
15.4966663463
 20
45.1953641833
 30
0.0
 10
15.0485079206
 20
45.0591219827
 30
0.0
 10
14.7732801605
 20
44.9309769809
 30
0.0
 10
14.6474311256
 20
44.8583184404
 30
0.0
  0
SPLINE
  5
294
100
AcDbEntity
  8
0
100
AcDbSpline
 62
7
  6
BYLAYER
 70
0
 71
3
 72
15
 73
11
 74
0
 42
0.0000001
 43
0.0000001
 44
0.0000000001
 40
0.0
 40
0.0
 40
0.0
 40
0.0
 40
0.1141231812
 40
0.2373468278
 40
0.366971913
 40
0.4999994099
 40
0.6330269884
 40
0.76265231
 40
0.885876356
 40
1.0
 40
1.0
 40
1.0
 40
1.0
 10
16.8395036572
 20
39.1021051053
 30
0.0
 10
16.7669134449
 20
39.0601953768
 30
0.0
 10
16.6081119881
 20
38.9862832954
 30
0.0
 10
16.3495724808
 20
38.9076520092
 30
0.0
 10
16.0696151883
 20
38.8593104655
 30
0.0
 10
15.7788454203
 20
38.8429611349
 30
0.0
 10
15.4880754003
 20
38.8593090522
 30
0.0
 10
15.2081173419
 20
38.9076492466
 30
0.0
 10
14.9495766326
 20
38.9862793346
 30
0.0
 10
14.7907741225
 20
39.0601906313
 30
0.0
 10
14.7181833136
 20
39.1021000063
 30
0.0
  0
SPLINE
  5
295
100
AcDbEntity
  8
0
100
AcDbSpline
 62
7
  6
BYLAYER
 70
0
 71
3
 72
15
 73
11
 74
0
 42
0.0000001
 43
0.0000001
 44
0.0000000001
 40
0.0
 40
0.0
 40
0.0
 40
0.0
 40
0.1141469224
 40
0.2373360366
 40
0.366976904
 40
0.5000005214
 40
0.6330240662
 40
0.7626647219
 40
0.8858535023
 40
1.0
 40
1.0
 40
1.0
 40
1.0
 10
30.698703539
 20
52.0025999715
 30
0.0
 10
30.5728535119
 20
52.0752578748
 30
0.0
 10
30.2976240657
 20
52.203401502
 30
0.0
 10
29.8494637106
 20
52.3396415721
 30
0.0
 10
29.3642367916
 20
52.4234510587
 30
0.0
 10
28.8602228074
 20
52.4517611545
 30
0.0
 10
28.3562092262
 20
52.4234486666
 30
0.0
 10
27.8709834976
 20
52.3396368761
 30
0.0
 10
27.4228250719
 20
52.2033946755
 30
0.0
 10
27.1475973118
 20
52.0752496737
 30
0.0
 10
27.0217482768
 20
52.0025911332
 30
0.0
  0
SPLINE
  5
296
100
AcDbEntity
  8
0
100
AcDbSpline
 62
7
  6
BYLAYER
 70
0
 71
3
 72
13
 73
9
 74
0
 42
0.0000001
 43
0.0000001
 44
0.0000000001
 40
0.0
 40
0.0
 40
0.0
 40
0.0
 40
0.1080936316
 40
0.2182319596
 40
0.3322552351
 40
0.451683196
 40
0.7106208532
 40
1.0
 40
1.0
 40
1.0
 40
1.0
 10
19.0858972989
 20
45.4298973129
 30
0.0
 10
19.0858972996
 20
45.3806774737
 30
0.0
 10
19.0773752186
 20
45.2811029033
 30
0.0
 10
19.0391765224
 20
45.1340480287
 30
0.0
 10
18.9762275493
 20
44.9901440909
 30
0.0
 10
18.8570873207
 20
44.7994023352
 30
0.0
 10
18.6454547756
 20
44.5767672933
 30
0.0
 10
18.4385156085
 20
44.4343546558
 30
0.0
 10
18.3244016964
 20
44.3684713512
 30
0.0
  0
SPLINE
  5
297
100
AcDbEntity
  8
0
100
AcDbSpline
 62
7
  6
BYLAYER
 70
0
 71
3
 72
9
 73
5
 74
0
 42
0.0000001
 43
0.0000001
 44
0.0000000001
 40
0.0
 40
0.0
 40
0.0
 40
0.0
 40
0.2396793172
 40
1.0
 40
1.0
 40
1.0
 40
1.0
 10
18.666054082
 20
44.6147957788
 30
0.0
 10
18.6409658378
 20
44.6370772714
 30
0.0
 10
18.5336077743
 20
44.7270061478
 30
0.0
 10
18.4165684315
 20
44.805107155
 30
0.0
 10
18.3243863877
 20
44.8583272788
 30
0.0
  0
SPLINE
  5
298
100
AcDbEntity
  8
0
100
AcDbSpline
 62
7
  6
BYLAYER
 70
0
 71
3
 72
9
 73
5
 74
0
 42
0.0000001
 43
0.0000001
 44
0.0000000001
 40
0.0
 40
0.0
 40
0.0
 40
0.0
 40
0.2604627732
 40
1.0
 40
1.0
 40
1.0
 40
1.0
 10
23.4862290908
 20
49.9613703638
 30
0.0
 10
23.4546533245
 20
49.9431401955
 30
0.0
 10
23.3350359863
 20
49.8704401765
 30
0.0
 10
23.221978542
 20
49.7865903509
 30
0.0
 10
23.1445751801
 20
49.7178463436
 30
0.0
  0
SPLINE
  5
299
100
AcDbEntity
  8
0
100
AcDbSpline
 62
7
  6
BYLAYER
 70
0
 71
3
 72
13
 73
9
 74
0
 42
0.0000001
 43
0.0000001
 44
0.0000000001
 40
0.0
 40
0.0
 40
0.0
 40
0.0
 40
0.1080936316
 40
0.2182319596
 40
0.3322552351
 40
0.451683196
 40
0.7106208532
 40
1.0
 40
1.0
 40
1.0
 40
1.0
 10
22.7247334882
 20
50.5329492364
 30
0.0
 10
22.7247334876
 20
50.5821690756
 30
0.0
 10
22.7332555686
 20
50.681743646
 30
0.0
 10
22.7714542648
 20
50.8287985206
 30
0.0
 10
22.8344032378
 20
50.9727024584
 30
0.0
 10
22.9535434664
 20
51.1634442141
 30
0.0
 10
23.1651760115
 20
51.386079256
 30
0.0
 10
23.3721151786
 20
51.5284918935
 30
0.0
 10
23.4862290908
 20
51.5943751981
 30
0.0
  0
SPLINE
  5
29A
100
AcDbEntity
  8
0
100
AcDbSpline
 62
7
  6
BYLAYER
 70
0
 71
3
 72
11
 73
7
 74
0
 42
0.0000001
 43
0.0000001
 44
0.0000000001
 40
0.0
 40
0.0
 40
0.0
 40
0.0
 40
0.2177817009
 40
0.4509079353
 40
0.7102947134
 40
1.0
 40
1.0
 40
1.0
 40
1.0
 10
7.9148590279
 20
45.021637862
 30
0.0
 10
7.9148590385
 20
44.9645052414
 30
0.0
 10
7.9359723714
 20
44.8454227755
 30
0.0
 10
8.0262492172
 20
44.6795027983
 30
0.0
 10
8.1689640743
 20
44.5295179472
 30
0.0
 10
8.2883766375
 20
44.4472714754
 30
0.0
 10
8.3541957873
 20
44.4092716312
 30
0.0
  0
SPLINE
  5
29B
100
AcDbEntity
  8
0
100
AcDbSpline
 62
7
  6
BYLAYER
 70
0
 71
3
 72
13
 73
9
 74
0
 42
0.0000001
 43
0.0000001
 44
0.0000000001
 40
0.0
 40
0.0
 40
0.0
 40
0.0
 40
0.2893796193
 40
0.5483174434
 40
0.6677453536
 40
0.7817684919
 40
0.8919066128
 40
1.0
 40
1.0
 40
1.0
 40
1.0
 10
30.698703539
 20
53.6356048058
 30
0.0
 10
30.8128195851
 20
53.5697213663
 30
0.0
 10
31.0197626762
 20
53.4273081872
 30
0.0
 10
31.2313995971
 20
53.2046714196
 30
0.0
 10
31.3505423561
 20
53.0139278228
 30
0.0
 10
31.4134926712
 20
52.8700224456
 30
0.0
 10
31.4516921837
 20
52.7229660219
 30
0.0
 10
31.4602144495
 20
52.6233903688
 30
0.0
 10
31.4602144502
 20
52.5741700057
 30
0.0
  0
SPLINE
  5
29C
100
AcDbEntity
  8
0
100
AcDbSpline
 62
7
  6
BYLAYER
 70
0
 71
3
 72
15
 73
11
 74
0
 42
0.0000001
 43
0.0000001
 44
0.0000000001
 40
0.0
 40
0.0
 40
0.0
 40
0.0
 40
0.1141464977
 40
0.2373352781
 40
0.3669759338
 40
0.4999994786
 40
0.633023096
 40
0.7626639634
 40
0.8858530776
 40
1.0
 40
1.0
 40
1.0
 40
1.0
 10
27.0217482768
 20
53.6355959675
 30
0.0
 10
27.1475973118
 20
53.7082545079
 30
0.0
 10
27.4228250719
 20
53.8363995097
 30
0.0
 10
27.8709834976
 20
53.9726417103
 30
0.0
 10
28.3562092262
 20
54.0564535008
 30
0.0
 10
28.8602228074
 20
54.0847659887
 30
0.0
 10
29.3642367916
 20
54.056455893
 30
0.0
 10
29.8494637106
 20
53.9726464064
 30
0.0
 10
30.2976240657
 20
53.8364063362
 30
0.0
 10
30.5728535119
 20
53.708262709
 30
0.0
 10
30.698703539
 20
53.6356048058
 30
0.0
  0
SPLINE
  5
29D
100
AcDbEntity
  8
0
100
AcDbSpline
 62
7
  6
BYLAYER
 70
0
 71
3
 72
15
 73
11
 74
0
 42
0.0000001
 43
0.0000001
 44
0.0000000001
 40
0.0
 40
0.0
 40
0.0
 40
0.0
 40
0.1141236058
 40
0.2373475862
 40
0.3669728832
 40
0.5000004526
 40
0.6330279586
 40
0.7626530685
 40
0.8858767805
 40
1.0
 40
1.0
 40
1.0
 40
1.0
 10
14.7181833136
 20
40.7351048405
 30
0.0
 10
14.7907740982
 20
40.6931954796
 30
0.0
 10
14.9495765276
 20
40.6192841913
 30
0.0
 10
15.2081171482
 20
40.5406541342
 30
0.0
 10
15.4880751275
 20
40.4923139197
 30
0.0
 10
15.778845128
 20
40.4759659692
 30
0.0
 10
16.0696149155
 20
40.4923152665
 30
0.0
 10
16.3495722871
 20
40.5406567901
 30
0.0
 10
16.6081118831
 20
40.6192881072
 30
0.0
 10
16.7669134206
 20
40.6932001971
 30
0.0
 10
16.8395036572
 20
40.7351099395
 30
0.0
  0
SPLINE
  5
29E
100
AcDbEntity
  8
0
100
AcDbSpline
 62
7
  6
BYLAYER
 70
0
 71
3
 72
13
 73
9
 74
0
 42
0.0000001
 43
0.0000001
 44
0.0000000001
 40
0.0
 40
0.0
 40
0.0
 40
0.0
 40
0.2893796193
 40
0.5483174434
 40
0.6677453536
 40
0.7817684919
 40
0.8919066128
 40
1.0
 40
1.0
 40
1.0
 40
1.0
 10
18.3243863877
 20
46.491332113
 30
0.0
 10
18.4385024339
 20
46.4254486735
 30
0.0
 10
18.6454455249
 20
46.2830354945
 30
0.0
 10
18.8570824458
 20
46.0603987269
 30
0.0
 10
18.9762252049
 20
45.86965513
 30
0.0
 10
19.03917552
 20
45.7257497529
 30
0.0
 10
19.0773750324
 20
45.5786933292
 30
0.0
 10
19.0858972983
 20
45.4791176761
 30
0.0
 10
19.0858972989
 20
45.4298973129
 30
0.0
  0
SPLINE
  5
29F
100
AcDbEntity
  8
0
100
AcDbSpline
 62
7
  6
BYLAYER
 70
0
 71
3
 72
15
 73
11
 74
0
 42
0.0000001
 43
0.0000001
 44
0.0000000001
 40
0.0
 40
0.0
 40
0.0
 40
0.0
 40
0.1141464977
 40
0.2373352781
 40
0.3669759338
 40
0.4999994786
 40
0.633023096
 40
0.7626639634
 40
0.8858530776
 40
1.0
 40
1.0
 40
1.0
 40
1.0
 10
14.6474311256
 20
46.4913232747
 30
0.0
 10
14.7732801605
 20
46.5639818152
 30
0.0
 10
15.0485079206
 20
46.692126817
 30
0.0
 10
15.4966663463
 20
46.8283690176
 30
0.0
 10
15.981892075
 20
46.9121808081
 30
0.0
 10
16.4859056562
 20
46.940493296
 30
0.0
 10
16.9899196403
 20
46.9121832002
 30
0.0
 10
17.4751465593
 20
46.8283737136
 30
0.0
 10
17.9233069144
 20
46.6921336435
 30
0.0
 10
18.1985363606
 20
46.5639900163
 30
0.0
 10
18.3243863877
 20
46.491332113
 30
0.0
  0
ENDSEC
  0
SECTION
  2
OBJECTS
  0
DICTIONARY
  5
C
100
AcDbDictionary
280
0
281
1
  3
ACAD_GROUP
350
D
  3
ACAD_MLINESTYLE
350
17
  3
ACAD_LAYOUT
350
1A
  3
ACAD_PLOTSETTINGS
350
19
  3
ACAD_PLOTSTYLENAME
350
E
  0
DICTIONARY
  5
D
102
{ACAD_REACTORS
330
C
102
}
100
AcDbDictionary
280
0
281
1
  0
ACDBDICTIONARYWDFLT
  5
E
102
{ACAD_REACTORS
330
C
102
}
100
AcDbDictionary
281
1
  3
Normal
350
F
100
AcDbDictionaryWithDefault
340
F
  0
DICTIONARY
  5
17
102
{ACAD_REACTORS
330
C
102
}
100
AcDbDictionary
280
0
281
1
  3
Standard
350
18
  0
DICTIONARY
  5
19
102
{ACAD_REACTORS
330
C
102
}
100
AcDbDictionary
281
1
  0
DICTIONARY
  5
1A
102
{ACAD_REACTORS
330
C
102
}
100
AcDbDictionary
281
1
  3
Model
350
2A0
  3
Layout1
350
2A1
  0
ACDBPLACEHOLDER
  5
F
102
{ACAD_REACTORS
330
E
102
}
  0
MLINESTYLE
  5
18
102
{ACAD_REACTORS
330
17
102
}
100
AcDbMlineStyle
  2
STANDARD
 70
0
  3

 62
256
 51
90.0
 52
90.0
 71
2
 49
0.5
 62
256
  6
BYLAYER
 49
-0.5
 62
256
  6
BYLAYER
  0
LAYOUT
  5
2A0
102
{ACAD_REACTORS
330
1A
102
}
100
AcDbPlotSettings
  1

  2
none_device
  4

  6

 40
0.0
 41
0.0
 42
0.0
 43
0.0
 44
210.0
 45
297.0
 46
0.0
 47
0.0
 48
0.0
 49
0.0
140
0.0
141
0.0
142
1.0
143
1.0
 70
1024
 72
1
 73
0
 74
0
  7

 75
0
147
1.0
148
0.0
149
0.0
100
AcDbLayout
  1
Model
 70
0
 71
0
 10
0.0
 20
0.0
 11
210.0
 21
297.0
 12
0.0
 22
0.0
 32
0.0
 14
0.0
 24
0.0
 34
0.0
 15
0.0
 25
0.0
 35
0.0
146
0.0
 13
0.0
 23
0.0
 33
0.0
 16
1.0
 26
0.0
 36
0.0
 17
0.0
 27
1.0
 37
0.0
 76
0
330
210
345
0
346
0
  0
LAYOUT
  5
2A1
102
{ACAD_REACTORS
330
1A
102
}
100
AcDbPlotSettings
  1

  2
none_device
  4

  6

 40
0.0
 41
0.0
 42
0.0
 43
0.0
 44
210.0
 45
297.0
 46
0.0
 47
0.0
 48
0.0
 49
0.0
140
0.0
141
0.0
142
1.0
143
1.0
 70
0
 72
1
 73
0
 74
0
  7

 75
0
147
1.0
148
0.0
149
0.0
100
AcDbLayout
  1
Layout1
 70
0
 71
1
 10
0.0
 20
0.0
 11
210.0
 21
297.0
 12
0.0
 22
0.0
 32
0.0
 14
0.0
 24
0.0
 34
0.0
 15
0.0
 25
0.0
 35
0.0
146
0.0
 13
0.0
 23
0.0
 33
0.0
 16
1.0
 26
0.0
 36
0.0
 17
0.0
 27
1.0
 37
0.0
 76
0
330
211
345
0
346
0
  0
ENDSEC
  0
EOF
