999
DXF file: C:\Users\sesa63760\Dev\_Creo\CAD\MCADID0004835_3D-CAD\drw0001_3.dxf
999
Pro/ENGINEER 2019471 by Parametric Technology Corporation
  0
SECTION
  2
HEADER
  9
$ACADVER
  1
AC1024
  9
$DWGCODEPAGE
  3
ANSI_1252
  9
$EXTMAX
 10
152.2464950387
 20
215.3200429832
 30
0.0
  9
$EXTMIN
 10
0.0
 20
0.0
 30
0.0
  9
$LIMMIN
 10
0.0
 20
0.0
  9
$LIMMAX
 10
152.2464950387
 20
215.3200429832
  9
$VIEWCTR
 10
76.1232475193
 20
107.6600214916
  9
$VIEWSIZE
 40
215.3200429832
  9
$CLAYER
  8
0
  9
$LTSCALE
 40
14.0356768759
  9
$CELTYPE
  6
BYLAYER
  9
$DIMSCALE
 40
1.0
  9
$DIMASZ
 40
1.8124582743
  9
$DIMEXO
 40
1.0
  9
$DIMDLI
 40
9.6973767507
  9
$DIMEXE
 40
1.0
  9
$DIMCEN
 40
2.2967471252
  9
$DIMLFAC
 40
1.0
  9
$DIMBLK
  1
_FILLED
  9
$DIMALT
 70
0
  9
$DIMALTF
 40
0.0393700787
  9
$DIMTXT
 40
2.537441584
  9
$DIMTOL
 70
1
  9
$DIMLIM
 70
0
  9
$DIMTFAC
 40
1.0
  9
$DIMTP
 40
0.01
  9
$DIMTM
 40
0.01
  9
$DIMGAP
 40
0.625
  9
$DIMDSEP
 70
46
  9
$AUNITS
 70
0
  9
$PDMODE
 70
3
  9
$PDSIZE
 40
0.3125
  9
$HANDSEED
  5
339
  9
$TILEMODE
 70
1
  9
$MEASUREMENT
 70
1
  9
$INSUNITS
 70
4
  0
ENDSEC
  0
SECTION
  2
CLASSES
  0
CLASS
  1
ACDBDICTIONARYWDFLT
  2
AcDbDictionaryWithDefault
  3
AutoCAD 2000
 90
0
 91
1
280
0
281
0
  0
CLASS
  1
ACDBPLACEHOLDER
  2
AcDbPlaceHolder
  3
AutoCAD 2000
 90
0
 91
1
280
0
281
0
  0
CLASS
  1
LAYOUT
  2
AcDbLayout
  3
AutoCAD 2000
 90
0
 91
0
280
0
281
0
  0
ENDSEC
  0
SECTION
  2
TABLES
  0
TABLE
  2
VPORT
  5
8
100
AcDbSymbolTable
 70
2
  0
VPORT
  5
1F4
100
AcDbSymbolTableRecord
100
AcDbViewportTableRecord
  2
*ACTIVE
 70
0
 10
0.0
 20
0.0
 11
1.0
 21
1.0
 12
76.1232475193
 22
107.6600214916
 13
0.0
 23
0.0
 14
1.0
 24
1.0
 15
0.0
 25
0.0
 16
0.0
 26
0.0
 36
1.0
 17
0.0
 27
0.0
 37
0.0
 40
215.3200429832
 41
0.7070707071
 42
50.0
 43
0.0
 44
0.0
 50
0.0
 51
0.0
 71
0
 72
100
 73
1
 74
1
 75
0
 76
0
 77
0
 78
0
  0
ENDTAB
  0
TABLE
  2
LTYPE
  5
5
100
AcDbSymbolTable
 70
6
  0
LTYPE
  5
14
100
AcDbSymbolTableRecord
100
AcDbLinetypeTableRecord
  2
BYBLOCK
 70
0
  3

 72
65
 73
0
 40
0.0
  0
LTYPE
  5
15
100
AcDbSymbolTableRecord
100
AcDbLinetypeTableRecord
  2
BYLAYER
 70
0
  3

 72
65
 73
0
 40
0.0
  0
LTYPE
  5
16
100
AcDbSymbolTableRecord
100
AcDbLinetypeTableRecord
  2
CONTINUOUS
 70
64
  3
Solid line
 72
65
 73
0
 40
0.0
  0
LTYPE
  5
1F5
100
AcDbSymbolTableRecord
100
AcDbLinetypeTableRecord
  2
CENTER
 70
64
  3
____ _ ____ _ ____ _ ____ _ ____ _ ____ _ ____
 72
65
 73
4
 40
0.6
 49
0.375
 74
0
 49
-0.075
 74
0
 49
0.075
 74
0
 49
-0.075
 74
0
  0
LTYPE
  5
1F6
100
AcDbSymbolTableRecord
100
AcDbLinetypeTableRecord
  2
HIDDEN
 70
64
  3
- - - - - - - - - - - - - - - - - - - -
 72
65
 73
2
 40
0.2
 49
0.1
 74
0
 49
-0.1
 74
0
  0
LTYPE
  5
1F7
100
AcDbSymbolTableRecord
100
AcDbLinetypeTableRecord
  2
PHANTOM
 70
64
  3
_____ _ _ _____ _ _ _____ _ _ _____
 72
65
 73
6
 40
0.8
 49
0.45
 74
0
 49
-0.05
 74
0
 49
0.1
 74
0
 49
-0.05
 74
0
 49
0.1
 74
0
 49
-0.05
 74
0
  0
LTYPE
  5
1F8
100
AcDbSymbolTableRecord
100
AcDbLinetypeTableRecord
  2
DOT
 70
64
  3
. . . . . . . . . . . . . . . . . . . .
 72
65
 73
2
 40
0.2
 49
0.1
 74
0
 49
-0.1
 74
0
  0
LTYPE
  5
1F9
100
AcDbSymbolTableRecord
100
AcDbLinetypeTableRecord
  2
DASHED
 70
64
  3
- - - - - - - - - - - - - - - - - - - -
 72
65
 73
2
 40
0.2
 49
0.1
 74
0
 49
-0.1
 74
0
  0
ENDTAB
  0
TABLE
  2
LAYER
  5
2
100
AcDbSymbolTable
 70
36
  0
LAYER
  5
10
100
AcDbSymbolTableRecord
100
AcDbLayerTableRecord
  2
0
 70
0
 62
7
  6
CONTINUOUS
370
-3
390
F
  0
LAYER
  5
1FA
100
AcDbSymbolTableRecord
100
AcDbLayerTableRecord
  2
DEFAULT_1
 70
0
 62
7
  6
CENTER
370
-3
390
F
  0
LAYER
  5
1FB
100
AcDbSymbolTableRecord
100
AcDbLayerTableRecord
  2
DEFAULT_2
 70
0
 62
7
  6
HIDDEN
370
-3
390
F
  0
LAYER
  5
1FC
100
AcDbSymbolTableRecord
100
AcDbLayerTableRecord
  2
DEFAULT_3
 70
0
 62
7
  6
PHANTOM
370
-3
390
F
  0
LAYER
  5
1FD
100
AcDbSymbolTableRecord
100
AcDbLayerTableRecord
  2
00_COMPONENTS
 70
0
 62
7
  6
CONTINUOUS
370
-3
390
F
  0
LAYER
  5
1FE
100
AcDbSymbolTableRecord
100
AcDbLayerTableRecord
  2
01_1_DEFAULT_DATUMS
 70
0
 62
7
  6
CONTINUOUS
370
-3
390
F
  0
LAYER
  5
1FF
100
AcDbSymbolTableRecord
100
AcDbLayerTableRecord
  2
01_PLANES
 70
0
 62
7
  6
CONTINUOUS
370
-3
390
F
  0
LAYER
  5
200
100
AcDbSymbolTableRecord
100
AcDbLayerTableRecord
  2
02_COORD_SYS
 70
0
 62
7
  6
CONTINUOUS
370
-3
390
F
  0
LAYER
  5
201
100
AcDbSymbolTableRecord
100
AcDbLayerTableRecord
  2
03_AXES
 70
0
 62
7
  6
CONTINUOUS
370
-3
390
F
  0
LAYER
  5
202
100
AcDbSymbolTableRecord
100
AcDbLayerTableRecord
  2
04_POINTS
 70
0
 62
7
  6
CONTINUOUS
370
-3
390
F
  0
LAYER
  5
203
100
AcDbSymbolTableRecord
100
AcDbLayerTableRecord
  2
05_CURVES
 70
0
 62
7
  6
CONTINUOUS
370
-3
390
F
  0
LAYER
  5
204
100
AcDbSymbolTableRecord
100
AcDbLayerTableRecord
  2
06_SURFS
 70
0
 62
7
  6
CONTINUOUS
370
-3
390
F
  0
LAYER
  5
205
100
AcDbSymbolTableRecord
100
AcDbLayerTableRecord
  2
07_COSMETICS
 70
0
 62
7
  6
CONTINUOUS
370
-3
390
F
  0
LAYER
  5
206
100
AcDbSymbolTableRecord
100
AcDbLayerTableRecord
  2
10_NOTES
 70
0
 62
7
  6
CONTINUOUS
370
-3
390
F
  0
LAYER
  5
207
100
AcDbSymbolTableRecord
100
AcDbLayerTableRecord
  2
11_NOTES_PUB
 70
0
 62
7
  6
CONTINUOUS
370
-3
390
F
  0
LAYER
  5
208
100
AcDbSymbolTableRecord
100
AcDbLayerTableRecord
  2
13_REF_GTOL
 70
0
 62
7
  6
CONTINUOUS
370
-3
390
F
  0
LAYER
  5
209
100
AcDbSymbolTableRecord
100
AcDbLayerTableRecord
  2
16_MISC
 70
0
 62
7
  6
CONTINUOUS
370
-3
390
F
  0
LAYER
  5
20A
100
AcDbSymbolTableRecord
100
AcDbLayerTableRecord
  2
17_NO_PRINT
 70
0
 62
7
  6
CONTINUOUS
370
-3
390
F
  0
LAYER
  5
20B
100
AcDbSymbolTableRecord
100
AcDbLayerTableRecord
  2
18_DATUM_CAMS_JOINTS
 70
0
 62
7
  6
CONTINUOUS
370
-3
390
F
  0
LAYER
  5
20C
100
AcDbSymbolTableRecord
100
AcDbLayerTableRecord
  2
19_DATUM_FUNCTIONAL
 70
0
 62
7
  6
CONTINUOUS
370
-3
390
F
  0
LAYER
  5
20D
100
AcDbSymbolTableRecord
100
AcDbLayerTableRecord
  2
20_DATUM_KINEMATIC_SCHEME
 70
0
 62
7
  6
CONTINUOUS
370
-3
390
F
  0
ENDTAB
  0
TABLE
  2
STYLE
  5
3
100
AcDbSymbolTable
 70
1
  0
STYLE
  5
11
100
AcDbSymbolTableRecord
100
AcDbTextStyleTableRecord
  2
STANDARD
 70
0
 40
0.0
 41
1.0
 50
0.0
 71
0
 42
0.2
  3
ARIAL.TTF
  4

  0
STYLE
  5
20E
100
AcDbSymbolTableRecord
100
AcDbTextStyleTableRecord
  2
TEXTSTYLE_1
 70
0
 40
0.0
 41
0.8
 50
0.0
 71
0
 42
0.2
  3
gdt
  4

  0
ENDTAB
  0
TABLE
  2
VIEW
  5
6
100
AcDbSymbolTable
 70
0
  0
ENDTAB
  0
TABLE
  2
UCS
  5
7
100
AcDbSymbolTable
 70
0
  0
ENDTAB
  0
TABLE
  2
APPID
  5
9
100
AcDbSymbolTable
 70
1
  0
APPID
  5
20F
100
AcDbSymbolTableRecord
100
AcDbRegAppTableRecord
  2
ACAD
 70
0
  0
ENDTAB
  0
TABLE
  2
BLOCK_RECORD
  5
1
100
AcDbSymbolTable
 70
0
  0
BLOCK_RECORD
  5
210
100
AcDbSymbolTableRecord
100
AcDbBlockTableRecord
  2
*Model_Space
  0
BLOCK_RECORD
  5
211
100
AcDbSymbolTableRecord
100
AcDbBlockTableRecord
  2
*Paper_Space
  0
BLOCK_RECORD
  5
212
100
AcDbSymbolTableRecord
100
AcDbBlockTableRecord
  2
_FILLED
  0
ENDTAB
  0
TABLE
  2
DIMSTYLE
  5
A
100
AcDbSymbolTable
 70
1
100
AcDbDimStyleTable
 71
0
  0
DIMSTYLE
105
213
100
AcDbSymbolTableRecord
100
AcDbDimStyleTableRecord
  2
STANDARD
 70
0
  3

  4

 40
1.0
 41
1.8124582743
 42
1.0
 43
0.38
 44
1.0
 45
0.0
 46
0.0
 47
0.01
 48
0.01
140
2.537441584
141
0.09
142
0.0
143
25.4
144
1.0
145
0.0
146
1.0
147
0.625
 71
1
 72
0
 73
0
 74
0
 75
0
 76
0
 77
1
 78
8
 79
2
170
0
171
1
172
0
173
0
174
0
175
0
176
0
177
0
178
0
270
2
179
2
271
2
272
2
273
2
274
2
275
0
280
0
281
0
282
0
283
1
284
8
285
0
286
0
287
3
288
0
340
11
278
46
341
212
342
212
343
212
344
212
  0
ENDTAB
  0
ENDSEC
  0
SECTION
  2
BLOCKS
  0
BLOCK
  5
20
100
AcDbEntity
  8
0
100
AcDbBlockBegin
  2
*Model_Space
 70
0
 10
0.0
 20
0.0
 30
0.0
  3
*Model_Space
  1

  0
ENDBLK
  5
21
100
AcDbEntity
  8
0
100
AcDbBlockEnd
  0
BLOCK
  5
1C
100
AcDbEntity
  8
0
100
AcDbBlockBegin
  2
*Paper_Space
 70
0
 10
0.0
 20
0.0
 30
0.0
  3
*Paper_Space
  1

  0
ENDBLK
  5
1D
100
AcDbEntity
  8
0
100
AcDbBlockEnd
  0
BLOCK
  5
214
100
AcDbEntity
  8
0
100
AcDbBlockBegin
  2
_FILLED
 70
64
 10
0.0
 20
0.0
  3
_FILLED
  1

  0
SOLID
  5
215
100
AcDbEntity
  8
0
  6
BYBLOCK
 62
0
100
AcDbTrace
 10
0.0
 20
0.0
 11
-1.0
 21
0.25
 12
-1.0
 22
-0.25
 13
-1.0
 23
-0.25
  0
ENDBLK
  5
216
100
AcDbEntity
  8
0
  6
BYBLOCK
 62
0
100
AcDbBlockEnd
  0
ENDSEC
  0
SECTION
  2
ENTITIES
  0
LINE
  5
217
100
AcDbEntity
  8
0
100
AcDbLine
 62
7
  6
BYLAYER
 10
21.524072932
 20
107.1291847393
 11
21.524072932
 21
107.43712074
  0
LINE
  5
218
100
AcDbEntity
  8
0
100
AcDbLine
 62
7
  6
BYLAYER
 10
21.524072932
 20
108.93712074
 11
21.524072932
 21
109.2450567408
  0
LINE
  5
219
100
AcDbEntity
  8
0
100
AcDbLine
 62
7
  6
BYLAYER
 10
31.7115616991
 20
129.3917441335
 11
31.4459188113
 21
128.4003513796
  0
LINE
  5
21A
100
AcDbEntity
  8
0
100
AcDbLine
 62
7
  6
BYLAYER
 10
31.4459188113
 20
87.9738901005
 11
31.7115616991
 21
86.9824973466
  0
LINE
  5
21B
100
AcDbEntity
  8
0
100
AcDbLine
 62
7
  6
BYLAYER
 10
37.7385702424
 20
109.2450567408
 11
37.7385702424
 21
108.93712074
  0
LINE
  5
21C
100
AcDbEntity
  8
0
100
AcDbLine
 62
7
  6
BYLAYER
 10
37.7385702424
 20
107.43712074
 11
37.7385702424
 21
107.1291847393
  0
LINE
  5
21D
100
AcDbEntity
  8
0
100
AcDbLine
 62
7
  6
BYLAYER
 10
19.6941550023
 20
108.0456993838
 11
18.9684051362
 21
107.3199495177
  0
LINE
  5
21E
100
AcDbEntity
  8
0
100
AcDbLine
 62
7
  6
BYLAYER
 10
31.5888842362
 20
126.3698852875
 11
31.3222038368
 21
126.2159172872
  0
LINE
  5
21F
100
AcDbEntity
  8
0
100
AcDbLine
 62
7
  6
BYLAYER
 10
32.8879223418
 20
127.1198852875
 11
33.1546027412
 21
127.2738532879
  0
LINE
  5
220
100
AcDbEntity
  8
0
100
AcDbLine
 62
7
  6
BYLAYER
 10
31.3222038368
 20
90.1583241929
 11
31.5888842362
 21
90.0043561926
  0
LINE
  5
221
100
AcDbEntity
  8
0
100
AcDbLine
 62
7
  6
BYLAYER
 10
32.8879223418
 20
89.2543561926
 11
33.1546027412
 21
89.1003881922
  0
LINE
  5
222
100
AcDbEntity
  8
0
100
AcDbLine
 62
7
  6
BYLAYER
 10
18.9684051361
 20
109.0542919624
 11
19.6941550023
 21
108.3285420963
  0
LINE
  5
223
100
AcDbEntity
  8
0
100
AcDbLine
 62
7
  6
BYLAYER
 10
43.9069229583
 20
112.8994207457
 11
43.8941195938
 21
112.8361908458
  0
LINE
  5
224
100
AcDbEntity
  8
0
100
AcDbLine
 62
7
  6
BYLAYER
 10
41.9985443338
 20
103.4748207344
 11
42.0596577182
 21
103.7766314943
  0
LINE
  5
225
100
AcDbEntity
  8
0
100
AcDbLine
 62
7
  6
BYLAYER
 10
41.9985443338
 20
112.8994207457
 11
42.0596577182
 21
112.5976099858
  0
LINE
  5
226
100
AcDbEntity
  8
0
100
AcDbLine
 62
7
  6
BYLAYER
 10
43.9069229583
 20
103.4748207344
 11
43.894214987
 21
103.5380389414
  0
LINE
  5
227
100
AcDbEntity
  8
0
100
AcDbLine
 62
7
  6
BYLAYER
 10
50.1696728342
 20
131.076327558
 11
49.9892493545
 21
130.5040973876
  0
LINE
  5
228
100
AcDbEntity
  8
0
100
AcDbLine
 62
7
  6
BYLAYER
 10
35.9162179377
 20
85.8701440925
 11
35.735794458
 21
85.2979139221
  0
LINE
  5
229
100
AcDbEntity
  8
0
100
AcDbLine
 62
7
  6
BYLAYER
 10
33.4578478127
 20
88.1288344833
 11
33.3260972386
 21
87.8505066787
  0
LINE
  5
22A
100
AcDbEntity
  8
0
100
AcDbLine
 62
7
  6
BYLAYER
 10
52.4476194794
 20
128.2454069968
 11
52.5793700535
 21
128.5237348014
  0
LINE
  5
22B
100
AcDbEntity
  8
0
100
AcDbLine
 62
7
  6
BYLAYER
 10
30.6890753611
 20
90.6556250222
 11
38.7018187246
 21
104.5341036359
  0
LINE
  5
22C
100
AcDbEntity
  8
0
100
AcDbLine
 62
7
  6
BYLAYER
 10
43.990881798
 20
113.6950296034
 11
52.0036251616
 21
127.5735082171
  0
LINE
  5
22D
100
AcDbEntity
  8
0
100
AcDbLine
 62
7
  6
BYLAYER
 10
52.7508645509
 20
127.2738532879
 11
44.6436158957
 21
113.2316867075
  0
LINE
  5
22E
100
AcDbEntity
  8
0
100
AcDbLine
 62
7
  6
BYLAYER
 10
39.429452492
 20
104.2004907734
 11
31.3222038368
 21
90.1583241929
  0
LINE
  5
22F
100
AcDbEntity
  8
0
100
AcDbLine
 62
7
  6
BYLAYER
 10
53.0175449503
 20
127.1198852875
 11
44.910296295
 21
113.0777187071
  0
LINE
  5
230
100
AcDbEntity
  8
0
100
AcDbLine
 62
7
  6
BYLAYER
 10
39.6961328914
 20
104.046522773
 11
31.5888842362
 21
90.0043561925
  0
LINE
  5
231
100
AcDbEntity
  8
0
100
AcDbLine
 62
7
  6
BYLAYER
 10
52.0036251616
 20
88.800733263
 11
43.990881798
 21
102.6792118767
  0
LINE
  5
232
100
AcDbEntity
  8
0
100
AcDbLine
 62
7
  6
BYLAYER
 10
38.7018187246
 20
111.8401378442
 11
30.6890753611
 21
125.7186164579
  0
LINE
  5
233
100
AcDbEntity
  8
0
100
AcDbLine
 62
7
  6
BYLAYER
 10
31.3222038368
 20
126.2159172872
 11
39.429452492
 21
112.1737507067
  0
LINE
  5
234
100
AcDbEntity
  8
0
100
AcDbLine
 62
7
  6
BYLAYER
 10
44.6436158957
 20
103.1425547726
 11
52.7508645509
 21
89.1003881922
  0
LINE
  5
235
100
AcDbEntity
  8
0
100
AcDbLine
 62
7
  6
BYLAYER
 10
31.5888842362
 20
126.3698852876
 11
39.6961328914
 21
112.3277187071
  0
LINE
  5
236
100
AcDbEntity
  8
0
100
AcDbLine
 62
7
  6
BYLAYER
 10
44.910296295
 20
103.296522773
 11
53.0175449503
 21
89.2543561926
  0
LINE
  5
237
100
AcDbEntity
  8
0
100
AcDbLine
 62
7
  6
BYLAYER
 10
52.4476194794
 20
88.1288344833
 11
52.5793700535
 21
87.8505066787
  0
LINE
  5
238
100
AcDbEntity
  8
0
100
AcDbLine
 62
7
  6
BYLAYER
 10
33.4578478127
 20
128.2454069968
 11
33.3260972386
 21
128.5237348014
  0
LINE
  5
239
100
AcDbEntity
  8
0
100
AcDbLine
 62
7
  6
BYLAYER
 10
35.735794458
 20
131.076327558
 11
35.9162179377
 21
130.5040973876
  0
LINE
  5
23A
100
AcDbEntity
  8
0
100
AcDbLine
 62
7
  6
BYLAYER
 10
49.9892493545
 20
85.8701440925
 11
50.1696728342
 21
85.2979139221
  0
LINE
  5
23B
100
AcDbEntity
  8
0
100
AcDbLine
 62
7
  6
BYLAYER
 10
32.8879223418
 20
89.2543561926
 11
40.9951709971
 21
103.296522773
  0
LINE
  5
23C
100
AcDbEntity
  8
0
100
AcDbLine
 62
7
  6
BYLAYER
 10
46.701581769
 20
113.1803161589
 11
54.316583056
 21
126.3698852876
  0
LINE
  5
23D
100
AcDbEntity
  8
0
100
AcDbLine
 62
7
  6
BYLAYER
 10
33.1546027412
 20
89.1003881922
 11
41.2618513964
 21
103.1425547726
  0
LINE
  5
23E
100
AcDbEntity
  8
0
100
AcDbLine
 62
7
  6
BYLAYER
 10
47.0842356029
 20
113.2272200394
 11
54.5832634553
 21
126.2159172872
  0
LINE
  5
23F
100
AcDbEntity
  8
0
100
AcDbLine
 62
7
  6
BYLAYER
 10
55.216391931
 20
125.7186164579
 11
48.0745653327
 21
113.3486099307
  0
LINE
  5
240
100
AcDbEntity
  8
0
100
AcDbLine
 62
7
  6
BYLAYER
 10
41.9145854941
 20
102.6792118767
 11
33.9018421306
 21
88.800733263
  0
LINE
  5
241
100
AcDbEntity
  8
0
100
AcDbLine
 62
7
  6
BYLAYER
 10
30.329191108
 20
89.9351652739
 11
30.1540274457
 21
89.6819020276
  0
LINE
  5
242
100
AcDbEntity
  8
0
100
AcDbLine
 62
7
  6
BYLAYER
 10
55.5762761841
 20
126.4390762062
 11
55.7514398464
 21
126.6923394525
  0
LINE
  5
243
100
AcDbEntity
  8
0
100
AcDbLine
 62
7
  6
BYLAYER
 10
59.1668986288
 20
125.8817768235
 11
58.7615445043
 21
125.4394104214
  0
LINE
  5
244
100
AcDbEntity
  8
0
100
AcDbLine
 62
7
  6
BYLAYER
 10
27.1439227878
 20
90.9348310587
 11
26.7385686633
 21
90.4924646566
  0
LINE
  5
245
100
AcDbEntity
  8
0
100
AcDbLine
 62
7
  6
BYLAYER
 10
26.7385686633
 20
125.8817768235
 11
27.1439227878
 21
125.4394104214
  0
LINE
  5
246
100
AcDbEntity
  8
0
100
AcDbLine
 62
7
  6
BYLAYER
 10
59.1668986288
 20
90.4924646566
 11
58.7615445043
 21
90.9348310587
  0
LINE
  5
247
100
AcDbEntity
  8
0
100
AcDbLine
 62
7
  6
BYLAYER
 10
55.5762761841
 20
89.9351652739
 11
55.7514398464
 21
89.6819020276
  0
LINE
  5
248
100
AcDbEntity
  8
0
100
AcDbLine
 62
7
  6
BYLAYER
 10
30.329191108
 20
126.4390762062
 11
30.1540274457
 21
126.6923394525
  0
LINE
  5
249
100
AcDbEntity
  8
0
100
AcDbLine
 62
7
  6
BYLAYER
 10
54.316583056
 20
90.0043561925
 11
46.701581769
 21
103.1939253212
  0
LINE
  5
24A
100
AcDbEntity
  8
0
100
AcDbLine
 62
7
  6
BYLAYER
 10
40.9951709971
 20
113.0777187071
 11
32.8879223418
 21
127.1198852875
  0
LINE
  5
24B
100
AcDbEntity
  8
0
100
AcDbLine
 62
7
  6
BYLAYER
 10
33.1546027412
 20
127.2738532879
 11
41.2618513964
 21
113.2316867075
  0
LINE
  5
24C
100
AcDbEntity
  8
0
100
AcDbLine
 62
7
  6
BYLAYER
 10
47.0842356029
 20
103.1470214407
 11
54.5832634553
 21
90.1583241929
  0
LINE
  5
24D
100
AcDbEntity
  8
0
100
AcDbLine
 62
7
  6
BYLAYER
 10
33.9018421306
 20
127.5735082171
 11
41.9145854941
 21
113.6950296034
  0
LINE
  5
24E
100
AcDbEntity
  8
0
100
AcDbLine
 62
7
  6
BYLAYER
 10
48.0745653327
 20
103.0256315494
 11
55.216391931
 21
90.6556250222
  0
LINE
  5
24F
100
AcDbEntity
  8
0
100
AcDbLine
 62
7
  6
BYLAYER
 10
39.348856787
 20
105.0046185528
 11
39.5796758801
 21
105.2084496761
  0
LINE
  5
250
100
AcDbEntity
  8
0
100
AcDbLine
 62
7
  6
BYLAYER
 10
41.2618513964
 20
113.2316867075
 11
40.9951709971
 21
113.0777187071
  0
LINE
  5
251
100
AcDbEntity
  8
0
100
AcDbLine
 62
7
  6
BYLAYER
 10
39.429452492
 20
112.1737507067
 11
39.6961328914
 21
112.3277187071
  0
LINE
  5
252
100
AcDbEntity
  8
0
100
AcDbLine
 62
7
  6
BYLAYER
 10
55.695890209
 20
87.8496685689
 11
54.7044974551
 21
88.1153114567
  0
LINE
  5
253
100
AcDbEntity
  8
0
100
AcDbLine
 62
7
  6
BYLAYER
 10
41.2618513964
 20
103.1425547726
 11
40.9951709971
 21
103.296522773
  0
LINE
  5
254
100
AcDbEntity
  8
0
100
AcDbLine
 62
7
  6
BYLAYER
 10
39.6961328914
 20
104.046522773
 11
39.429452492
 21
104.2004907734
  0
LINE
  5
255
100
AcDbEntity
  8
0
100
AcDbLine
 62
7
  6
BYLAYER
 10
39.348856787
 20
111.3696229273
 11
39.5796758801
 21
111.165791804
  0
LINE
  5
256
100
AcDbEntity
  8
0
100
AcDbLine
 62
7
  6
BYLAYER
 10
54.4595484808
 20
87.9738901005
 11
54.193905593
 21
86.9824973466
  0
LINE
  5
257
100
AcDbEntity
  8
0
100
AcDbLine
 62
7
  6
BYLAYER
 10
54.193905593
 20
129.3917441335
 11
54.4595484808
 21
128.4003513796
  0
LINE
  5
258
100
AcDbEntity
  8
0
100
AcDbLine
 62
7
  6
BYLAYER
 10
64.3813943602
 20
109.2450567408
 11
64.3813943602
 21
108.93712074
  0
LINE
  5
259
100
AcDbEntity
  8
0
100
AcDbLine
 62
7
  6
BYLAYER
 10
64.3813943602
 20
107.43712074
 11
64.3813943602
 21
107.1291847393
  0
LINE
  5
25A
100
AcDbEntity
  8
0
100
AcDbLine
 62
7
  6
BYLAYER
 10
66.7834095534
 20
108.9006393599
 11
66.2113122898
 21
108.3285420963
  0
LINE
  5
25B
100
AcDbEntity
  8
0
100
AcDbLine
 62
7
  6
BYLAYER
 10
44.910296295
 20
103.296522773
 11
44.6436158957
 21
103.1425547726
  0
LINE
  5
25C
100
AcDbEntity
  8
0
100
AcDbLine
 62
7
  6
BYLAYER
 10
38.3946674748
 20
106.6573229216
 11
38.6865999522
 21
106.7553025582
  0
LINE
  5
25D
100
AcDbEntity
  8
0
100
AcDbLine
 62
7
  6
BYLAYER
 10
42.4052427308
 20
103.7205500535
 11
65.9406230887
 21
100.8356954666
  0
LINE
  5
25E
100
AcDbEntity
  8
0
100
AcDbLine
 62
7
  6
BYLAYER
 10
38.3946674748
 20
109.7169185585
 11
38.6865999522
 21
109.6189389219
  0
LINE
  5
25F
100
AcDbEntity
  8
0
100
AcDbLine
 62
7
  6
BYLAYER
 10
44.6436158957
 20
113.2316867075
 11
44.910296295
 21
113.0777187071
  0
LINE
  5
260
100
AcDbEntity
  8
0
100
AcDbLine
 62
7
  6
BYLAYER
 10
66.78340476
 20
107.4736069137
 11
66.2113122898
 21
108.0456993838
  0
LINE
  5
261
100
AcDbEntity
  8
0
100
AcDbLine
 62
7
  6
BYLAYER
 10
31.200969837
 20
88.1153114567
 11
30.2095770831
 21
87.849668569
  0
LINE
  5
262
100
AcDbEntity
  8
0
100
AcDbLine
 62
7
  6
BYLAYER
 10
68.3739160454
 20
100.68712074
 11
133.4527336461
 21
100.68712074
  0
LINE
  5
263
100
AcDbEntity
  8
0
100
AcDbLine
 62
7
  6
BYLAYER
 10
20.1074070794
 20
113.2518077062
 11
19.5216294752
 21
113.3816714746
  0
LINE
  5
264
100
AcDbEntity
  8
0
100
AcDbLine
 62
7
  6
BYLAYER
 10
126.4527336461
 20
104.68712074
 11
87.2688091097
 21
104.68712074
  0
LINE
  5
265
100
AcDbEntity
  8
0
100
AcDbLine
 62
7
  6
BYLAYER
 10
81.6450863
 20
104.68712074
 11
74.2592481946
 21
104.68712074
  0
LINE
  5
266
100
AcDbEntity
  8
0
100
AcDbLine
 62
7
  6
BYLAYER
 10
68.6366581824
 20
104.68712074
 11
60.4527336461
 21
104.68712074
  0
LINE
  5
267
100
AcDbEntity
  8
0
100
AcDbLine
 62
7
  6
BYLAYER
 10
21.6381838456
 20
106.3322289809
 11
37.6636705727
 21
106.3322289809
  0
LINE
  5
268
100
AcDbEntity
  8
0
100
AcDbLine
 62
7
  6
BYLAYER
 10
57.522757402
 20
106.3322289809
 11
64.2672834465
 21
106.3322289809
  0
LINE
  5
269
100
AcDbEntity
  8
0
100
AcDbLine
 62
7
  6
BYLAYER
 10
64.3813943602
 20
107.1291847393
 11
57.2186845973
 21
107.1291847393
  0
LINE
  5
26A
100
AcDbEntity
  8
0
100
AcDbLine
 62
7
  6
BYLAYER
 10
37.7385702424
 20
107.1291847393
 11
21.524072932
 21
107.1291847393
  0
LINE
  5
26B
100
AcDbEntity
  8
0
100
AcDbLine
 62
7
  6
BYLAYER
 10
21.524072932
 20
107.43712074
 11
37.7385702424
 21
107.43712074
  0
LINE
  5
26C
100
AcDbEntity
  8
0
100
AcDbLine
 62
7
  6
BYLAYER
 10
57.1011938051
 20
107.43712074
 11
64.3813943602
 21
107.43712074
  0
LINE
  5
26D
100
AcDbEntity
  8
0
100
AcDbLine
 62
7
  6
BYLAYER
 10
20.8343052746
 20
109.9934515307
 11
20.5273910383
 21
110.0185160889
  0
LINE
  5
26E
100
AcDbEntity
  8
0
100
AcDbLine
 62
7
  6
BYLAYER
 10
65.0711620175
 20
106.3807899494
 11
65.3780762538
 21
106.3557253912
  0
LINE
  5
26F
100
AcDbEntity
  8
0
100
AcDbLine
 62
7
  6
BYLAYER
 10
54.5832634553
 20
90.1583241929
 11
54.3165830559
 21
90.0043561926
  0
LINE
  5
270
100
AcDbEntity
  8
0
100
AcDbLine
 62
7
  6
BYLAYER
 10
52.7508645509
 20
89.1003881922
 11
53.0175449503
 21
89.2543561926
  0
LINE
  5
271
100
AcDbEntity
  8
0
100
AcDbLine
 62
7
  6
BYLAYER
 10
20.8343052746
 20
106.3807899494
 11
20.5273910383
 21
106.3557253912
  0
LINE
  5
272
100
AcDbEntity
  8
0
100
AcDbLine
 62
7
  6
BYLAYER
 10
65.0711620175
 20
109.9934515307
 11
65.3780762538
 21
110.0185160889
  0
LINE
  5
273
100
AcDbEntity
  8
0
100
AcDbLine
 62
7
  6
BYLAYER
 10
64.3813943602
 20
108.93712074
 11
57.1043001834
 21
108.93712074
  0
LINE
  5
274
100
AcDbEntity
  8
0
100
AcDbLine
 62
7
  6
BYLAYER
 10
37.7385702424
 20
108.93712074
 11
21.524072932
 21
108.93712074
  0
LINE
  5
275
100
AcDbEntity
  8
0
100
AcDbLine
 62
7
  6
BYLAYER
 10
21.524072932
 20
109.2450567408
 11
37.7385702424
 21
109.2450567408
  0
LINE
  5
276
100
AcDbEntity
  8
0
100
AcDbLine
 62
7
  6
BYLAYER
 10
57.2195708418
 20
109.2450567408
 11
64.3813943602
 21
109.2450567408
  0
LINE
  5
277
100
AcDbEntity
  8
0
100
AcDbLine
 62
7
  6
BYLAYER
 10
64.2672834465
 20
110.0420124992
 11
57.517897815
 21
110.0420124992
  0
LINE
  5
278
100
AcDbEntity
  8
0
100
AcDbLine
 62
7
  6
BYLAYER
 10
37.6636705727
 20
110.0420124992
 11
21.6381838456
 21
110.0420124992
  0
LINE
  5
279
100
AcDbEntity
  8
0
100
AcDbLine
 62
7
  6
BYLAYER
 10
60.4527336461
 20
111.68712074
 11
68.6366581824
 21
111.68712074
  0
LINE
  5
27A
100
AcDbEntity
  8
0
100
AcDbLine
 62
7
  6
BYLAYER
 10
74.2603809921
 20
111.68712074
 11
81.6462190976
 21
111.68712074
  0
LINE
  5
27B
100
AcDbEntity
  8
0
100
AcDbLine
 62
7
  6
BYLAYER
 10
87.2688091097
 20
111.68712074
 11
126.4527336461
 21
111.68712074
  0
LINE
  5
27C
100
AcDbEntity
  8
0
100
AcDbLine
 62
7
  6
BYLAYER
 10
54.5832634553
 20
126.2159172872
 11
54.3165830559
 21
126.3698852875
  0
LINE
  5
27D
100
AcDbEntity
  8
0
100
AcDbLine
 62
7
  6
BYLAYER
 10
53.0175449503
 20
127.1198852875
 11
52.7508645509
 21
127.2738532879
  0
LINE
  5
27E
100
AcDbEntity
  8
0
100
AcDbLine
 62
7
  6
BYLAYER
 10
20.1074070794
 20
103.1224337739
 11
19.5216294752
 21
102.9925700055
  0
LINE
  5
27F
100
AcDbEntity
  8
0
100
AcDbLine
 62
7
  6
BYLAYER
 10
65.9406230887
 20
115.5385460135
 11
42.4052427308
 21
112.6536914266
  0
LINE
  5
280
100
AcDbEntity
  8
0
100
AcDbLine
 62
7
  6
BYLAYER
 10
68.3739160454
 20
115.68712074
 11
133.4527336461
 21
115.68712074
  0
LINE
  5
281
100
AcDbEntity
  8
0
100
AcDbLine
 62
7
  6
BYLAYER
 10
31.200969837
 20
128.2589300234
 11
30.2095770831
 21
128.5245729112
  0
LINE
  5
282
100
AcDbEntity
  8
0
100
AcDbLine
 62
7
  6
BYLAYER
 10
55.695890209
 20
128.5245729111
 11
54.7044974551
 21
128.2589300234
  0
LINE
  5
283
100
AcDbEntity
  8
0
100
AcDbLine
 62
7
  6
BYLAYER
 10
138.4527336461
 20
105.68712074
 11
138.4527336461
 21
110.68712074
  0
ARC
  5
284
100
AcDbEntity
  8
0
100
AcDbCircle
 62
7
  6
BYLAYER
 10
15.8926163915
 20
70.3830241738
 40
59.9590166432
100
AcDbArc
 50
72.5208377843
 51
73.2872201562
  0
ARC
  5
285
100
AcDbEntity
  8
0
100
AcDbCircle
 62
7
  6
BYLAYER
 10
24.6615882289
 20
66.8381816883
 40
58.610426465
100
AcDbArc
 50
46.7039627126
 51
47.4879793476
  0
ARC
  5
286
100
AcDbEntity
  8
0
100
AcDbCircle
 62
7
  6
BYLAYER
 10
-2.0020706478
 20
103.353247798
 40
58.6104264107
100
AcDbArc
 50
346.7039627118
 51
347.4879793476
  0
ARC
  5
287
100
AcDbEntity
  8
0
100
AcDbCircle
 62
7
  6
BYLAYER
 10
28.108542798
 20
106.3839074103
 40
17.4843129643
100
AcDbArc
 50
22.1491999861
 51
24.7180488841
  0
ARC
  5
288
100
AcDbEntity
  8
0
100
AcDbCircle
 62
7
  6
BYLAYER
 10
21.524072932
 20
106.43712074
 40
1.0
100
AcDbArc
 50
90.0
 51
184.6687749339
  0
ARC
  5
289
100
AcDbEntity
  8
0
100
AcDbCircle
 62
7
  6
BYLAYER
 10
30.7228588324
 20
90.5043561926
 40
1.0
100
AcDbArc
 50
235.3312250659
 51
329.9999999983
  0
ARC
  5
28A
100
AcDbEntity
  8
0
100
AcDbCircle
 62
7
  6
BYLAYER
 10
21.5340189985
 20
106.3735685127
 40
0.6997509875
100
AcDbArc
 50
174.7891478793
 51
179.4086965219
  0
ARC
  5
28B
100
AcDbEntity
  8
0
100
AcDbCircle
 62
7
  6
BYLAYER
 10
30.7543423038
 20
90.5601592651
 40
0.6956566293
100
AcDbArc
 50
279.418011039
 51
324.7156824992
  0
ARC
  5
28C
100
AcDbEntity
  8
0
100
AcDbCircle
 62
7
  6
BYLAYER
 10
21.5880564745
 20
106.4366451375
 40
0.6954890322
100
AcDbArc
 50
95.2785562726
 51
140.587750189
  0
ARC
  5
28D
100
AcDbEntity
  8
0
100
AcDbCircle
 62
7
  6
BYLAYER
 10
30.6709045056
 20
90.5396758517
 40
0.6944070022
100
AcDbArc
 50
240.521704259
 51
286.5043097611
  0
ARC
  5
28E
100
AcDbEntity
  8
0
100
AcDbCircle
 62
7
  6
BYLAYER
 10
21.5282304209
 20
106.3747667422
 40
0.6938778285
100
AcDbArc
 50
133.4855787276
 51
174.8442698417
  0
ARC
  5
28F
100
AcDbEntity
  8
0
100
AcDbCircle
 62
7
  6
BYLAYER
 10
62.1619829835
 20
65.8503235155
 40
59.9590166015
100
AcDbArc
 50
132.5208377837
 51
133.2872201561
  0
ARC
  5
290
100
AcDbEntity
  8
0
100
AcDbCircle
 62
7
  6
BYLAYER
 10
37.0922667737
 20
94.4300676996
 40
17.4843129668
100
AcDbArc
 50
82.1491999864
 51
84.718048884
  0
ARC
  5
291
100
AcDbEntity
  8
0
100
AcDbCircle
 62
7
  6
BYLAYER
 10
33.7539477456
 20
88.7543561926
 40
1.0
100
AcDbArc
 50
149.9999999995
 51
244.6687749326
  0
ARC
  5
292
100
AcDbEntity
  8
0
100
AcDbCircle
 62
7
  6
BYLAYER
 10
33.8139586222
 20
88.731193625
 40
0.6997509874
100
AcDbArc
 50
234.7891478788
 51
239.4086965224
  0
ARC
  5
293
100
AcDbEntity
  8
0
100
AcDbCircle
 62
7
  6
BYLAYER
 10
33.7863514008
 20
88.8095297646
 40
0.6954890321
100
AcDbArc
 50
155.2785562721
 51
200.5877501901
  0
ARC
  5
294
100
AcDbEntity
  8
0
100
AcDbCircle
 62
7
  6
BYLAYER
 10
33.8100266363
 20
88.7267796846
 40
0.6938778285
100
AcDbArc
 50
193.4855787272
 51
234.8442698419
  0
ARC
  5
295
100
AcDbEntity
  8
0
100
AcDbCircle
 62
7
  6
BYLAYER
 10
31.2527336461
 20
87.9221262915
 40
0.2
100
AcDbArc
 50
14.9999999957
 51
105.0000000105
  0
ARC
  5
296
100
AcDbEntity
  8
0
100
AcDbCircle
 62
7
  6
BYLAYER
 10
37.7385702424
 20
106.43712074
 40
1.0
100
AcDbArc
 50
18.5530045349
 51
90.0
  0
ARC
  5
297
100
AcDbEntity
  8
0
100
AcDbCircle
 62
7
  6
BYLAYER
 10
38.8301074876
 20
104.546522773
 40
1.0
100
AcDbArc
 50
329.9999999999
 51
41.446995465
  0
ARC
  5
298
100
AcDbEntity
  8
0
100
AcDbCircle
 62
7
  6
BYLAYER
 10
41.8611964009
 20
102.796522773
 40
1.0
100
AcDbArc
 50
78.5530045351
 51
149.9999999998
  0
ARC
  5
299
100
AcDbEntity
  8
0
100
AcDbCircle
 62
7
  6
BYLAYER
 10
44.0442708913
 20
102.796522773
 40
1.0
100
AcDbArc
 50
30.0000000018
 51
38.9661494524
  0
ARC
  5
29A
100
AcDbEntity
  8
0
100
AcDbCircle
 62
7
  6
BYLAYER
 10
38.7789375586
 20
104.5944147669
 40
0.7021930453
100
AcDbArc
 50
2.3934329906
 51
35.7447453597
  0
ARC
  5
29B
100
AcDbEntity
  8
0
100
AcDbCircle
 62
7
  6
BYLAYER
 10
43.9772102434
 20
102.7761543115
 40
0.7021930453
100
AcDbArc
 50
62.3934329907
 51
95.7447453598
  0
ARC
  5
29C
100
AcDbEntity
  8
0
100
AcDbCircle
 62
7
  6
BYLAYER
 10
37.7544718011
 20
106.3688696848
 40
0.7021793007
100
AcDbArc
 50
24.2549186875
 51
57.606902962
  0
ARC
  5
29D
100
AcDbEntity
  8
0
100
AcDbCircle
 62
7
  6
BYLAYER
 10
41.9282543279
 20
102.7761683992
 40
0.7021793007
100
AcDbArc
 50
84.2549186875
 51
117.606902962
  0
ARC
  5
29E
100
AcDbEntity
  8
0
100
AcDbCircle
 62
7
  6
BYLAYER
 10
38.7955216983
 20
104.4917754718
 40
0.6976496447
100
AcDbArc
 50
335.3217040995
 51
4.5010361815
  0
ARC
  5
29F
100
AcDbEntity
  8
0
100
AcDbCircle
 62
7
  6
BYLAYER
 10
44.0743905503
 20
102.7391969503
 40
0.6976496447
100
AcDbArc
 50
35.3217040996
 51
64.5010361814
  0
ARC
  5
2A0
100
AcDbEntity
  8
0
100
AcDbCircle
 62
7
  6
BYLAYER
 10
37.6740751336
 20
106.4352757398
 40
0.696899791
100
AcDbArc
 50
49.0692122476
 51
84.6899211651
  0
ARC
  5
2A1
100
AcDbEntity
  8
0
100
AcDbCircle
 62
7
  6
BYLAYER
 10
41.8305466636
 20
102.7397458702
 40
0.696899791
100
AcDbArc
 50
109.0692122474
 51
144.689921165
  0
ARC
  5
2A2
100
AcDbEntity
  8
0
100
AcDbCircle
 62
7
  6
BYLAYER
 10
38.8015536908
 20
104.4920736534
 40
0.6916128773
100
AcDbArc
 50
4.5156259032
 51
10.9746436329
  0
ARC
  5
2A3
100
AcDbEntity
  8
0
100
AcDbCircle
 62
7
  6
BYLAYER
 10
44.0771483137
 20
102.7445698999
 40
0.6916128773
100
AcDbArc
 50
64.5156259031
 51
70.974643633
  0
ARC
  5
2A4
100
AcDbEntity
  8
0
100
AcDbCircle
 62
7
  6
BYLAYER
 10
51.9364576192
 20
96.233281034
 40
17.4843129607
100
AcDbArc
 50
142.1491999859
 51
144.7180488845
  0
ARC
  5
2A5
100
AcDbEntity
  8
0
100
AcDbCircle
 62
7
  6
BYLAYER
 10
52.1515195465
 20
88.7543561926
 40
1.0
100
AcDbArc
 50
295.3312250665
 51
29.9999999995
  0
ARC
  5
2A6
100
AcDbEntity
  8
0
100
AcDbCircle
 62
7
  6
BYLAYER
 10
55.1826084597
 20
90.5043561926
 40
1.0
100
AcDbArc
 50
210.0000000016
 51
304.6687749341
  0
ARC
  5
2A7
100
AcDbEntity
  8
0
100
AcDbCircle
 62
7
  6
BYLAYER
 10
55.2326732698
 20
90.5447458526
 40
0.6997509876
100
AcDbArc
 50
294.7891478791
 51
299.4086965219
  0
ARC
  5
2A8
100
AcDbEntity
  8
0
100
AcDbCircle
 62
7
  6
BYLAYER
 10
52.1189344038
 20
88.8095232149
 40
0.6956566293
100
AcDbArc
 50
339.4180110387
 51
24.7156824994
  0
ARC
  5
2A9
100
AcDbEntity
  8
0
100
AcDbCircle
 62
7
  6
BYLAYER
 10
55.1510285723
 20
90.5600053671
 40
0.6954890321
100
AcDbArc
 50
215.2785562727
 51
260.5877501896
  0
ARC
  5
2AA
100
AcDbEntity
  8
0
100
AcDbCircle
 62
7
  6
BYLAYER
 10
52.094954661
 20
88.7270222553
 40
0.6944070022
100
AcDbArc
 50
300.5217042595
 51
346.5043097612
  0
ARC
  5
2AB
100
AcDbEntity
  8
0
100
AcDbCircle
 62
7
  6
BYLAYER
 10
55.2345298615
 20
90.5391336825
 40
0.6938778285
100
AcDbArc
 50
253.4855787274
 51
294.8442698417
  0
ARC
  5
2AC
100
AcDbEntity
  8
0
100
AcDbCircle
 62
7
  6
BYLAYER
 10
54.6527336461
 20
87.9221262915
 40
0.2
100
AcDbArc
 50
74.9999999957
 51
165.0000000038
  0
ARC
  5
2AD
100
AcDbEntity
  8
0
100
AcDbCircle
 62
7
  6
BYLAYER
 10
57.7296421018
 20
106.4130699926
 40
17.4110008695
100
AcDbArc
 50
155.2765419079
 51
157.8562092218
  0
ARC
  5
2AE
100
AcDbEntity
  8
0
100
AcDbCircle
 62
7
  6
BYLAYER
 10
64.3813943602
 20
106.43712074
 40
1.0
100
AcDbArc
 50
355.331225066
 51
90.0
  0
ARC
  5
2AF
100
AcDbEntity
  8
0
100
AcDbCircle
 62
7
  6
BYLAYER
 10
64.317325746
 20
106.4364846898
 40
0.6956566293
100
AcDbArc
 50
39.4180110395
 51
84.7156824989
  0
ARC
  5
2B0
100
AcDbEntity
  8
0
100
AcDbCircle
 62
7
  6
BYLAYER
 10
64.3767838015
 20
106.3744671436
 40
0.6944070022
100
AcDbArc
 50
0.5217042594
 51
46.5043097609
  0
ARC
  5
2B1
100
AcDbEntity
  8
0
100
AcDbCircle
 62
7
  6
BYLAYER
 10
-3.3166329265
 20
112.7198214396
 40
59.9590165938
100
AcDbArc
 50
12.5208377842
 51
13.2872201567
  0
ARC
  5
2B2
100
AcDbEntity
  8
0
100
AcDbCircle
 62
7
  6
BYLAYER
 10
28.1758251904
 20
109.9611714875
 40
17.4110008694
100
AcDbArc
 50
335.2765419079
 51
337.8562092218
  0
ARC
  5
2B3
100
AcDbEntity
  8
0
100
AcDbCircle
 62
7
  6
BYLAYER
 10
21.524072932
 20
109.93712074
 40
1.0
100
AcDbArc
 50
175.331225066
 51
270.0
  0
ARC
  5
2B4
100
AcDbEntity
  8
0
100
AcDbCircle
 62
7
  6
BYLAYER
 10
21.5881415461
 20
109.9377567903
 40
0.6956566293
100
AcDbArc
 50
219.4180110395
 51
264.7156824989
  0
ARC
  5
2B5
100
AcDbEntity
  8
0
100
AcDbCircle
 62
7
  6
BYLAYER
 10
21.5286834906
 20
109.9997743364
 40
0.6944070022
100
AcDbArc
 50
180.5217042594
 51
226.5043097609
  0
ARC
  5
2B6
100
AcDbEntity
  8
0
100
AcDbCircle
 62
7
  6
BYLAYER
 10
19.5527336461
 20
108.18712074
 40
0.2
100
AcDbArc
 50
314.9999999959
 51
44.9999999934
  0
ARC
  5
2B7
100
AcDbEntity
  8
0
100
AcDbCircle
 62
7
  6
BYLAYER
 10
23.7434843083
 20
150.5239179649
 40
59.9590166018
100
AcDbArc
 50
312.5208377837
 51
313.2872201561
  0
ARC
  5
2B8
100
AcDbEntity
  8
0
100
AcDbCircle
 62
7
  6
BYLAYER
 10
16.2890747127
 20
144.7021868738
 40
58.6104264778
100
AcDbArc
 50
286.7039627124
 51
287.4879793473
  0
ARC
  5
2B9
100
AcDbEntity
  8
0
100
AcDbCircle
 62
7
  6
BYLAYER
 10
37.7385702424
 20
109.93712074
 40
1.0
100
AcDbArc
 50
270.0
 51
341.4469954651
  0
ARC
  5
2BA
100
AcDbEntity
  8
0
100
AcDbCircle
 62
7
  6
BYLAYER
 10
37.7544609612
 20
110.0053811954
 40
0.7021930453
100
AcDbArc
 50
302.3934329907
 51
335.7447453598
  0
ARC
  5
2BB
100
AcDbEntity
  8
0
100
AcDbCircle
 62
7
  6
BYLAYER
 10
37.6738647941
 20
109.9396992616
 40
0.6976496447
100
AcDbArc
 50
275.3217040995
 51
304.5010361813
  0
ARC
  5
2BC
100
AcDbEntity
  8
0
100
AcDbCircle
 62
7
  6
BYLAYER
 10
37.6771390233
 20
109.9346244936
 40
0.6916128773
100
AcDbArc
 50
304.5156259031
 51
310.9746436331
  0
ARC
  5
2BD
100
AcDbEntity
  8
0
100
AcDbCircle
 62
7
  6
BYLAYER
 10
38.8301074876
 20
111.8277187071
 40
1.0
100
AcDbArc
 50
318.553004535
 51
30.0000000002
  0
ARC
  5
2BE
100
AcDbEntity
  8
0
100
AcDbCircle
 62
7
  6
BYLAYER
 10
38.7789511193
 20
111.7798220256
 40
0.7021793007
100
AcDbArc
 50
324.2549186876
 51
357.6069029621
  0
ARC
  5
2BF
100
AcDbEntity
  8
0
100
AcDbCircle
 62
7
  6
BYLAYER
 10
38.7962621161
 20
111.8826506096
 40
0.696899791
100
AcDbArc
 50
349.0692122472
 51
24.689921165
  0
ARC
  5
2C0
100
AcDbEntity
  8
0
100
AcDbCircle
 62
7
  6
BYLAYER
 10
42.9527336461
 20
108.18712074
 40
25.0
100
AcDbArc
 50
18.8142314282
 51
341.1842432416
  0
ARC
  5
2C1
100
AcDbEntity
  8
0
100
AcDbCircle
 62
7
  6
BYLAYER
 10
42.9527336461
 20
108.18712074
 40
24.0
100
AcDbArc
 50
182.0706695189
 51
192.5
  0
ARC
  5
2C2
100
AcDbEntity
  8
0
100
AcDbCircle
 62
7
  6
BYLAYER
 10
42.9527336461
 20
108.18712074
 40
24.0
100
AcDbArc
 50
167.5
 51
177.9293304811
  0
ARC
  5
2C3
100
AcDbEntity
  8
0
100
AcDbCircle
 62
7
  6
BYLAYER
 10
42.9527336461
 20
108.18712074
 40
24.0
100
AcDbArc
 50
122.0706695189
 51
132.5
  0
ARC
  5
2C4
100
AcDbEntity
  8
0
100
AcDbCircle
 62
7
  6
BYLAYER
 10
42.9527336461
 20
108.18712074
 40
24.0
100
AcDbArc
 50
107.5
 51
117.9293304811
  0
ARC
  5
2C5
100
AcDbEntity
  8
0
100
AcDbCircle
 62
7
  6
BYLAYER
 10
42.9527336461
 20
108.18712074
 40
24.0
100
AcDbArc
 50
62.0706695189
 51
72.5
  0
ARC
  5
2C6
100
AcDbEntity
  8
0
100
AcDbCircle
 62
7
  6
BYLAYER
 10
42.9527336461
 20
108.18712074
 40
24.0
100
AcDbArc
 50
47.5
 51
57.9293304811
  0
ARC
  5
2C7
100
AcDbEntity
  8
0
100
AcDbCircle
 62
7
  6
BYLAYER
 10
42.9527336461
 20
108.18712074
 40
24.0
100
AcDbArc
 50
2.9201866383
 51
8.3878643859
  0
ARC
  5
2C8
100
AcDbEntity
  8
0
100
AcDbCircle
 62
7
  6
BYLAYER
 10
42.9527336461
 20
108.18712074
 40
24.0
100
AcDbArc
 50
351.6121356141
 51
357.0798343083
  0
ARC
  5
2C9
100
AcDbEntity
  8
0
100
AcDbCircle
 62
7
  6
BYLAYER
 10
42.9527336461
 20
108.18712074
 40
24.0
100
AcDbArc
 50
302.0706695189
 51
312.5
  0
ARC
  5
2CA
100
AcDbEntity
  8
0
100
AcDbCircle
 62
7
  6
BYLAYER
 10
42.9527336461
 20
108.18712074
 40
24.0
100
AcDbArc
 50
227.5
 51
237.9293304811
  0
ARC
  5
2CB
100
AcDbEntity
  8
0
100
AcDbCircle
 62
7
  6
BYLAYER
 10
42.9527336461
 20
108.18712074
 40
24.0
100
AcDbArc
 50
242.0706695189
 51
252.5
  0
ARC
  5
2CC
100
AcDbEntity
  8
0
100
AcDbCircle
 62
7
  6
BYLAYER
 10
42.9527336461
 20
108.18712074
 40
24.0
100
AcDbArc
 50
287.5
 51
297.9293304811
  0
ARC
  5
2CD
100
AcDbEntity
  8
0
100
AcDbCircle
 62
7
  6
BYLAYER
 10
42.9527336461
 20
108.18712074
 40
23.4
100
AcDbArc
 50
192.5
 51
227.5
  0
ARC
  5
2CE
100
AcDbEntity
  8
0
100
AcDbCircle
 62
7
  6
BYLAYER
 10
42.9527336461
 20
108.18712074
 40
23.4
100
AcDbArc
 50
132.5
 51
167.5
  0
ARC
  5
2CF
100
AcDbEntity
  8
0
100
AcDbCircle
 62
7
  6
BYLAYER
 10
42.9527336461
 20
108.18712074
 40
23.4
100
AcDbArc
 50
72.5
 51
107.5
  0
ARC
  5
2D0
100
AcDbEntity
  8
0
100
AcDbCircle
 62
7
  6
BYLAYER
 10
42.9527336461
 20
108.18712074
 40
23.4
100
AcDbArc
 50
18.0781617748
 51
47.5
  0
ARC
  5
2D1
100
AcDbEntity
  8
0
100
AcDbCircle
 62
7
  6
BYLAYER
 10
42.9527336461
 20
108.18712074
 40
23.4
100
AcDbArc
 50
312.5
 51
341.9218382252
  0
ARC
  5
2D2
100
AcDbEntity
  8
0
100
AcDbCircle
 62
7
  6
BYLAYER
 10
42.9527336461
 20
108.18712074
 40
23.4
100
AcDbArc
 50
252.5
 51
287.5
  0
ARC
  5
2D3
100
AcDbEntity
  8
0
100
AcDbCircle
 62
7
  6
BYLAYER
 10
42.9527336461
 20
108.18712074
 40
22.5
100
AcDbArc
 50
124.6687749341
 51
175.3312250659
  0
ARC
  5
2D4
100
AcDbEntity
  8
0
100
AcDbCircle
 62
7
  6
BYLAYER
 10
42.9527336461
 20
108.18712074
 40
22.5
100
AcDbArc
 50
184.6687749341
 51
235.3312250659
  0
ARC
  5
2D5
100
AcDbEntity
  8
0
100
AcDbCircle
 62
7
  6
BYLAYER
 10
42.9527336461
 20
108.18712074
 40
22.5
100
AcDbArc
 50
244.668774934
 51
295.3312250659
  0
ARC
  5
2D6
100
AcDbEntity
  8
0
100
AcDbCircle
 62
7
  6
BYLAYER
 10
42.9527336461
 20
108.18712074
 40
22.5
100
AcDbArc
 50
349.3126153773
 51
355.3312250659
  0
ARC
  5
2D7
100
AcDbEntity
  8
0
100
AcDbCircle
 62
7
  6
BYLAYER
 10
42.9527336461
 20
108.18712074
 40
22.5
100
AcDbArc
 50
304.6687749341
 51
340.4990534521
  0
ARC
  5
2D8
100
AcDbEntity
  8
0
100
AcDbCircle
 62
7
  6
BYLAYER
 10
42.9527336461
 20
108.18712074
 40
22.5
100
AcDbArc
 50
19.5009465479
 51
55.3312250659
  0
ARC
  5
2D9
100
AcDbEntity
  8
0
100
AcDbCircle
 62
7
  6
BYLAYER
 10
42.9527336461
 20
108.18712074
 40
22.5
100
AcDbArc
 50
4.6687749341
 51
10.6873846227
  0
ARC
  5
2DA
100
AcDbEntity
  8
0
100
AcDbCircle
 62
7
  6
BYLAYER
 10
42.9527336461
 20
108.18712074
 40
22.5
100
AcDbArc
 50
64.668774934
 51
115.3312250659
  0
ARC
  5
2DB
100
AcDbEntity
  8
0
100
AcDbCircle
 62
7
  6
BYLAYER
 10
42.9527336461
 20
108.18712074
 40
22.1920639993
100
AcDbArc
 50
4.6687749341
 51
10.8593277779
  0
ARC
  5
2DC
100
AcDbEntity
  8
0
100
AcDbCircle
 62
7
  6
BYLAYER
 10
42.9527336461
 20
108.18712074
 40
22.1920639993
100
AcDbArc
 50
19.6160022326
 51
55.3312250659
  0
ARC
  5
2DD
100
AcDbEntity
  8
0
100
AcDbCircle
 62
7
  6
BYLAYER
 10
42.9527336461
 20
108.18712074
 40
22.1920639993
100
AcDbArc
 50
64.6687749341
 51
115.3312250659
  0
ARC
  5
2DE
100
AcDbEntity
  8
0
100
AcDbCircle
 62
7
  6
BYLAYER
 10
42.9527336461
 20
108.18712074
 40
22.1920639993
100
AcDbArc
 50
124.6687749341
 51
175.3312250659
  0
ARC
  5
2DF
100
AcDbEntity
  8
0
100
AcDbCircle
 62
7
  6
BYLAYER
 10
42.9527336461
 20
108.18712074
 40
22.1920639993
100
AcDbArc
 50
184.6687749341
 51
235.3312250659
  0
ARC
  5
2E0
100
AcDbEntity
  8
0
100
AcDbCircle
 62
7
  6
BYLAYER
 10
42.9527336461
 20
108.18712074
 40
22.1920639993
100
AcDbArc
 50
244.6687749341
 51
295.3312250659
  0
ARC
  5
2E1
100
AcDbEntity
  8
0
100
AcDbCircle
 62
7
  6
BYLAYER
 10
42.9527336461
 20
108.18712074
 40
22.1920639993
100
AcDbArc
 50
304.6687749341
 51
340.3839977674
  0
ARC
  5
2E2
100
AcDbEntity
  8
0
100
AcDbCircle
 62
7
  6
BYLAYER
 10
42.9527336461
 20
108.18712074
 40
22.1920639993
100
AcDbArc
 50
349.1406722221
 51
355.3312250659
  0
ARC
  5
2E3
100
AcDbEntity
  8
0
100
AcDbCircle
 62
7
  6
BYLAYER
 10
42.9527336461
 20
108.18712074
 40
21.3951082408
100
AcDbArc
 50
4.9736162679
 51
11.2170774065
  0
ARC
  5
2E4
100
AcDbEntity
  8
0
100
AcDbCircle
 62
7
  6
BYLAYER
 10
42.9527336461
 20
108.18712074
 40
21.3951082408
100
AcDbArc
 50
19.9546557442
 51
55.0263837321
  0
ARC
  5
2E5
100
AcDbEntity
  8
0
100
AcDbCircle
 62
7
  6
BYLAYER
 10
42.9527336461
 20
108.18712074
 40
21.3951082408
100
AcDbArc
 50
64.9736162679
 51
115.0263837321
  0
ARC
  5
2E6
100
AcDbEntity
  8
0
100
AcDbCircle
 62
7
  6
BYLAYER
 10
42.9527336461
 20
108.18712074
 40
21.3951082408
100
AcDbArc
 50
124.9736162679
 51
175.0263837321
  0
ARC
  5
2E7
100
AcDbEntity
  8
0
100
AcDbCircle
 62
7
  6
BYLAYER
 10
42.9527336461
 20
108.18712074
 40
21.3951082408
100
AcDbArc
 50
184.9736162679
 51
235.0263837321
  0
ARC
  5
2E8
100
AcDbEntity
  8
0
100
AcDbCircle
 62
7
  6
BYLAYER
 10
42.9527336461
 20
108.18712074
 40
21.3951082408
100
AcDbArc
 50
244.9736162679
 51
295.0263837321
  0
ARC
  5
2E9
100
AcDbEntity
  8
0
100
AcDbCircle
 62
7
  6
BYLAYER
 10
42.9527336461
 20
108.18712074
 40
21.3951082408
100
AcDbArc
 50
304.9736162679
 51
340.0453442558
  0
ARC
  5
2EA
100
AcDbEntity
  8
0
100
AcDbCircle
 62
7
  6
BYLAYER
 10
42.9527336461
 20
108.18712074
 40
21.3951082408
100
AcDbArc
 50
348.7829225935
 51
355.0263837321
  0
ARC
  5
2EB
100
AcDbEntity
  8
0
100
AcDbCircle
 62
7
  6
BYLAYER
 10
42.9527336461
 20
108.18712074
 40
5.6048917592
100
AcDbArc
 50
79.3259357885
 51
100.6740642115
  0
ARC
  5
2EC
100
AcDbEntity
  8
0
100
AcDbCircle
 62
7
  6
BYLAYER
 10
42.9527336461
 20
108.18712074
 40
5.6048917592
100
AcDbArc
 50
139.3259357885
 51
160.6740642115
  0
ARC
  5
2ED
100
AcDbEntity
  8
0
100
AcDbCircle
 62
7
  6
BYLAYER
 10
42.9527336461
 20
108.18712074
 40
5.6048917592
100
AcDbArc
 50
199.3259357885
 51
220.6740642115
  0
ARC
  5
2EE
100
AcDbEntity
  8
0
100
AcDbCircle
 62
7
  6
BYLAYER
 10
42.9527336461
 20
108.18712074
 40
5.6048917592
100
AcDbArc
 50
259.3259357885
 51
280.6740642115
  0
ARC
  5
2EF
100
AcDbEntity
  8
0
100
AcDbCircle
 62
7
  6
BYLAYER
 10
42.9527336461
 20
108.18712074
 40
4.8079360007
100
AcDbArc
 50
78.553004535
 51
101.446995465
  0
ARC
  5
2F0
100
AcDbEntity
  8
0
100
AcDbCircle
 62
7
  6
BYLAYER
 10
42.9527336461
 20
108.18712074
 40
4.8079360007
100
AcDbArc
 50
138.553004535
 51
161.446995465
  0
ARC
  5
2F1
100
AcDbEntity
  8
0
100
AcDbCircle
 62
7
  6
BYLAYER
 10
42.9527336461
 20
108.18712074
 40
4.8079360007
100
AcDbArc
 50
198.553004535
 51
221.446995465
  0
ARC
  5
2F2
100
AcDbEntity
  8
0
100
AcDbCircle
 62
7
  6
BYLAYER
 10
42.9527336461
 20
108.18712074
 40
4.8079360007
100
AcDbArc
 50
258.553004535
 51
281.446995465
  0
ARC
  5
2F3
100
AcDbEntity
  8
0
100
AcDbCircle
 62
7
  6
BYLAYER
 10
42.9527336461
 20
108.18712074
 40
4.5
100
AcDbArc
 50
96.9881838805
 51
263.0118161196
  0
ARC
  5
2F4
100
AcDbEntity
  8
0
100
AcDbCircle
 62
7
  6
BYLAYER
 10
42.9527336461
 20
108.18712074
 40
2.1
100
AcDbArc
 50
229.7275230523
 51
247.9261979623
  0
ARC
  5
2F5
100
AcDbEntity
  8
0
100
AcDbCircle
 62
7
  6
BYLAYER
 10
42.9527336461
 20
108.18712074
 40
2.1
100
AcDbArc
 50
136.3638911292
 51
223.8425226284
  0
ARC
  5
2F6
100
AcDbEntity
  8
0
100
AcDbCircle
 62
7
  6
BYLAYER
 10
42.9527336461
 20
108.18712074
 40
2.1
100
AcDbArc
 50
112.1176765811
 51
130.205015775
  0
ARC
  5
2F7
100
AcDbEntity
  8
0
100
AcDbCircle
 62
7
  6
BYLAYER
 10
42.9527336461
 20
108.18712074
 40
2.1
100
AcDbArc
 50
72.3264109624
 51
107.0571552227
  0
ARC
  5
2F8
100
AcDbEntity
  8
0
100
AcDbCircle
 62
7
  6
BYLAYER
 10
42.9527336461
 20
108.18712074
 40
2.1
100
AcDbArc
 50
49.7275230523
 51
67.9261979623
  0
ARC
  5
2F9
100
AcDbEntity
  8
0
100
AcDbCircle
 62
7
  6
BYLAYER
 10
42.9527336461
 20
108.18712074
 40
2.1
100
AcDbArc
 50
316.3638911292
 51
43.8425226284
  0
ARC
  5
2FA
100
AcDbEntity
  8
0
100
AcDbCircle
 62
7
  6
BYLAYER
 10
42.9527336461
 20
108.18712074
 40
2.1
100
AcDbArc
 50
292.1176765811
 51
310.205015775
  0
ARC
  5
2FB
100
AcDbEntity
  8
0
100
AcDbCircle
 62
7
  6
BYLAYER
 10
42.9527336461
 20
108.18712074
 40
2.1
100
AcDbArc
 50
252.3264109624
 51
287.0571552227
  0
CIRCLE
  5
2FC
100
AcDbEntity
  8
0
100
AcDbCircle
 62
7
  6
BYLAYER
 10
42.9527336461
 20
108.18712074
 40
2.05
  0
CIRCLE
  5
2FD
100
AcDbEntity
  8
0
100
AcDbCircle
 62
7
  6
BYLAYER
 10
42.9527336461
 20
108.18712074
 40
1.3
  0
ARC
  5
2FE
100
AcDbEntity
  8
0
100
AcDbCircle
 62
7
  6
BYLAYER
 10
44.0442708913
 20
113.5777187071
 40
1.0
100
AcDbArc
 50
320.9775890461
 51
329.9999999998
  0
ARC
  5
2FF
100
AcDbEntity
  8
0
100
AcDbCircle
 62
7
  6
BYLAYER
 10
41.8611964009
 20
113.5777187071
 40
1.0
100
AcDbArc
 50
210.0000000018
 51
281.446995465
  0
ARC
  5
300
100
AcDbEntity
  8
0
100
AcDbCircle
 62
7
  6
BYLAYER
 10
41.9282570487
 20
113.5980871686
 40
0.7021930453
100
AcDbArc
 50
242.3934329907
 51
275.7447453598
  0
ARC
  5
301
100
AcDbEntity
  8
0
100
AcDbCircle
 62
7
  6
BYLAYER
 10
43.9772129642
 20
113.5980730809
 40
0.7021793007
100
AcDbArc
 50
264.2549186875
 51
297.606902962
  0
ARC
  5
302
100
AcDbEntity
  8
0
100
AcDbCircle
 62
7
  6
BYLAYER
 10
41.8310767418
 20
113.6350445298
 40
0.6976496447
100
AcDbArc
 50
215.3217040996
 51
244.5010361815
  0
ARC
  5
303
100
AcDbEntity
  8
0
100
AcDbCircle
 62
7
  6
BYLAYER
 10
44.0749206286
 20
113.6344956099
 40
0.696899791
100
AcDbArc
 50
289.0692122474
 51
324.689921165
  0
ARC
  5
304
100
AcDbEntity
  8
0
100
AcDbCircle
 62
7
  6
BYLAYER
 10
41.8283189785
 20
113.6296715803
 40
0.6916128774
100
AcDbArc
 50
244.5156259032
 51
250.9746436323
  0
ARC
  5
305
100
AcDbEntity
  8
0
100
AcDbCircle
 62
7
  6
BYLAYER
 10
37.1006524332
 20
121.8713242255
 40
17.4110008692
100
AcDbArc
 50
275.2765419077
 51
277.8562092217
  0
ARC
  5
306
100
AcDbEntity
  8
0
100
AcDbCircle
 62
7
  6
BYLAYER
 10
33.7539477456
 20
127.6198852875
 40
1.0
100
AcDbArc
 50
115.3312250665
 51
209.9999999995
  0
ARC
  5
307
100
AcDbEntity
  8
0
100
AcDbCircle
 62
7
  6
BYLAYER
 10
30.7228588324
 20
125.8698852875
 40
1.0
100
AcDbArc
 50
30.0000000016
 51
124.6687749341
  0
ARC
  5
308
100
AcDbEntity
  8
0
100
AcDbCircle
 62
7
  6
BYLAYER
 10
30.6727940223
 20
125.8294956275
 40
0.6997509876
100
AcDbArc
 50
114.7891478791
 51
119.4086965219
  0
ARC
  5
309
100
AcDbEntity
  8
0
100
AcDbCircle
 62
7
  6
BYLAYER
 10
33.7865328883
 20
127.5647182652
 40
0.6956566293
100
AcDbArc
 50
159.4180110387
 51
204.7156824994
  0
ARC
  5
30A
100
AcDbEntity
  8
0
100
AcDbCircle
 62
7
  6
BYLAYER
 10
30.7544387198
 20
125.814236113
 40
0.6954890321
100
AcDbArc
 50
35.2785562727
 51
80.5877501897
  0
ARC
  5
30B
100
AcDbEntity
  8
0
100
AcDbCircle
 62
7
  6
BYLAYER
 10
33.8105126311
 20
127.6472192248
 40
0.6944070022
100
AcDbArc
 50
120.5217042595
 51
166.5043097612
  0
ARC
  5
30C
100
AcDbEntity
  8
0
100
AcDbCircle
 62
7
  6
BYLAYER
 10
30.6709374306
 20
125.8351077976
 40
0.6938778285
100
AcDbArc
 50
73.4855787274
 51
114.8442698417
  0
ARC
  5
30D
100
AcDbEntity
  8
0
100
AcDbCircle
 62
7
  6
BYLAYER
 10
31.2527336461
 20
128.4521151886
 40
0.2
100
AcDbArc
 50
254.9999999957
 51
345.0000000038
  0
ARC
  5
30E
100
AcDbEntity
  8
0
100
AcDbCircle
 62
7
  6
BYLAYER
 10
57.7969244943
 20
109.9903340698
 40
17.4843129645
100
AcDbArc
 50
202.1491999861
 51
204.7180488841
  0
ARC
  5
30F
100
AcDbEntity
  8
0
100
AcDbCircle
 62
7
  6
BYLAYER
 10
60.4527336461
 20
108.18712074
 40
3.5
100
AcDbArc
 50
90.0
 51
270.0
  0
ARC
  5
310
100
AcDbEntity
  8
0
100
AcDbCircle
 62
7
  6
BYLAYER
 10
64.3813943602
 20
109.93712074
 40
1.0
100
AcDbArc
 50
270.0
 51
4.6687749339
  0
ARC
  5
311
100
AcDbEntity
  8
0
100
AcDbCircle
 62
7
  6
BYLAYER
 10
64.3714482936
 20
110.0006729674
 40
0.6997509875
100
AcDbArc
 50
354.7891478793
 51
359.4086965219
  0
ARC
  5
312
100
AcDbEntity
  8
0
100
AcDbCircle
 62
7
  6
BYLAYER
 10
64.3174108176
 20
109.9375963426
 40
0.6954890322
100
AcDbArc
 50
275.2785562726
 51
320.587750189
  0
ARC
  5
313
100
AcDbEntity
  8
0
100
AcDbCircle
 62
7
  6
BYLAYER
 10
64.3772368712
 20
109.9994747379
 40
0.6938778285
100
AcDbArc
 50
313.4855787276
 51
354.8442698417
  0
ARC
  5
314
100
AcDbEntity
  8
0
100
AcDbCircle
 62
7
  6
BYLAYER
 10
51.8775608881
 20
120.0972734778
 40
17.4110008686
100
AcDbArc
 50
215.2765419078
 51
217.8562092218
  0
ARC
  5
315
100
AcDbEntity
  8
0
100
AcDbCircle
 62
7
  6
BYLAYER
 10
55.1826084597
 20
125.8698852875
 40
1.0
100
AcDbArc
 50
55.3312250659
 51
149.9999999983
  0
ARC
  5
316
100
AcDbEntity
  8
0
100
AcDbCircle
 62
7
  6
BYLAYER
 10
52.1515195465
 20
127.6198852875
 40
1.0
100
AcDbArc
 50
329.9999999995
 51
64.6687749326
  0
ARC
  5
317
100
AcDbEntity
  8
0
100
AcDbCircle
 62
7
  6
BYLAYER
 10
52.0915086699
 20
127.6430478551
 40
0.6997509874
100
AcDbArc
 50
54.7891478788
 51
59.4086965224
  0
ARC
  5
318
100
AcDbEntity
  8
0
100
AcDbCircle
 62
7
  6
BYLAYER
 10
55.1511249883
 20
125.814082215
 40
0.6956566293
100
AcDbArc
 50
99.418011039
 51
144.7156824992
  0
ARC
  5
319
100
AcDbEntity
  8
0
100
AcDbCircle
 62
7
  6
BYLAYER
 10
52.1191158913
 20
127.5647117155
 40
0.6954890321
100
AcDbArc
 50
335.2785562721
 51
20.5877501901
  0
ARC
  5
31A
100
AcDbEntity
  8
0
100
AcDbCircle
 62
7
  6
BYLAYER
 10
55.2345627865
 20
125.8345656284
 40
0.6944070022
100
AcDbArc
 50
60.521704259
 51
106.5043097611
  0
ARC
  5
31B
100
AcDbEntity
  8
0
100
AcDbCircle
 62
7
  6
BYLAYER
 10
52.0954406558
 20
127.6474617955
 40
0.6938778285
100
AcDbArc
 50
13.4855787272
 51
54.8442698419
  0
ARC
  5
31C
100
AcDbEntity
  8
0
100
AcDbCircle
 62
7
  6
BYLAYER
 10
54.6527336461
 20
128.4521151886
 40
0.2
100
AcDbArc
 50
194.9999999957
 51
285.0000000105
  0
ARC
  5
31D
100
AcDbEntity
  8
0
100
AcDbCircle
 62
7
  6
BYLAYER
 10
61.2438790621
 20
149.5360597907
 40
58.6104264635
100
AcDbArc
 50
226.7039627126
 51
227.4879793476
  0
ARC
  5
31E
100
AcDbEntity
  8
0
100
AcDbCircle
 62
7
  6
BYLAYER
 10
89.2221002175
 20
103.6544200403
 40
59.9590165927
100
AcDbArc
 50
192.5208377842
 51
193.2872201567
  0
ARC
  5
31F
100
AcDbEntity
  8
0
100
AcDbCircle
 62
7
  6
BYLAYER
 10
69.6163925794
 20
71.6720546063
 40
58.6104264778
100
AcDbArc
 50
106.7039627124
 51
107.4879793473
  0
ARC
  5
320
100
AcDbEntity
  8
0
100
AcDbCircle
 62
7
  6
BYLAYER
 10
68.3739160454
 20
95.68712074
 40
20.0
100
AcDbArc
 50
90.0
 51
96.9881838805
  0
ARC
  5
321
100
AcDbEntity
  8
0
100
AcDbCircle
 62
7
  6
BYLAYER
 10
133.4527336461
 20
105.68712074
 40
5.0
100
AcDbArc
 50
270.0
 51
360.0
  0
ARC
  5
322
100
AcDbEntity
  8
0
100
AcDbCircle
 62
7
  6
BYLAYER
 10
72.5908309987
 20
103.68712074
 40
3.0
100
AcDbArc
 50
220.0052008849
 51
270.0
  0
ARC
  5
323
100
AcDbEntity
  8
0
100
AcDbCircle
 62
7
  6
BYLAYER
 10
83.3146362934
 20
103.68712074
 40
3.0
100
AcDbArc
 50
270.0
 51
319.9947991151
  0
ARC
  5
324
100
AcDbEntity
  8
0
100
AcDbCircle
 62
7
  6
BYLAYER
 10
70.0128508999
 20
145.9912173039
 40
59.9590166408
100
AcDbArc
 50
252.5208377843
 51
253.2872201562
  0
ARC
  5
325
100
AcDbEntity
  8
0
100
AcDbCircle
 62
7
  6
BYLAYER
 10
87.9075379398
 20
113.0209936821
 40
58.6104264105
100
AcDbArc
 50
166.7039627118
 51
167.4879793476
  0
ARC
  5
326
100
AcDbEntity
  8
0
100
AcDbCircle
 62
7
  6
BYLAYER
 10
68.3739160454
 20
120.68712074
 40
20.0
100
AcDbArc
 50
263.0118161195
 51
270.0
  0
ARC
  5
327
100
AcDbEntity
  8
0
100
AcDbCircle
 62
7
  6
BYLAYER
 10
77.9527336461
 20
108.18712074
 40
10.0
100
AcDbArc
 50
196.4486131295
 51
220.0052008849
  0
ARC
  5
328
100
AcDbEntity
  8
0
100
AcDbCircle
 62
7
  6
BYLAYER
 10
77.9527336461
 20
108.18712074
 40
10.0
100
AcDbArc
 50
139.9947991151
 51
163.5513868705
  0
ARC
  5
329
100
AcDbEntity
  8
0
100
AcDbCircle
 62
7
  6
BYLAYER
 10
77.9527336461
 20
108.18712074
 40
10.0
100
AcDbArc
 50
16.4486131295
 51
40.0052008849
  0
ARC
  5
32A
100
AcDbEntity
  8
0
100
AcDbCircle
 62
7
  6
BYLAYER
 10
77.9527336461
 20
108.18712074
 40
10.0
100
AcDbArc
 50
319.9947991151
 51
343.5513868705
  0
CIRCLE
  5
32B
100
AcDbEntity
  8
0
100
AcDbCircle
 62
7
  6
BYLAYER
 10
77.9527336461
 20
108.18712074
 40
6.25
  0
CIRCLE
  5
32C
100
AcDbEntity
  8
0
100
AcDbCircle
 62
7
  6
BYLAYER
 10
77.9527336461
 20
108.18712074
 40
5.15
  0
ARC
  5
32D
100
AcDbEntity
  8
0
100
AcDbCircle
 62
7
  6
BYLAYER
 10
133.4527336461
 20
110.68712074
 40
5.0
100
AcDbArc
 50
0.0
 51
90.0
  0
ARC
  5
32E
100
AcDbEntity
  8
0
100
AcDbCircle
 62
7
  6
BYLAYER
 10
126.4527336461
 20
108.18712074
 40
3.5
100
AcDbArc
 50
270.0
 51
90.0
  0
ARC
  5
32F
100
AcDbEntity
  8
0
100
AcDbCircle
 62
7
  6
BYLAYER
 10
69.8527336461
 20
108.18712074
 40
3.2
100
AcDbArc
 50
117.7656661516
 51
242.2343338484
  0
ARC
  5
330
100
AcDbEntity
  8
0
100
AcDbCircle
 62
7
  6
BYLAYER
 10
86.0527336461
 20
108.18712074
 40
3.2
100
AcDbArc
 50
297.7656661516
 51
62.2343338484
  0
ARC
  5
331
100
AcDbEntity
  8
0
100
AcDbCircle
 62
7
  6
BYLAYER
 10
72.5908309987
 20
112.68712074
 40
3.0
100
AcDbArc
 50
90.0
 51
139.9947991151
  0
ARC
  5
332
100
AcDbEntity
  8
0
100
AcDbCircle
 62
7
  6
BYLAYER
 10
83.3146362934
 20
112.68712074
 40
3.0
100
AcDbArc
 50
40.0052008849
 51
90.0
  0
CIRCLE
  5
333
100
AcDbEntity
  8
0
100
AcDbCircle
 62
7
  6
BYLAYER
 10
77.9527336461
 20
108.18712074
 40
2.0
  0
CIRCLE
  5
334
100
AcDbEntity
  8
0
100
AcDbCircle
 62
7
  6
BYLAYER
 10
77.9527336461
 20
108.18712074
 40
1.6
  0
CIRCLE
  5
335
100
AcDbEntity
  8
0
100
AcDbCircle
 62
7
  6
BYLAYER
 10
77.9527336461
 20
108.18712074
 40
1.3979274058
  0
ARC
  5
336
100
AcDbEntity
  8
0
100
AcDbCircle
 62
7
  6
BYLAYER
 10
66.3527336461
 20
108.18712074
 40
0.2
100
AcDbArc
 50
134.9999999959
 51
224.9999999935
  0
ENDSEC
  0
SECTION
  2
OBJECTS
  0
DICTIONARY
  5
C
100
AcDbDictionary
280
0
281
1
  3
ACAD_GROUP
350
D
  3
ACAD_MLINESTYLE
350
17
  3
ACAD_LAYOUT
350
1A
  3
ACAD_PLOTSETTINGS
350
19
  3
ACAD_PLOTSTYLENAME
350
E
  0
DICTIONARY
  5
D
102
{ACAD_REACTORS
330
C
102
}
100
AcDbDictionary
280
0
281
1
  0
ACDBDICTIONARYWDFLT
  5
E
102
{ACAD_REACTORS
330
C
102
}
100
AcDbDictionary
281
1
  3
Normal
350
F
100
AcDbDictionaryWithDefault
340
F
  0
DICTIONARY
  5
17
102
{ACAD_REACTORS
330
C
102
}
100
AcDbDictionary
280
0
281
1
  3
Standard
350
18
  0
DICTIONARY
  5
19
102
{ACAD_REACTORS
330
C
102
}
100
AcDbDictionary
281
1
  0
DICTIONARY
  5
1A
102
{ACAD_REACTORS
330
C
102
}
100
AcDbDictionary
281
1
  3
Model
350
337
  3
Layout1
350
338
  0
ACDBPLACEHOLDER
  5
F
102
{ACAD_REACTORS
330
E
102
}
  0
MLINESTYLE
  5
18
102
{ACAD_REACTORS
330
17
102
}
100
AcDbMlineStyle
  2
STANDARD
 70
0
  3

 62
256
 51
90.0
 52
90.0
 71
2
 49
0.5
 62
256
  6
BYLAYER
 49
-0.5
 62
256
  6
BYLAYER
  0
LAYOUT
  5
337
102
{ACAD_REACTORS
330
1A
102
}
100
AcDbPlotSettings
  1

  2
none_device
  4

  6

 40
0.0
 41
0.0
 42
0.0
 43
0.0
 44
210.0
 45
297.0
 46
0.0
 47
0.0
 48
0.0
 49
0.0
140
0.0
141
0.0
142
1.0
143
1.0
 70
1024
 72
1
 73
0
 74
0
  7

 75
0
147
1.0
148
0.0
149
0.0
100
AcDbLayout
  1
Model
 70
0
 71
0
 10
0.0
 20
0.0
 11
210.0
 21
297.0
 12
0.0
 22
0.0
 32
0.0
 14
0.0
 24
0.0
 34
0.0
 15
0.0
 25
0.0
 35
0.0
146
0.0
 13
0.0
 23
0.0
 33
0.0
 16
1.0
 26
0.0
 36
0.0
 17
0.0
 27
1.0
 37
0.0
 76
0
330
210
345
0
346
0
  0
LAYOUT
  5
338
102
{ACAD_REACTORS
330
1A
102
}
100
AcDbPlotSettings
  1

  2
none_device
  4

  6

 40
0.0
 41
0.0
 42
0.0
 43
0.0
 44
210.0
 45
297.0
 46
0.0
 47
0.0
 48
0.0
 49
0.0
140
0.0
141
0.0
142
1.0
143
1.0
 70
0
 72
1
 73
0
 74
0
  7

 75
0
147
1.0
148
0.0
149
0.0
100
AcDbLayout
  1
Layout1
 70
0
 71
1
 10
0.0
 20
0.0
 11
210.0
 21
297.0
 12
0.0
 22
0.0
 32
0.0
 14
0.0
 24
0.0
 34
0.0
 15
0.0
 25
0.0
 35
0.0
146
0.0
 13
0.0
 23
0.0
 33
0.0
 16
1.0
 26
0.0
 36
0.0
 17
0.0
 27
1.0
 37
0.0
 76
0
330
211
345
0
346
0
  0
ENDSEC
  0
EOF
