999
DXF file: C:\Users\sesa63760\Dev\_Creo\CAD\MCADID0004742_3D-CAD\drw0001_7.dxf
999
Pro/ENGINEER 2019471 by Parametric Technology Corporation
  0
SECTION
  2
HEADER
  9
$ACADVER
  1
AC1024
  9
$DWGCODEPAGE
  3
ANSI_1252
  9
$EXTMAX
 10
38.3011073536
 20
54.1687089716
 30
0.0
  9
$EXTMIN
 10
0.0
 20
0.0
 30
0.0
  9
$LIMMIN
 10
0.0
 20
0.0
  9
$LIMMAX
 10
38.3011073536
 20
54.1687089716
  9
$VIEWCTR
 10
19.1505536768
 20
27.0843544858
  9
$VIEWSIZE
 40
54.1687089716
  9
$CLAYER
  8
0
  9
$LTSCALE
 40
3.5309973256
  9
$CELTYPE
  6
BYLAYER
  9
$DIMSCALE
 40
1.0
  9
$DIMASZ
 40
0.4559655637
  9
$DIMEXO
 40
1.0
  9
$DIMDLI
 40
2.4395981522
  9
$DIMEXE
 40
1.0
  9
$DIMCEN
 40
0.5777995624
  9
$DIMLFAC
 40
1.0
  9
$DIMBLK
  1
_FILLED
  9
$DIMALT
 70
0
  9
$DIMALTF
 40
0.0393700787
  9
$DIMTXT
 40
0.6383517892
  9
$DIMTOL
 70
1
  9
$DIMLIM
 70
0
  9
$DIMTFAC
 40
1.0
  9
$DIMTP
 40
0.01
  9
$DIMTM
 40
0.01
  9
$DIMGAP
 40
0.625
  9
$DIMDSEP
 70
46
  9
$AUNITS
 70
0
  9
$PDMODE
 70
3
  9
$PDSIZE
 40
0.3125
  9
$HANDSEED
  5
283
  9
$TILEMODE
 70
1
  9
$MEASUREMENT
 70
1
  9
$INSUNITS
 70
4
  0
ENDSEC
  0
SECTION
  2
CLASSES
  0
CLASS
  1
ACDBDICTIONARYWDFLT
  2
AcDbDictionaryWithDefault
  3
AutoCAD 2000
 90
0
 91
1
280
0
281
0
  0
CLASS
  1
ACDBPLACEHOLDER
  2
AcDbPlaceHolder
  3
AutoCAD 2000
 90
0
 91
1
280
0
281
0
  0
CLASS
  1
LAYOUT
  2
AcDbLayout
  3
AutoCAD 2000
 90
0
 91
0
280
0
281
0
  0
ENDSEC
  0
SECTION
  2
TABLES
  0
TABLE
  2
VPORT
  5
8
100
AcDbSymbolTable
 70
2
  0
VPORT
  5
1F4
100
AcDbSymbolTableRecord
100
AcDbViewportTableRecord
  2
*ACTIVE
 70
0
 10
0.0
 20
0.0
 11
1.0
 21
1.0
 12
19.1505536768
 22
27.0843544858
 13
0.0
 23
0.0
 14
1.0
 24
1.0
 15
0.0
 25
0.0
 16
0.0
 26
0.0
 36
1.0
 17
0.0
 27
0.0
 37
0.0
 40
54.1687089716
 41
0.7070707071
 42
50.0
 43
0.0
 44
0.0
 50
0.0
 51
0.0
 71
0
 72
100
 73
1
 74
1
 75
0
 76
0
 77
0
 78
0
  0
ENDTAB
  0
TABLE
  2
LTYPE
  5
5
100
AcDbSymbolTable
 70
6
  0
LTYPE
  5
14
100
AcDbSymbolTableRecord
100
AcDbLinetypeTableRecord
  2
BYBLOCK
 70
0
  3

 72
65
 73
0
 40
0.0
  0
LTYPE
  5
15
100
AcDbSymbolTableRecord
100
AcDbLinetypeTableRecord
  2
BYLAYER
 70
0
  3

 72
65
 73
0
 40
0.0
  0
LTYPE
  5
16
100
AcDbSymbolTableRecord
100
AcDbLinetypeTableRecord
  2
CONTINUOUS
 70
64
  3
Solid line
 72
65
 73
0
 40
0.0
  0
LTYPE
  5
1F5
100
AcDbSymbolTableRecord
100
AcDbLinetypeTableRecord
  2
CENTER
 70
64
  3
____ _ ____ _ ____ _ ____ _ ____ _ ____ _ ____
 72
65
 73
4
 40
0.6
 49
0.375
 74
0
 49
-0.075
 74
0
 49
0.075
 74
0
 49
-0.075
 74
0
  0
LTYPE
  5
1F6
100
AcDbSymbolTableRecord
100
AcDbLinetypeTableRecord
  2
HIDDEN
 70
64
  3
- - - - - - - - - - - - - - - - - - - -
 72
65
 73
2
 40
0.2
 49
0.1
 74
0
 49
-0.1
 74
0
  0
LTYPE
  5
1F7
100
AcDbSymbolTableRecord
100
AcDbLinetypeTableRecord
  2
PHANTOM
 70
64
  3
_____ _ _ _____ _ _ _____ _ _ _____
 72
65
 73
6
 40
0.8
 49
0.45
 74
0
 49
-0.05
 74
0
 49
0.1
 74
0
 49
-0.05
 74
0
 49
0.1
 74
0
 49
-0.05
 74
0
  0
LTYPE
  5
1F8
100
AcDbSymbolTableRecord
100
AcDbLinetypeTableRecord
  2
DOT
 70
64
  3
. . . . . . . . . . . . . . . . . . . .
 72
65
 73
2
 40
0.2
 49
0.1
 74
0
 49
-0.1
 74
0
  0
LTYPE
  5
1F9
100
AcDbSymbolTableRecord
100
AcDbLinetypeTableRecord
  2
DASHED
 70
64
  3
- - - - - - - - - - - - - - - - - - - -
 72
65
 73
2
 40
0.2
 49
0.1
 74
0
 49
-0.1
 74
0
  0
ENDTAB
  0
TABLE
  2
LAYER
  5
2
100
AcDbSymbolTable
 70
36
  0
LAYER
  5
10
100
AcDbSymbolTableRecord
100
AcDbLayerTableRecord
  2
0
 70
0
 62
7
  6
CONTINUOUS
370
-3
390
F
  0
LAYER
  5
1FA
100
AcDbSymbolTableRecord
100
AcDbLayerTableRecord
  2
DEFAULT_1
 70
0
 62
7
  6
CENTER
370
-3
390
F
  0
LAYER
  5
1FB
100
AcDbSymbolTableRecord
100
AcDbLayerTableRecord
  2
DEFAULT_2
 70
0
 62
7
  6
HIDDEN
370
-3
390
F
  0
LAYER
  5
1FC
100
AcDbSymbolTableRecord
100
AcDbLayerTableRecord
  2
DEFAULT_3
 70
0
 62
7
  6
PHANTOM
370
-3
390
F
  0
LAYER
  5
1FD
100
AcDbSymbolTableRecord
100
AcDbLayerTableRecord
  2
00_COMPONENTS
 70
0
 62
7
  6
CONTINUOUS
370
-3
390
F
  0
LAYER
  5
1FE
100
AcDbSymbolTableRecord
100
AcDbLayerTableRecord
  2
01_1_DEFAULT_DATUMS
 70
0
 62
7
  6
CONTINUOUS
370
-3
390
F
  0
LAYER
  5
1FF
100
AcDbSymbolTableRecord
100
AcDbLayerTableRecord
  2
01_PLANES
 70
0
 62
7
  6
CONTINUOUS
370
-3
390
F
  0
LAYER
  5
200
100
AcDbSymbolTableRecord
100
AcDbLayerTableRecord
  2
02_COORD_SYS
 70
0
 62
7
  6
CONTINUOUS
370
-3
390
F
  0
LAYER
  5
201
100
AcDbSymbolTableRecord
100
AcDbLayerTableRecord
  2
03_AXES
 70
0
 62
7
  6
CONTINUOUS
370
-3
390
F
  0
LAYER
  5
202
100
AcDbSymbolTableRecord
100
AcDbLayerTableRecord
  2
04_POINTS
 70
0
 62
7
  6
CONTINUOUS
370
-3
390
F
  0
LAYER
  5
203
100
AcDbSymbolTableRecord
100
AcDbLayerTableRecord
  2
05_CURVES
 70
0
 62
7
  6
CONTINUOUS
370
-3
390
F
  0
LAYER
  5
204
100
AcDbSymbolTableRecord
100
AcDbLayerTableRecord
  2
06_SURFS
 70
0
 62
7
  6
CONTINUOUS
370
-3
390
F
  0
LAYER
  5
205
100
AcDbSymbolTableRecord
100
AcDbLayerTableRecord
  2
07_COSMETICS
 70
0
 62
7
  6
CONTINUOUS
370
-3
390
F
  0
LAYER
  5
206
100
AcDbSymbolTableRecord
100
AcDbLayerTableRecord
  2
10_NOTES
 70
0
 62
7
  6
CONTINUOUS
370
-3
390
F
  0
LAYER
  5
207
100
AcDbSymbolTableRecord
100
AcDbLayerTableRecord
  2
11_NOTES_PUB
 70
0
 62
7
  6
CONTINUOUS
370
-3
390
F
  0
LAYER
  5
208
100
AcDbSymbolTableRecord
100
AcDbLayerTableRecord
  2
13_REF_GTOL
 70
0
 62
7
  6
CONTINUOUS
370
-3
390
F
  0
LAYER
  5
209
100
AcDbSymbolTableRecord
100
AcDbLayerTableRecord
  2
16_MISC
 70
0
 62
7
  6
CONTINUOUS
370
-3
390
F
  0
LAYER
  5
20A
100
AcDbSymbolTableRecord
100
AcDbLayerTableRecord
  2
17_NO_PRINT
 70
0
 62
7
  6
CONTINUOUS
370
-3
390
F
  0
LAYER
  5
20B
100
AcDbSymbolTableRecord
100
AcDbLayerTableRecord
  2
18_DATUM_CAMS_JOINTS
 70
0
 62
7
  6
CONTINUOUS
370
-3
390
F
  0
LAYER
  5
20C
100
AcDbSymbolTableRecord
100
AcDbLayerTableRecord
  2
19_DATUM_FUNCTIONAL
 70
0
 62
7
  6
CONTINUOUS
370
-3
390
F
  0
LAYER
  5
20D
100
AcDbSymbolTableRecord
100
AcDbLayerTableRecord
  2
20_DATUM_KINEMATIC_SCHEME
 70
0
 62
7
  6
CONTINUOUS
370
-3
390
F
  0
ENDTAB
  0
TABLE
  2
STYLE
  5
3
100
AcDbSymbolTable
 70
1
  0
STYLE
  5
11
100
AcDbSymbolTableRecord
100
AcDbTextStyleTableRecord
  2
STANDARD
 70
0
 40
0.0
 41
1.0
 50
0.0
 71
0
 42
0.2
  3
ARIAL.TTF
  4

  0
STYLE
  5
20E
100
AcDbSymbolTableRecord
100
AcDbTextStyleTableRecord
  2
TEXTSTYLE_1
 70
0
 40
0.0
 41
0.8
 50
0.0
 71
0
 42
0.2
  3
gdt
  4

  0
ENDTAB
  0
TABLE
  2
VIEW
  5
6
100
AcDbSymbolTable
 70
0
  0
ENDTAB
  0
TABLE
  2
UCS
  5
7
100
AcDbSymbolTable
 70
0
  0
ENDTAB
  0
TABLE
  2
APPID
  5
9
100
AcDbSymbolTable
 70
1
  0
APPID
  5
20F
100
AcDbSymbolTableRecord
100
AcDbRegAppTableRecord
  2
ACAD
 70
0
  0
ENDTAB
  0
TABLE
  2
BLOCK_RECORD
  5
1
100
AcDbSymbolTable
 70
0
  0
BLOCK_RECORD
  5
210
100
AcDbSymbolTableRecord
100
AcDbBlockTableRecord
  2
*Model_Space
  0
BLOCK_RECORD
  5
211
100
AcDbSymbolTableRecord
100
AcDbBlockTableRecord
  2
*Paper_Space
  0
BLOCK_RECORD
  5
212
100
AcDbSymbolTableRecord
100
AcDbBlockTableRecord
  2
_FILLED
  0
ENDTAB
  0
TABLE
  2
DIMSTYLE
  5
A
100
AcDbSymbolTable
 70
1
100
AcDbDimStyleTable
 71
0
  0
DIMSTYLE
105
213
100
AcDbSymbolTableRecord
100
AcDbDimStyleTableRecord
  2
STANDARD
 70
0
  3

  4

 40
1.0
 41
0.4559655637
 42
1.0
 43
0.38
 44
1.0
 45
0.0
 46
0.0
 47
0.01
 48
0.01
140
0.6383517892
141
0.09
142
0.0
143
25.4
144
1.0
145
0.0
146
1.0
147
0.625
 71
1
 72
0
 73
0
 74
0
 75
0
 76
0
 77
1
 78
8
 79
2
170
0
171
1
172
0
173
0
174
0
175
0
176
0
177
0
178
0
270
2
179
2
271
2
272
2
273
2
274
2
275
0
280
0
281
0
282
0
283
1
284
8
285
0
286
0
287
3
288
0
340
11
278
46
341
212
342
212
343
212
344
212
  0
ENDTAB
  0
ENDSEC
  0
SECTION
  2
BLOCKS
  0
BLOCK
  5
20
100
AcDbEntity
  8
0
100
AcDbBlockBegin
  2
*Model_Space
 70
0
 10
0.0
 20
0.0
 30
0.0
  3
*Model_Space
  1

  0
ENDBLK
  5
21
100
AcDbEntity
  8
0
100
AcDbBlockEnd
  0
BLOCK
  5
1C
100
AcDbEntity
  8
0
100
AcDbBlockBegin
  2
*Paper_Space
 70
0
 10
0.0
 20
0.0
 30
0.0
  3
*Paper_Space
  1

  0
ENDBLK
  5
1D
100
AcDbEntity
  8
0
100
AcDbBlockEnd
  0
BLOCK
  5
214
100
AcDbEntity
  8
0
100
AcDbBlockBegin
  2
_FILLED
 70
64
 10
0.0
 20
0.0
  3
_FILLED
  1

  0
SOLID
  5
215
100
AcDbEntity
  8
0
  6
BYBLOCK
 62
0
100
AcDbTrace
 10
0.0
 20
0.0
 11
-1.0
 21
0.25
 12
-1.0
 22
-0.25
 13
-1.0
 23
-0.25
  0
ENDBLK
  5
216
100
AcDbEntity
  8
0
  6
BYBLOCK
 62
0
100
AcDbBlockEnd
  0
ENDSEC
  0
SECTION
  2
ENTITIES
  0
LINE
  5
217
100
AcDbEntity
  8
0
100
AcDbLine
 62
7
  6
BYLAYER
 10
12.0668556462
 20
19.2169584245
 11
32.0668556462
 21
19.2169584245
  0
LINE
  5
218
100
AcDbEntity
  8
0
100
AcDbLine
 62
7
  6
BYLAYER
 10
12.0668556465
 20
19.2169584245
 11
12.0668556465
 21
19.2413560237
  0
LINE
  5
219
100
AcDbEntity
  8
0
100
AcDbLine
 62
7
  6
BYLAYER
 10
12.0668556952
 20
30.8767281983
 11
12.0668557811
 21
33.4937793919
  0
LINE
  5
21A
100
AcDbEntity
  8
0
100
AcDbLine
 62
7
  6
BYLAYER
 10
12.0668556279
 20
35.192560886
 11
12.0668556279
 21
35.2169584245
  0
LINE
  5
21B
100
AcDbEntity
  8
0
100
AcDbLine
 62
7
  6
BYLAYER
 10
12.0668555971
 20
23.5571886507
 11
12.0668555113
 21
20.9401374571
  0
LINE
  5
21C
100
AcDbEntity
  8
0
100
AcDbLine
 62
7
  6
BYLAYER
 10
32.0668556462
 20
20.8129180205
 11
19.5993333991
 21
20.8129180205
  0
LINE
  5
21D
100
AcDbEntity
  8
0
100
AcDbLine
 62
7
  6
BYLAYER
 10
32.5668556462
 20
21.7169584245
 11
32.0668556462
 21
21.7169584245
  0
LINE
  5
21E
100
AcDbEntity
  8
0
100
AcDbLine
 62
7
  6
BYLAYER
 10
32.5668556462
 20
22.2343477309
 11
34.1668556462
 21
22.2343477309
  0
LINE
  5
21F
100
AcDbEntity
  8
0
100
AcDbLine
 62
7
  6
BYLAYER
 10
34.1668556462
 20
22.2962911514
 11
32.5668556462
 21
22.2962911514
  0
LINE
  5
220
100
AcDbEntity
  8
0
100
AcDbLine
 62
7
  6
BYLAYER
 10
32.5668556462
 20
22.5119609949
 11
34.1668556462
 21
22.5119609949
  0
LINE
  5
221
100
AcDbEntity
  8
0
100
AcDbLine
 62
7
  6
BYLAYER
 10
34.1668556462
 20
22.6935699149
 11
32.5668556462
 21
22.6935699149
  0
LINE
  5
222
100
AcDbEntity
  8
0
100
AcDbLine
 62
7
  6
BYLAYER
 10
32.5668556462
 20
23.1102120584
 11
34.1668556462
 21
23.1102120584
  0
LINE
  5
223
100
AcDbEntity
  8
0
100
AcDbLine
 62
7
  6
BYLAYER
 10
34.1668556462
 20
23.39911013
 11
32.5668556462
 21
23.39911013
  0
LINE
  5
224
100
AcDbEntity
  8
0
100
AcDbLine
 62
7
  6
BYLAYER
 10
32.5668556462
 20
23.9459280672
 11
34.3668556462
 21
23.9459280672
  0
LINE
  5
225
100
AcDbEntity
  8
0
100
AcDbLine
 62
7
  6
BYLAYER
 10
32.5668556462
 20
23.9883311001
 11
34.1668556462
 21
23.9883311001
  0
LINE
  5
226
100
AcDbEntity
  8
0
100
AcDbLine
 62
7
  6
BYLAYER
 10
34.1668556462
 20
24.3648303971
 11
32.5668556462
 21
24.3648303971
  0
LINE
  5
227
100
AcDbEntity
  8
0
100
AcDbLine
 62
7
  6
BYLAYER
 10
32.5668556462
 20
24.8045801449
 11
34.3668556462
 21
24.8045801449
  0
LINE
  5
228
100
AcDbEntity
  8
0
100
AcDbLine
 62
7
  6
BYLAYER
 10
34.3668556462
 20
25.053855641
 11
32.5668556462
 21
25.053855641
  0
LINE
  5
229
100
AcDbEntity
  8
0
100
AcDbLine
 62
7
  6
BYLAYER
 10
32.5668556462
 20
25.0864757583
 11
34.1668556462
 21
25.0864757583
  0
LINE
  5
22A
100
AcDbEntity
  8
0
100
AcDbLine
 62
7
  6
BYLAYER
 10
34.1668556462
 20
25.5249184759
 11
32.5668556462
 21
25.5249184759
  0
LINE
  5
22B
100
AcDbEntity
  8
0
100
AcDbLine
 62
7
  6
BYLAYER
 10
32.5668556462
 20
25.8276318157
 11
34.3668556462
 21
25.8276318157
  0
LINE
  5
22C
100
AcDbEntity
  8
0
100
AcDbLine
 62
7
  6
BYLAYER
 10
34.3668556462
 20
26.0593455986
 11
32.5668556462
 21
26.0593455986
  0
LINE
  5
22D
100
AcDbEntity
  8
0
100
AcDbLine
 62
7
  6
BYLAYER
 10
32.5668556462
 20
26.2008217938
 11
34.3668556462
 21
26.2008217938
  0
LINE
  5
22E
100
AcDbEntity
  8
0
100
AcDbLine
 62
7
  6
BYLAYER
 10
32.5668556462
 20
26.3298092895
 11
34.1668556462
 21
26.3298092895
  0
LINE
  5
22F
100
AcDbEntity
  8
0
100
AcDbLine
 62
7
  6
BYLAYER
 10
34.1668556462
 20
26.8003162809
 11
32.5668556462
 21
26.8003162809
  0
LINE
  5
230
100
AcDbEntity
  8
0
100
AcDbLine
 62
7
  6
BYLAYER
 10
32.5668556462
 20
26.945363799
 11
34.3668556462
 21
26.945363799
  0
LINE
  5
231
100
AcDbEntity
  8
0
100
AcDbLine
 62
7
  6
BYLAYER
 10
34.3668556462
 20
27.1437249572
 11
32.5668556462
 21
27.1437249572
  0
LINE
  5
232
100
AcDbEntity
  8
0
100
AcDbLine
 62
7
  6
BYLAYER
 10
32.5668556462
 20
27.2901918931
 11
34.3668556462
 21
27.2901918931
  0
LINE
  5
233
100
AcDbEntity
  8
0
100
AcDbLine
 62
7
  6
BYLAYER
 10
34.3668556462
 20
27.4885530501
 11
32.5668556462
 21
27.4885530501
  0
LINE
  5
234
100
AcDbEntity
  8
0
100
AcDbLine
 62
7
  6
BYLAYER
 10
32.5668556462
 20
27.6336005681
 11
34.1668556462
 21
27.6336005681
  0
LINE
  5
235
100
AcDbEntity
  8
0
100
AcDbLine
 62
7
  6
BYLAYER
 10
34.1668556462
 20
28.1041075596
 11
32.5668556462
 21
28.1041075596
  0
LINE
  5
236
100
AcDbEntity
  8
0
100
AcDbLine
 62
7
  6
BYLAYER
 10
34.3668556462
 20
28.2330950556
 11
32.5668556462
 21
28.2330950556
  0
LINE
  5
237
100
AcDbEntity
  8
0
100
AcDbLine
 62
7
  6
BYLAYER
 10
32.5668556462
 20
28.3745712526
 11
34.3668556462
 21
28.3745712526
  0
LINE
  5
238
100
AcDbEntity
  8
0
100
AcDbLine
 62
7
  6
BYLAYER
 10
34.3668556462
 20
28.6062850333
 11
32.5668556462
 21
28.6062850333
  0
LINE
  5
239
100
AcDbEntity
  8
0
100
AcDbLine
 62
7
  6
BYLAYER
 10
32.5668556462
 20
28.9089983731
 11
34.1668556462
 21
28.9089983731
  0
LINE
  5
23A
100
AcDbEntity
  8
0
100
AcDbLine
 62
7
  6
BYLAYER
 10
34.1668556462
 20
29.3474410907
 11
32.5668556462
 21
29.3474410907
  0
LINE
  5
23B
100
AcDbEntity
  8
0
100
AcDbLine
 62
7
  6
BYLAYER
 10
32.5668556462
 20
29.3800612098
 11
34.3668556462
 21
29.3800612098
  0
LINE
  5
23C
100
AcDbEntity
  8
0
100
AcDbLine
 62
7
  6
BYLAYER
 10
34.3668556462
 20
29.6293367041
 11
32.5668556462
 21
29.6293367041
  0
LINE
  5
23D
100
AcDbEntity
  8
0
100
AcDbLine
 62
7
  6
BYLAYER
 10
32.5668556462
 20
30.0690864519
 11
34.1668556462
 21
30.0690864519
  0
LINE
  5
23E
100
AcDbEntity
  8
0
100
AcDbLine
 62
7
  6
BYLAYER
 10
34.1668556462
 20
30.4455857489
 11
32.5668556462
 21
30.4455857489
  0
LINE
  5
23F
100
AcDbEntity
  8
0
100
AcDbLine
 62
7
  6
BYLAYER
 10
34.3668556462
 20
30.4879887818
 11
32.5668556462
 21
30.4879887818
  0
LINE
  5
240
100
AcDbEntity
  8
0
100
AcDbLine
 62
7
  6
BYLAYER
 10
32.5668556462
 20
31.034806719
 11
34.1668556462
 21
31.034806719
  0
LINE
  5
241
100
AcDbEntity
  8
0
100
AcDbLine
 62
7
  6
BYLAYER
 10
34.1668556462
 20
31.3237047906
 11
32.5668556462
 21
31.3237047906
  0
LINE
  5
242
100
AcDbEntity
  8
0
100
AcDbLine
 62
7
  6
BYLAYER
 10
32.5668556462
 20
31.7403469341
 11
34.1668556462
 21
31.7403469341
  0
LINE
  5
243
100
AcDbEntity
  8
0
100
AcDbLine
 62
7
  6
BYLAYER
 10
34.1668556462
 20
31.9219558541
 11
32.5668556462
 21
31.9219558541
  0
LINE
  5
244
100
AcDbEntity
  8
0
100
AcDbLine
 62
7
  6
BYLAYER
 10
32.5668556462
 20
32.1376256976
 11
34.1668556462
 21
32.1376256976
  0
LINE
  5
245
100
AcDbEntity
  8
0
100
AcDbLine
 62
7
  6
BYLAYER
 10
34.1668556462
 20
32.1995691181
 11
32.5668556462
 21
32.1995691181
  0
LINE
  5
246
100
AcDbEntity
  8
0
100
AcDbLine
 62
7
  6
BYLAYER
 10
32.5668556462
 20
32.7169584245
 11
32.0668556462
 21
32.7169584245
  0
LINE
  5
247
100
AcDbEntity
  8
0
100
AcDbLine
 62
7
  6
BYLAYER
 10
19.5993333992
 20
33.6209988285
 11
32.0668556462
 21
33.6209988285
  0
LINE
  5
248
100
AcDbEntity
  8
0
100
AcDbLine
 62
7
  6
BYLAYER
 10
32.0668556462
 20
35.2169584245
 11
12.0668556462
 21
35.2169584245
  0
LINE
  5
249
100
AcDbEntity
  8
0
100
AcDbLine
 62
7
  6
BYLAYER
 10
32.0668556462
 20
35.2169584245
 11
32.0668556462
 21
19.2169584245
  0
LINE
  5
24A
100
AcDbEntity
  8
0
100
AcDbLine
 62
7
  6
BYLAYER
 10
32.5668556462
 20
32.7169261825
 11
32.5668556462
 21
21.7169906665
  0
LINE
  5
24B
100
AcDbEntity
  8
0
100
AcDbLine
 62
7
  6
BYLAYER
 10
34.1668556462
 20
32.1995691181
 11
34.1668556462
 21
32.1376256976
  0
LINE
  5
24C
100
AcDbEntity
  8
0
100
AcDbLine
 62
7
  6
BYLAYER
 10
34.1668556462
 20
31.9219558541
 11
34.1668556462
 21
31.7403469341
  0
LINE
  5
24D
100
AcDbEntity
  8
0
100
AcDbLine
 62
7
  6
BYLAYER
 10
34.1668556462
 20
31.3237047906
 11
34.1668556462
 21
31.034806719
  0
LINE
  5
24E
100
AcDbEntity
  8
0
100
AcDbLine
 62
7
  6
BYLAYER
 10
34.1668556462
 20
30.4455857489
 11
34.1668556462
 21
30.0690864519
  0
LINE
  5
24F
100
AcDbEntity
  8
0
100
AcDbLine
 62
7
  6
BYLAYER
 10
34.1668556462
 20
29.3474410907
 11
34.1668556462
 21
28.9089983731
  0
LINE
  5
250
100
AcDbEntity
  8
0
100
AcDbLine
 62
7
  6
BYLAYER
 10
34.1668556462
 20
28.1041075596
 11
34.1668556462
 21
27.6336005681
  0
LINE
  5
251
100
AcDbEntity
  8
0
100
AcDbLine
 62
7
  6
BYLAYER
 10
34.1668556462
 20
26.8003162809
 11
34.1668556462
 21
26.3298092895
  0
LINE
  5
252
100
AcDbEntity
  8
0
100
AcDbLine
 62
7
  6
BYLAYER
 10
34.1668556462
 20
25.5249184759
 11
34.1668556462
 21
25.0864757583
  0
LINE
  5
253
100
AcDbEntity
  8
0
100
AcDbLine
 62
7
  6
BYLAYER
 10
34.1668556462
 20
24.3648303971
 11
34.1668556462
 21
23.9883311001
  0
LINE
  5
254
100
AcDbEntity
  8
0
100
AcDbLine
 62
7
  6
BYLAYER
 10
34.1668556462
 20
23.39911013
 11
34.1668556462
 21
23.1102120584
  0
LINE
  5
255
100
AcDbEntity
  8
0
100
AcDbLine
 62
7
  6
BYLAYER
 10
34.1668556462
 20
22.6935699149
 11
34.1668556462
 21
22.5119609949
  0
LINE
  5
256
100
AcDbEntity
  8
0
100
AcDbLine
 62
7
  6
BYLAYER
 10
34.1668556462
 20
22.2962911514
 11
34.1668556462
 21
22.2343477309
  0
LINE
  5
257
100
AcDbEntity
  8
0
100
AcDbLine
 62
7
  6
BYLAYER
 10
34.3668556462
 20
32.0025865385
 11
34.3668556462
 21
22.4983320293
  0
ARC
  5
258
100
AcDbEntity
  8
0
100
AcDbCircle
 62
7
  6
BYLAYER
 10
12.0668556462
 20
27.2169584245
 40
8.0
100
AcDbArc
 50
89.9999910321
 51
270.0
  0
ARC
  5
259
100
AcDbEntity
  8
0
100
AcDbCircle
 62
7
  6
BYLAYER
 10
12.0668556462
 20
27.2169584245
 40
7.9756009895
100
AcDbArc
 50
89.999999073
 51
90.4222254442
  0
SPLINE
  5
25A
100
AcDbEntity
  8
0
100
AcDbSpline
 62
7
  6
BYLAYER
 70
0
 71
3
 72
17
 73
13
 74
0
 42
0.0000001
 43
0.0000001
 44
0.0000000001
 40
0.0
 40
0.0
 40
0.0
 40
0.0
 40
0.0266528047
 40
0.0558362885
 40
0.089344911
 40
0.1283013078
 40
0.2242762823
 40
0.3447589521
 40
0.487230968
 40
0.6475953792
 40
0.8207252812
 40
1.0
 40
1.0
 40
1.0
 40
1.0
 10
34.3668556462
 20
29.2883340484
 30
0.0
 10
34.3668556462
 20
29.2902769989
 30
0.0
 10
34.366137452
 20
29.294370326
 30
0.0
 10
34.3630946376
 20
29.3002128513
 30
0.0
 10
34.3582111835
 20
29.3058534542
 30
0.0
 10
34.3486368096
 20
29.3136127633
 30
0.0
 10
34.3320077505
 20
29.3223111001
 30
0.0
 10
34.3072627257
 20
29.3309396148
 30
0.0
 10
34.2771928159
 20
29.3380817388
 30
0.0
 10
34.2428795412
 20
29.3434122063
 30
0.0
 10
34.2056205112
 20
29.3466978347
 30
0.0
 10
34.179924511
 20
29.3474410907
 30
0.0
 10
34.1668556462
 20
29.3474410907
 30
0.0
  0
SPLINE
  5
25B
100
AcDbEntity
  8
0
100
AcDbSpline
 62
7
  6
BYLAYER
 70
0
 71
3
 72
20
 73
16
 74
0
 42
0.0000001
 43
0.0000001
 44
0.0000000001
 40
0.0
 40
0.0
 40
0.0
 40
0.0
 40
0.0020872546
 40
0.0060466977
 40
0.0206543106
 40
0.0444079867
 40
0.0772448011
 40
0.1188807576
 40
0.168942426
 40
0.2270398711
 40
0.2926330817
 40
0.4436692162
 40
0.6164511344
 40
0.8045412392
 40
1.0
 40
1.0
 40
1.0
 40
1.0
 10
34.3668556462
 20
28.0970521366
 30
0.0
 10
34.3668556462
 20
28.0971916367
 30
0.0
 10
34.3665132335
 20
28.0975199275
 30
0.0
 10
34.3652583978
 20
28.0979860364
 30
0.0
 10
34.3624386254
 20
28.098578369
 30
0.0
 10
34.3577450731
 20
28.0991895579
 30
0.0
 10
34.3511979883
 20
28.0998186911
 30
0.0
 10
34.342900794
 20
28.1004235833
 30
0.0
 10
34.3329044924
 20
28.1010057293
 30
0.0
 10
34.3213050983
 20
28.1015524955
 30
0.0
 10
34.3029572841
 20
28.1022620862
 30
0.0
 10
34.2769410584
 20
28.1029954067
 30
0.0
 10
34.242733504
 20
28.1036286933
 30
0.0
 10
34.2055532732
 20
28.1040191406
 30
0.0
 10
34.179918985
 20
28.1041075596
 30
0.0
 10
34.1668556462
 20
28.1041075596
 30
0.0
  0
SPLINE
  5
25C
100
AcDbEntity
  8
0
100
AcDbSpline
 62
7
  6
BYLAYER
 70
0
 71
3
 72
20
 73
16
 74
0
 42
0.0000001
 43
0.0000001
 44
0.0000000001
 40
0.0
 40
0.0
 40
0.0
 40
0.0
 40
0.1954595668
 40
0.3835484777
 40
0.5563260701
 40
0.707359925
 40
0.7729527263
 40
0.8310493847
 40
0.8811121284
 40
0.9227500207
 40
0.9555878887
 40
0.979343034
 40
0.9939525145
 40
0.9979125823
 40
1.0
 40
1.0
 40
1.0
 40
1.0
 10
34.1668556462
 20
26.3298092895
 30
0.0
 10
34.1799190366
 20
26.3298092895
 30
0.0
 10
34.2055532945
 20
26.3298977136
 30
0.0
 10
34.242733204
 20
26.3302881482
 30
0.0
 10
34.2769402315
 20
26.3309214254
 30
0.0
 10
34.302955984
 20
26.3316547259
 30
0.0
 10
34.3213035644
 20
26.3323642748
 30
0.0
 10
34.3329029482
 20
26.3329110389
 30
0.0
 10
34.3428993986
 20
26.333493171
 30
0.0
 10
34.3511968628
 20
26.3340980414
 30
0.0
 10
34.3577442493
 20
26.3347272181
 30
0.0
 10
34.3624380729
 20
26.3353384513
 30
0.0
 10
34.3652581425
 20
26.3359308136
 30
0.0
 10
34.3665131286
 20
26.3363969069
 30
0.0
 10
34.3668556462
 20
26.3367252014
 30
0.0
 10
34.3668556462
 20
26.3368647124
 30
0.0
  0
SPLINE
  5
25D
100
AcDbEntity
  8
0
100
AcDbSpline
 62
7
  6
BYLAYER
 70
0
 71
3
 72
17
 73
13
 74
0
 42
0.0000001
 43
0.0000001
 44
0.0000000001
 40
0.0
 40
0.0
 40
0.0
 40
0.0
 40
0.1792755284
 40
0.3524043822
 40
0.5127648239
 40
0.655234585
 40
0.7757157837
 40
0.8716930304
 40
0.9106508513
 40
0.9441614041
 40
0.973346618
 40
1.0
 40
1.0
 40
1.0
 40
1.0
 10
34.1668556462
 20
25.0864757583
 30
0.0
 10
34.1799245629
 20
25.0864757583
 30
0.0
 10
34.2056205283
 20
25.0872190608
 30
0.0
 10
34.2428792434
 20
25.0905045689
 30
0.0
 10
34.2771919591
 20
25.0958349987
 30
0.0
 10
34.3072613671
 20
25.1029767905
 30
0.0
 10
34.3320062537
 20
25.1116052154
 30
0.0
 10
34.3486357434
 20
25.1203031196
 30
0.0
 10
34.3582103615
 20
25.128062797
 30
0.0
 10
34.3630940199
 20
25.1337036858
 30
0.0
 10
34.366137236
 20
25.1395463246
 30
0.0
 10
34.3668556462
 20
25.1436398091
 30
0.0
 10
34.3668556462
 20
25.1455828006
 30
0.0
  0
SPLINE
  5
25E
100
AcDbEntity
  8
0
100
AcDbSpline
 62
7
  6
BYLAYER
 70
0
 71
3
 72
15
 73
11
 74
0
 42
0.0000001
 43
0.0000001
 44
0.0000000001
 40
0.0
 40
0.0
 40
0.0
 40
0.0
 40
0.1592906349
 40
0.314372953
 40
0.4606629413
 40
0.5949973818
 40
0.7152589167
 40
0.8209663235
 40
0.9142778552
 40
1.0
 40
1.0
 40
1.0
 40
1.0
 10
34.1668556462
 20
23.9883311001
 30
0.0
 10
34.1799373646
 20
23.9883311001
 30
0.0
 10
34.2057760521
 20
23.9896905241
 30
0.0
 10
34.2432026559
 20
23.9956983458
 30
0.0
 10
34.2777212955
 20
24.0054708722
 30
0.0
 10
34.3080273806
 20
24.0186240643
 30
0.0
 10
34.3330822155
 20
24.034656955
 30
0.0
 10
34.3520130244
 20
24.0531452012
 30
0.0
 10
34.3640060351
 20
24.0736164685
 30
0.0
 10
34.3668556462
 20
24.0884217968
 30
0.0
 10
34.3668556462
 20
24.0954617145
 30
0.0
  0
SPLINE
  5
25F
100
AcDbEntity
  8
0
100
AcDbSpline
 62
7
  6
BYLAYER
 70
0
 71
3
 72
13
 73
9
 74
0
 42
0.0000001
 43
0.0000001
 44
0.0000000001
 40
0.0
 40
0.0
 40
0.0
 40
0.0
 40
0.2838799929
 40
0.5485235363
 40
0.6705631607
 40
0.7853190388
 40
0.8943780386
 40
1.0
 40
1.0
 40
1.0
 40
1.0
 10
34.1668556462
 20
23.1102120584
 30
0.0
 10
34.1927671856
 20
23.1102120584
 30
0.0
 10
34.2431286733
 20
23.1173254782
 30
0.0
 10
34.299495927
 20
23.1442646557
 30
0.0
 10
34.3338355336
 20
23.1749494452
 30
0.0
 10
34.3525943534
 20
23.2006797655
 30
0.0
 10
34.364194379
 20
23.2287410417
 30
0.0
 10
34.3668556462
 20
23.2484246798
 30
0.0
 10
34.3668556462
 20
23.2580654706
 30
0.0
  0
SPLINE
  5
260
100
AcDbEntity
  8
0
100
AcDbSpline
 62
7
  6
BYLAYER
 70
0
 71
3
 72
13
 73
9
 74
0
 42
0.0000001
 43
0.0000001
 44
0.0000000001
 40
0.0
 40
0.0
 40
0.0
 40
0.0
 40
0.2635414332
 40
0.5188559489
 40
0.6426731575
 40
0.7636253193
 40
0.8825151437
 40
1.0
 40
1.0
 40
1.0
 40
1.0
 10
34.1668556462
 20
22.5119609949
 30
0.0
 10
34.192893466
 20
22.5119609949
 30
0.0
 10
34.2446127855
 20
22.5209495054
 30
0.0
 10
34.3006222363
 20
22.5540887752
 30
0.0
 10
34.3342559024
 20
22.5906814503
 30
0.0
 10
34.3528493906
 20
22.6217425722
 30
0.0
 10
34.3642590004
 20
22.655424156
 30
0.0
 10
34.3668556462
 20
22.6788537683
 30
0.0
 10
34.3668556462
 20
22.6904612392
 30
0.0
  0
SPLINE
  5
261
100
AcDbEntity
  8
0
100
AcDbSpline
 62
7
  6
BYLAYER
 70
0
 71
3
 72
11
 73
7
 74
0
 42
0.0000001
 43
0.0000001
 44
0.0000000001
 40
0.0
 40
0.0
 40
0.0
 40
0.0
 40
0.2529849483
 40
0.5041878768
 40
0.7529305806
 40
1.0
 40
1.0
 40
1.0
 40
1.0
 10
34.1668556462
 20
22.2343477309
 30
0.0
 10
34.1929807285
 20
22.2343477309
 30
0.0
 10
34.2456157531
 20
22.244619377
 30
0.0
 10
34.3120824702
 20
22.2885872432
 30
0.0
 10
34.356496535
 20
22.3540437375
 30
0.0
 10
34.3668556462
 20
22.4058161092
 30
0.0
 10
34.3668556462
 20
22.4313303106
 30
0.0
  0
SPLINE
  5
262
100
AcDbEntity
  8
0
100
AcDbSpline
 62
7
  6
BYLAYER
 70
0
 71
3
 72
15
 73
11
 74
0
 42
0.0000001
 43
0.0000001
 44
0.0000000001
 40
0.0
 40
0.0
 40
0.0
 40
0.0
 40
0.0857193605
 40
0.179026469
 40
0.2847325638
 40
0.4049961657
 40
0.5393330538
 40
0.685626728
 40
0.8407100518
 40
1.0
 40
1.0
 40
1.0
 40
1.0
 10
34.3668556462
 20
30.3384551345
 30
0.0
 10
34.3668556462
 20
30.3454948257
 30
0.0
 10
34.3640068657
 20
30.3602997223
 30
0.0
 10
34.3520137201
 20
30.3807701628
 30
0.0
 10
34.3330837991
 20
30.3992587638
 30
0.0
 10
34.3080287726
 20
30.4152919896
 30
0.0
 10
34.2777222007
 20
30.4284457443
 30
0.0
 10
34.2432029536
 20
30.4382183745
 30
0.0
 10
34.205776043
 20
30.4442264061
 30
0.0
 10
34.1799373122
 20
30.4455857489
 30
0.0
 10
34.1668556462
 20
30.4455857489
 30
0.0
  0
SPLINE
  5
263
100
AcDbEntity
  8
0
100
AcDbSpline
 62
7
  6
BYLAYER
 70
0
 71
3
 72
13
 73
9
 74
0
 42
0.0000001
 43
0.0000001
 44
0.0000000001
 40
0.0
 40
0.0
 40
0.0
 40
0.0
 40
0.1056187544
 40
0.2146725784
 40
0.3294278001
 40
0.4514700254
 40
0.7161196396
 40
1.0
 40
1.0
 40
1.0
 40
1.0
 10
34.3668556462
 20
31.1758513784
 30
0.0
 10
34.3668556462
 20
31.1854918766
 30
0.0
 10
34.3641952183
 20
31.2051748731
 30
0.0
 10
34.3525949697
 20
31.2332351806
 30
0.0
 10
34.3338371308
 20
31.2589657556
 30
0.0
 10
34.2994972023
 20
31.2896514109
 30
0.0
 10
34.243129304
 20
31.3165912282
 30
0.0
 10
34.1927672194
 20
31.3237047906
 30
0.0
 10
34.1668556462
 20
31.3237047906
 30
0.0
  0
SPLINE
  5
264
100
AcDbEntity
  8
0
100
AcDbSpline
 62
7
  6
BYLAYER
 70
0
 71
3
 72
13
 73
9
 74
0
 42
0.0000001
 43
0.0000001
 44
0.0000000001
 40
0.0
 40
0.0
 40
0.0
 40
0.0
 40
0.1174813762
 40
0.2363655525
 40
0.3573174271
 40
0.4811375841
 40
0.7364581862
 40
1.0
 40
1.0
 40
1.0
 40
1.0
 10
34.3668556462
 20
31.7434556098
 30
0.0
 10
34.3668556462
 20
31.7550627359
 30
0.0
 10
34.3642598461
 20
31.7784915512
 30
0.0
 10
34.3528499674
 20
31.8121720629
 30
0.0
 10
34.3342575009
 20
31.8432333698
 30
0.0
 10
34.3006235713
 20
31.879827071
 30
0.0
 10
34.2446134619
 20
31.9129671559
 30
0.0
 10
34.1928935015
 20
31.9219558541
 30
0.0
 10
34.1668556462
 20
31.9219558541
 30
0.0
  0
SPLINE
  5
265
100
AcDbEntity
  8
0
100
AcDbSpline
 62
7
  6
BYLAYER
 70
0
 71
3
 72
11
 73
7
 74
0
 42
0.0000001
 43
0.0000001
 44
0.0000000001
 40
0.0
 40
0.0
 40
0.0
 40
0.0
 40
0.2470598091
 40
0.4958055254
 40
0.7470146201
 40
1.0
 40
1.0
 40
1.0
 40
1.0
 10
34.3668556462
 20
32.0025865385
 30
0.0
 10
34.3668556462
 20
32.0280997395
 30
0.0
 10
34.3564969357
 20
32.0798713058
 30
0.0
 10
34.3120838737
 20
32.1453284554
 30
0.0
 10
34.2456164323
 20
32.1892972388
 30
0.0
 10
34.192980765
 20
32.1995691181
 30
0.0
 10
34.1668556462
 20
32.1995691181
 30
0.0
  0
SPLINE
  5
266
100
AcDbEntity
  8
0
100
AcDbSpline
 62
7
  6
BYLAYER
 70
0
 71
3
 72
13
 73
9
 74
0
 42
0.0000001
 43
0.0000001
 44
0.0000000001
 40
0.0
 40
0.0
 40
0.0
 40
0.0
 40
0.1012296878
 40
0.2067248356
 40
0.3193412073
 40
0.4408803601
 40
0.7090099601
 40
1.0
 40
1.0
 40
1.0
 40
1.0
 10
34.3668556462
 20
24.5027059345
 30
0.0
 10
34.3668556462
 20
24.4937043716
 30
0.0
 10
34.3641640525
 20
24.4752290854
 30
0.0
 10
34.3524840041
 20
24.4490094221
 30
0.0
 10
34.333673588
 20
24.4250339357
 30
0.0
 10
34.2991088605
 20
24.3963204145
 30
0.0
 10
34.2426939127
 20
24.3713815174
 30
0.0
 10
34.1927311101
 20
24.3648303971
 30
0.0
 10
34.1668556462
 20
24.3648303971
 30
0.0
  0
SPLINE
  5
267
100
AcDbEntity
  8
0
100
AcDbSpline
 62
7
  6
BYLAYER
 70
0
 71
3
 72
13
 73
9
 74
0
 42
0.0000001
 43
0.0000001
 44
0.0000000001
 40
0.0
 40
0.0
 40
0.0
 40
0.0
 40
0.1149507473
 40
0.2317140037
 40
0.3512949946
 40
0.4746835799
 40
0.7319783402
 40
1.0
 40
1.0
 40
1.0
 40
1.0
 10
34.3668556462
 20
23.5705549513
 30
0.0
 10
34.3668556462
 20
23.5594010244
 30
0.0
 10
34.3642480625
 20
23.5368386773
 30
0.0
 10
34.3528006954
 20
23.5044492047
 30
0.0
 10
34.3341710073
 20
23.4746083662
 30
0.0
 10
34.3003751476
 20
23.4393555548
 30
0.0
 10
34.244254037
 20
23.4076459876
 30
0.0
 10
34.1928623846
 20
23.39911013
 30
0.0
 10
34.1668556462
 20
23.39911013
 30
0.0
  0
SPLINE
  5
268
100
AcDbEntity
  8
0
100
AcDbSpline
 62
7
  6
BYLAYER
 70
0
 71
3
 72
11
 73
7
 74
0
 42
0.0000001
 43
0.0000001
 44
0.0000000001
 40
0.0
 40
0.0
 40
0.0
 40
0.0
 40
0.2448972199
 40
0.4927502955
 40
0.7448554635
 40
1.0
 40
1.0
 40
1.0
 40
1.0
 10
34.3668556462
 20
22.8869003389
 30
0.0
 10
34.3668556462
 20
22.8618416596
 30
0.0
 10
34.3564266129
 20
22.8108460064
 30
0.0
 10
34.3118728045
 20
22.7466018653
 30
0.0
 10
34.2454185593
 20
22.7035879708
 30
0.0
 10
34.1929628642
 20
22.6935699149
 30
0.0
 10
34.1668556462
 20
22.6935699149
 30
0.0
  0
SPLINE
  5
269
100
AcDbEntity
  8
0
100
AcDbSpline
 62
7
  6
BYLAYER
 70
0
 71
3
 72
11
 73
7
 74
0
 42
0.0000001
 43
0.0000001
 44
0.0000000001
 40
0.0
 40
0.0
 40
0.0
 40
0.0
 40
0.2499782149
 40
0.4999460329
 40
0.7499530723
 40
1.0
 40
1.0
 40
1.0
 40
1.0
 10
34.3668556462
 20
22.4983320293
 30
0.0
 10
34.3668556462
 20
22.4721887714
 30
0.0
 10
34.3565879223
 20
22.4193397625
 30
0.0
 10
34.3123685092
 20
22.3522137975
 30
0.0
 10
34.2458939488
 20
22.3069208441
 30
0.0
 10
34.1930060901
 20
22.2962911514
 30
0.0
 10
34.1668556462
 20
22.2962911514
 30
0.0
  0
SPLINE
  5
26A
100
AcDbEntity
  8
0
100
AcDbSpline
 62
7
  6
BYLAYER
 70
0
 71
3
 72
13
 73
9
 74
0
 42
0.0000001
 43
0.0000001
 44
0.0000000001
 40
0.0
 40
0.0
 40
0.0
 40
0.0
 40
0.2909896794
 40
0.5591132082
 40
0.6806498823
 40
0.7932670514
 40
0.8987672034
 40
1.0
 40
1.0
 40
1.0
 40
1.0
 10
34.1668556462
 20
30.0690864519
 30
0.0
 10
34.1927310768
 20
30.0690864519
 30
0.0
 10
34.2426932952
 20
30.062535461
 30
0.0
 10
34.2991076078
 20
30.0375971493
 30
0.0
 10
34.3336719929
 20
30.0088844364
 30
0.0
 10
34.3524833716
 20
29.9849092283
 30
0.0
 10
34.3641632155
 20
29.9586886303
 30
0.0
 10
34.3668556462
 20
29.9402127534
 30
0.0
 10
34.3668556462
 20
29.9312109145
 30
0.0
  0
SPLINE
  5
26B
100
AcDbEntity
  8
0
100
AcDbSpline
 62
7
  6
BYLAYER
 70
0
 71
3
 72
13
 73
9
 74
0
 42
0.0000001
 43
0.0000001
 44
0.0000000001
 40
0.0
 40
0.0
 40
0.0
 40
0.0
 40
0.2680212812
 40
0.5253099608
 40
0.6486956738
 40
0.7682770291
 40
0.8850458317
 40
1.0
 40
1.0
 40
1.0
 40
1.0
 10
34.1668556462
 20
31.034806719
 30
0.0
 10
34.1928623496
 20
31.034806719
 30
0.0
 10
34.2442533717
 20
31.026271038
 30
0.0
 10
34.3003738249
 20
30.994562245
 30
0.0
 10
34.3341694086
 20
30.9593104246
 30
0.0
 10
34.3528001108
 20
30.9294697866
 30
0.0
 10
34.3642472181
 20
30.8970792658
 30
0.0
 10
34.3668556462
 20
30.8745161573
 30
0.0
 10
34.3668556462
 20
30.8633618977
 30
0.0
  0
SPLINE
  5
26C
100
AcDbEntity
  8
0
100
AcDbSpline
 62
7
  6
BYLAYER
 70
0
 71
3
 72
15
 73
11
 74
0
 42
0.0000001
 43
0.0000001
 44
0.0000000001
 40
0.0
 40
0.0
 40
0.0
 40
0.0
 40
0.1643926799
 40
0.3240439335
 40
0.4738174519
 40
0.6100354876
 40
0.7301033625
 40
0.8331462764
 40
0.9212521201
 40
1.0
 40
1.0
 40
1.0
 40
1.0
 10
34.1668556462
 20
28.9089983731
 30
0.0
 10
34.1799334067
 20
28.9089983731
 30
0.0
 10
34.2057281445
 20
28.9077973658
 30
0.0
 10
34.2431043824
 20
28.9024890836
 30
0.0
 10
34.2775665419
 20
28.8938598655
 30
0.0
 10
34.3078136474
 20
28.8822563021
 30
0.0
 10
34.3328184079
 20
28.8681323863
 30
0.0
 10
34.3517556203
 20
28.8518522255
 30
0.0
 10
34.3638992798
 20
28.8337251838
 30
0.0
 10
34.3668556462
 20
28.8203526582
 30
0.0
 10
34.3668556462
 20
28.8140881097
 30
0.0
  0
SPLINE
  5
26D
100
AcDbEntity
  8
0
100
AcDbSpline
 62
7
  6
BYLAYER
 70
0
 71
3
 72
11
 73
7
 74
0
 42
0.0000001
 43
0.0000001
 44
0.0000000001
 40
0.0
 40
0.0
 40
0.0
 40
0.0
 40
0.2551441038
 40
0.5072431083
 40
0.7550932419
 40
1.0
 40
1.0
 40
1.0
 40
1.0
 10
34.1668556462
 20
31.7403469341
 30
0.0
 10
34.192962828
 20
31.7403469341
 30
0.0
 10
34.2454178866
 20
31.7303291055
 30
0.0
 10
34.3118714068
 20
31.6873161013
 30
0.0
 10
34.3564262044
 20
31.6230726243
 30
0.0
 10
34.3668556462
 20
31.5720761731
 30
0.0
 10
34.3668556462
 20
31.5470165101
 30
0.0
  0
SPLINE
  5
26E
100
AcDbEntity
  8
0
100
AcDbSpline
 62
7
  6
BYLAYER
 70
0
 71
3
 72
18
 73
14
 74
0
 42
0.0000001
 43
0.0000001
 44
0.0000000001
 40
0.0
 40
0.0
 40
0.0
 40
0.0
 40
0.1846298095
 40
0.3626681625
 40
0.5270159836
 40
0.6720751957
 40
0.7932101637
 40
0.8437224447
 40
0.8872748507
 40
0.9239055642
 40
0.9540152767
 40
0.9786819957
 40
1.0
 40
1.0
 40
1.0
 40
1.0
 10
34.1668556462
 20
27.6336005681
 30
0.0
 10
34.1799222757
 20
27.6336005681
 30
0.0
 10
34.205592996
 20
27.6330297306
 30
0.0
 10
34.2428183479
 20
27.630505405
 30
0.0
 10
34.2770926542
 20
27.6264154477
 30
0.0
 10
34.3070845993
 20
27.620934821
 30
0.0
 10
34.328788367
 20
27.6151533514
 30
0.0
 10
34.3430585928
 20
27.6097947347
 30
0.0
 10
34.3514291973
 20
27.6058270381
 30
0.0
 10
34.3580795246
 20
27.6016951456
 30
0.0
 10
34.362968199
 20
27.5973963492
 30
0.0
 10
34.3660819491
 20
27.5929068562
 30
0.0
 10
34.3668556462
 20
27.589632275
 30
0.0
 10
34.3668556462
 20
27.5881235562
 30
0.0
  0
SPLINE
  5
26F
100
AcDbEntity
  8
0
100
AcDbSpline
 62
7
  6
BYLAYER
 70
0
 71
3
 72
11
 73
7
 74
0
 42
0.0000001
 43
0.0000001
 44
0.0000000001
 40
0.0
 40
0.0
 40
0.0
 40
0.0
 40
0.2500464975
 40
0.5000473667
 40
0.7500120773
 40
1.0
 40
1.0
 40
1.0
 40
1.0
 10
34.1668556462
 20
32.1376256976
 30
0.0
 10
34.1930060533
 20
32.1376256976
 30
0.0
 10
34.2458932604
 20
32.1269962465
 30
0.0
 10
34.312367098
 20
32.0817042473
 30
0.0
 10
34.3565875318
 20
32.0145789254
 30
0.0
 10
34.3668556462
 20
31.961729101
 30
0.0
 10
34.3668556462
 20
31.9355848197
 30
0.0
  0
SPLINE
  5
270
100
AcDbEntity
  8
0
100
AcDbSpline
 62
7
  6
BYLAYER
 70
0
 71
3
 72
18
 73
14
 74
0
 42
0.0000001
 43
0.0000001
 44
0.0000000001
 40
0.0
 40
0.0
 40
0.0
 40
0.0
 40
0.0213174733
 40
0.0459825081
 40
0.0760904524
 40
0.112719869
 40
0.1562705767
 40
0.2067820131
 40
0.3279183163
 40
0.47297975
 40
0.6373316222
 40
0.8153710353
 40
1.0
 40
1.0
 40
1.0
 40
1.0
 10
34.3668556462
 20
26.8457932928
 30
0.0
 10
34.3668556462
 20
26.8442846106
 30
0.0
 10
34.3660821857
 20
26.8410101648
 30
0.0
 10
34.3629688084
 20
26.8365207215
 30
0.0
 10
34.3580803459
 20
26.8322221652
 30
0.0
 10
34.3514302627
 20
26.8280905321
 30
0.0
 10
34.3430600054
 20
26.8241227366
 30
0.0
 10
34.3287899078
 20
26.8187639741
 30
0.0
 10
34.3070859674
 20
26.8129823468
 30
0.0
 10
34.2770934953
 20
26.8075014921
 30
0.0
 10
34.2428186477
 20
26.8034114989
 30
0.0
 10
34.2055929768
 20
26.8008870831
 30
0.0
 10
34.179922224
 20
26.8003162809
 30
0.0
 10
34.1668556462
 20
26.8003162809
 30
0.0
  0
SPLINE
  5
271
100
AcDbEntity
  8
0
100
AcDbSpline
 62
7
  6
BYLAYER
 70
0
 71
3
 72
15
 73
11
 74
0
 42
0.0000001
 43
0.0000001
 44
0.0000000001
 40
0.0
 40
0.0
 40
0.0
 40
0.0
 40
0.0787452363
 40
0.1668469129
 40
0.2698882854
 40
0.389958068
 40
0.5261784937
 40
0.6759557675
 40
0.8356080372
 40
1.0
 40
1.0
 40
1.0
 40
1.0
 10
34.3668556462
 20
25.6198287393
 30
0.0
 10
34.3668556462
 20
25.6135643988
 30
0.0
 10
34.3639001088
 20
25.6001922405
 30
0.0
 10
34.3517563475
 20
25.582065978
 30
0.0
 10
34.3328199806
 20
25.5657854396
 30
0.0
 10
34.3078150278
 20
25.5516612488
 30
0.0
 10
34.2775674342
 20
25.5400571835
 30
0.0
 10
34.2431046798
 20
25.5314278801
 30
0.0
 10
34.2057281331
 20
25.5261194107
 30
0.0
 10
34.1799333545
 20
25.5249184759
 30
0.0
 10
34.1668556462
 20
25.5249184759
 30
0.0
  0
SPLINE
  5
272
100
AcDbEntity
  8
0
100
AcDbSpline
 62
7
  6
BYLAYER
 70
0
 71
3
 72
20
 73
16
 74
0
 42
0.0000001
 43
0.0000001
 44
0.0000000001
 40
0.0
 40
0.0
 40
0.0
 40
0.0
 40
0.0213171579
 40
0.0484949099
 40
0.0820378616
 40
0.122292839
 40
0.1694358413
 40
0.2232165751
 40
0.2832566958
 40
0.3491596899
 40
0.4204458234
 40
0.496333375
 40
0.6584462717
 40
0.8285905197
 40
1.0
 40
1.0
 40
1.0
 40
1.0
 10
17.4300059103
 20
32.2081928726
 30
0.0
 10
17.4485486466
 20
32.2074907746
 30
0.0
 10
17.4908951587
 20
32.2114556038
 30
0.0
 10
17.5604012562
 20
32.2283050662
 30
0.0
 10
17.6434854583
 20
32.2573503889
 30
0.0
 10
17.7401710994
 20
32.2991557636
 30
0.0
 10
17.8501805014
 20
32.354039335
 30
0.0
 10
17.9728959348
 20
32.4217263597
 30
0.0
 10
18.107310952
 20
32.5018214235
 30
0.0
 10
18.2522846046
 20
32.5938232362
 30
0.0
 10
18.4064196335
 20
32.6970234551
 30
0.0
 10
18.6270140131
 20
32.8513881473
 30
0.0
 10
18.912510247
 20
33.0629706069
 30
0.0
 10
19.2568286745
 20
33.3344614534
 30
0.0
 10
19.4856339454
 20
33.5243657708
 30
0.0
 10
19.5993174766
 20
33.6210038189
 30
0.0
  0
SPLINE
  5
273
100
AcDbEntity
  8
0
100
AcDbSpline
 62
7
  6
BYLAYER
 70
0
 71
3
 72
14
 73
10
 74
0
 42
0.0000001
 43
0.0000001
 44
0.0000000001
 40
0.0
 40
0.0
 40
0.0
 40
0.0
 40
0.1270622285
 40
0.2532915892
 40
0.3788071821
 40
0.503748119
 40
0.6282427611
 40
0.7523981054
 40
1.0
 40
1.0
 40
1.0
 40
1.0
 10
19.5993333992
 20
33.6209988285
 30
0.0
 10
19.3006479963
 20
33.7558525013
 30
0.0
 10
18.6940822227
 20
34.0003887809
 30
0.0
 10
17.7653441261
 20
34.3053971931
 30
0.0
 10
16.8264619317
 20
34.5569118982
 30
0.0
 10
15.8810469021
 20
34.7619322864
 30
0.0
 10
14.9311812188
 20
34.9255104193
 30
0.0
 10
13.6620301332
 20
35.0929436477
 30
0.0
 10
12.7049074297
 20
35.1658357364
 30
0.0
 10
12.0668556279
 20
35.192560886
 30
0.0
  0
SPLINE
  5
274
100
AcDbEntity
  8
0
100
AcDbSpline
 62
7
  6
BYLAYER
 70
0
 71
3
 72
33
 73
29
 74
0
 42
0.0000001
 43
0.0000001
 44
0.0000000001
 40
0.0
 40
0.0
 40
0.0
 40
0.0
 40
0.0300201364
 40
0.0601074228
 40
0.0903000004
 40
0.1206277965
 40
0.1511259889
 40
0.181834838
 40
0.212773536
 40
0.2439445268
 40
0.3069074874
 40
0.3707216307
 40
0.4029100844
 40
0.4352233025
 40
0.4999998909
 40
0.5647764925
 40
0.5970897183
 40
0.6292781728
 40
0.6930922902
 40
0.7560552429
 40
0.7872262579
 40
0.8181649825
 40
0.8488738327
 40
0.8793719708
 40
0.9096996503
 40
0.9398921448
 40
0.9699795071
 40
1.0
 40
1.0
 40
1.0
 40
1.0
 10
12.0668556459
 20
23.5571919643
 30
0.0
 10
12.1759759804
 20
23.5572014651
 30
0.0
 10
12.3946494795
 20
23.5696086928
 30
0.0
 10
12.7189116087
 20
23.6243850678
 30
0.0
 10
13.0364033544
 20
23.7143900558
 30
0.0
 10
13.3437000033
 20
23.8387139315
 30
0.0
 10
13.6373776851
 20
23.9964462544
 30
0.0
 10
13.9147955424
 20
24.185168996
 30
0.0
 10
14.1735474235
 20
24.4025884794
 30
0.0
 10
14.4913358423
 20
24.7286047673
 30
0.0
 10
14.8293423271
 20
25.1973014557
 30
0.0
 10
15.0771205147
 20
25.7229950878
 30
0.0
 10
15.2176125125
 20
26.1683155815
 30
0.0
 10
15.3191021275
 20
26.627674422
 30
0.0
 10
15.3706496599
 20
27.2169572042
 30
0.0
 10
15.3191024233
 20
27.8062400334
 30
0.0
 10
15.2176131366
 20
28.2655990252
 30
0.0
 10
15.0771215587
 20
28.7109195818
 30
0.0
 10
14.8293439636
 20
29.2366133685
 30
0.0
 10
14.4913376436
 20
29.7053101725
 30
0.0
 10
14.1735490684
 20
30.0313265261
 30
0.0
 10
13.914797077
 20
30.2487461639
 30
0.0
 10
13.6373794455
 20
30.4374690508
 30
0.0
 10
13.3437025414
 20
30.5952014984
 30
0.0
 10
13.0364069585
 20
30.719525554
 30
0.0
 10
12.7189157011
 20
30.8095306561
 30
0.0
 10
12.3946523133
 20
30.8643072432
 30
0.0
 10
12.1759772762
 20
30.8767147458
 30
0.0
 10
12.0668556458
 20
30.8767245906
 30
0.0
  0
SPLINE
  5
275
100
AcDbEntity
  8
0
100
AcDbSpline
 62
7
  6
BYLAYER
 70
0
 71
3
 72
33
 73
29
 74
0
 42
0.0000001
 43
0.0000001
 44
0.0000000001
 40
0.0
 40
0.0
 40
0.0
 40
0.0
 40
0.0300201369
 40
0.0601074244
 40
0.0903000032
 40
0.1206278006
 40
0.1511259942
 40
0.1818348435
 40
0.2127735396
 40
0.2439445245
 40
0.3069074618
 40
0.3707215874
 40
0.402910043
 40
0.4352232678
 40
0.499999867
 40
0.5647764578
 40
0.5970896768
 40
0.6292781295
 40
0.6930922644
 40
0.7560552404
 40
0.7872262612
 40
0.8181649878
 40
0.8488738379
 40
0.8793719749
 40
0.909699653
 40
0.9398921462
 40
0.9699795075
 40
1.0
 40
1.0
 40
1.0
 40
1.0
 10
12.0668556465
 20
30.8767248901
 30
0.0
 10
11.9577353099
 20
30.8767153895
 30
0.0
 10
11.7390618047
 20
30.8643081623
 30
0.0
 10
11.4147996644
 20
30.8095317872
 30
0.0
 10
11.0973079058
 20
30.7195267946
 30
0.0
 10
10.7900112466
 20
30.5952029059
 30
0.0
 10
10.496333565
 20
30.4374705605
 30
0.0
 10
10.2189157187
 20
30.2487478064
 30
0.0
 10
9.9601638598
 20
30.031328339
 30
0.0
 10
9.6423755005
 20
29.7053121523
 30
0.0
 10
9.3043690426
 20
29.2366156542
 30
0.0
 10
9.0565909013
 20
28.7109221528
 30
0.0
 10
8.9160989133
 20
28.2656016904
 30
0.0
 10
8.814609262
 20
27.806242786
 30
0.0
 10
8.7630616269
 20
27.2169599905
 30
0.0
 10
8.8146087611
 20
26.6276771728
 30
0.0
 10
8.9160980117
 20
26.1683182438
 30
0.0
 10
9.0565895994
 20
25.7229976553
 30
0.0
 10
9.3043672407
 20
25.1973037369
 30
0.0
 10
9.6423735885
 20
24.7286067416
 30
0.0
 10
9.9601622246
 20
24.4025902858
 30
0.0
 10
10.2189142398
 20
24.1851706307
 30
0.0
 10
10.4963318836
 20
23.9964477551
 30
0.0
 10
10.7900087887
 20
23.8387153291
 30
0.0
 10
11.0973043617
 20
23.7143912858
 30
0.0
 10
11.4147956066
 20
23.6243861882
 30
0.0
 10
11.7390589848
 20
23.5696096012
 30
0.0
 10
11.9577340172
 20
23.5572020981
 30
0.0
 10
12.0668556465
 20
23.557192253
 30
0.0
  0
SPLINE
  5
276
100
AcDbEntity
  8
0
100
AcDbSpline
 62
7
  6
BYLAYER
 70
0
 71
3
 72
37
 73
33
 74
0
 42
0.0000001
 43
0.0000001
 44
0.0000000001
 40
0.0
 40
0.0
 40
0.0
 40
0.0
 40
0.0312514732
 40
0.0625233861
 40
0.0937817674
 40
0.1250350482
 40
0.1562885387
 40
0.1875387547
 40
0.2187865528
 40
0.2500339392
 40
0.2812818418
 40
0.3125308572
 40
0.3437818359
 40
0.3750356597
 40
0.4062920803
 40
0.43755113
 40
0.4999995543
 40
0.5624477798
 40
0.593706593
 40
0.62496271
 40
0.6562161881
 40
0.6874668306
 40
0.718715552
 40
0.7499632873
 40
0.7812106081
 40
0.8124585443
 40
0.8437090728
 40
0.8749629112
 40
0.9062165626
 40
0.9374756085
 40
0.9687482677
 40
1.0
 40
1.0
 40
1.0
 40
1.0
 10
12.0668557477
 20
33.4937819089
 30
0.0
 10
11.8620470566
 20
33.4937747958
 30
0.0
 10
11.4520123381
 20
33.4734241528
 30
0.0
 10
10.8432029001
 20
33.3825229157
 30
0.0
 10
10.2462934507
 20
33.2318384669
 30
0.0
 10
9.6672925691
 20
33.0230665071
 30
0.0
 10
9.1116980569
 20
32.7583355422
 30
0.0
 10
8.5849040885
 20
32.440207133
 30
0.0
 10
8.0919234632
 20
32.0719180407
 30
0.0
 10
7.637520934
 20
31.6569948117
 30
0.0
 10
7.2258931505
 20
31.1995977529
 30
0.0
 10
6.8610381332
 20
30.7040608652
 30
0.0
 10
6.5462949468
 20
30.1752327237
 30
0.0
 10
6.2846711394
 20
29.6181700056
 30
0.0
 10
6.0786049877
 20
29.0381455501
 30
0.0
 10
5.8805795426
 20
28.2423689734
 30
0.0
 10
5.7801062708
 20
27.2169685338
 30
0.0
 10
5.8805771854
 20
26.1915698465
 30
0.0
 10
6.0785961527
 20
25.3957965509
 30
0.0
 10
6.2846600102
 20
24.8157775325
 30
0.0
 10
6.5462751181
 20
24.2587178855
 30
0.0
 10
6.8610138853
 20
23.729894552
 30
0.0
 10
7.2258600771
 20
23.2343577858
 30
0.0
 10
7.6374827461
 20
22.7769606215
 30
0.0
 10
8.0918814479
 20
22.3620343511
 30
0.0
 10
8.5848597921
 20
21.9937377319
 30
0.0
 10
9.1116577299
 20
21.675605874
 30
0.0
 10
9.6672546526
 20
21.410864271
 30
0.0
 10
10.246263755
 20
21.2020880719
 30
0.0
 10
10.8431835099
 20
21.051396488
 30
0.0
 10
11.4520041413
 20
20.9604955998
 30
0.0
 10
11.8620452567
 20
20.9401424718
 30
0.0
 10
12.0668556462
 20
20.9401349402
 30
0.0
  0
SPLINE
  5
277
100
AcDbEntity
  8
0
100
AcDbSpline
 62
7
  6
BYLAYER
 70
0
 71
3
 72
37
 73
33
 74
0
 42
0.0000001
 43
0.0000001
 44
0.0000000001
 40
0.0
 40
0.0
 40
0.0
 40
0.0
 40
0.0312514743
 40
0.0625233877
 40
0.0937817659
 40
0.1250350425
 40
0.1562885291
 40
0.1875387434
 40
0.2187865407
 40
0.2500339253
 40
0.2812818266
 40
0.3125308444
 40
0.3437818318
 40
0.3750356683
 40
0.4062920944
 40
0.4375511406
 40
0.4999995571
 40
0.5624478064
 40
0.5937066292
 40
0.624962745
 40
0.656216213
 40
0.6874668474
 40
0.7187155653
 40
0.749963299
 40
0.7812106175
 40
0.8124585493
 40
0.8437090738
 40
0.8749629109
 40
0.9062165621
 40
0.9374756083
 40
0.9687482677
 40
1.0
 40
1.0
 40
1.0
 40
1.0
 10
12.0668556462
 20
20.9401349402
 30
0.0
 10
12.2716643424
 20
20.940142055
 30
0.0
 10
12.6816990667
 20
20.9604927146
 30
0.0
 10
13.2905084882
 20
21.0513939514
 30
0.0
 10
13.8874178865
 20
21.2020783955
 30
0.0
 10
14.4664186901
 20
21.4108503331
 30
0.0
 10
15.0220131482
 20
21.6755812456
 30
0.0
 10
15.5488070707
 20
21.9937096376
 30
0.0
 10
16.0417876825
 20
22.3619986877
 30
0.0
 10
16.496190207
 20
22.7769218769
 30
0.0
 10
16.907817986
 20
23.234318924
 30
0.0
 10
17.2726730785
 20
23.7298558285
 30
0.0
 10
17.5874163231
 20
24.2586841123
 30
0.0
 10
17.8490401752
 20
24.815746995
 30
0.0
 10
18.0551063914
 20
25.3957715234
 30
0.0
 10
18.2531317859
 20
26.1915480672
 30
0.0
 10
18.3536050244
 20
27.2169485752
 30
0.0
 10
18.2531340637
 20
28.2423474283
 30
0.0
 10
18.0551149186
 20
29.0381208859
 30
0.0
 10
17.8490511066
 20
29.6181399031
 30
0.0
 10
17.5874359405
 20
30.1751993775
 30
0.0
 10
17.2726972305
 20
30.7040225686
 30
0.0
 10
16.9078510607
 20
31.1995592363
 30
0.0
 10
16.4962284204
 20
31.6569563521
 30
0.0
 10
16.0418297551
 20
32.0718825709
 30
0.0
 10
15.548851471
 20
32.4401791431
 30
0.0
 10
15.0220535876
 20
32.7583109541
 30
0.0
 10
14.4664567078
 20
33.0230525489
 30
0.0
 10
13.8874476222
 20
33.231828751
 30
0.0
 10
13.2905278738
 20
33.3825203423
 30
0.0
 10
12.6817072476
 20
33.4734212414
 30
0.0
 10
12.2716661352
 20
33.4937743757
 30
0.0
 10
12.0668557477
 20
33.4937819087
 30
0.0
  0
SPLINE
  5
278
100
AcDbEntity
  8
0
100
AcDbSpline
 62
7
  6
BYLAYER
 70
0
 71
3
 72
15
 73
11
 74
0
 42
0.0000001
 43
0.0000001
 44
0.0000000001
 40
0.0
 40
0.0
 40
0.0
 40
0.0
 40
0.1151928141
 40
0.2314762199
 40
0.349749174
 40
0.4707756984
 40
0.5953828519
 40
0.7245461118
 40
0.8591995774
 40
1.0
 40
1.0
 40
1.0
 40
1.0
 10
12.0668735469
 20
19.2413529776
 30
0.0
 10
12.30511253
 20
19.2756087724
 30
0.0
 10
12.7811402752
 20
19.3651323098
 30
0.0
 10
13.4857041563
 20
19.5623744621
 30
0.0
 10
14.1820860599
 20
19.8240430531
 30
0.0
 10
14.8685168798
 20
20.1533754057
 30
0.0
 10
15.5428086793
 20
20.5536499766
 30
0.0
 10
16.2015602461
 20
21.0296289656
 30
0.0
 10
16.8395964387
 20
21.5860371669
 30
0.0
 10
17.2370559807
 20
22.0036634402
 30
0.0
 10
17.4300193104
 20
22.2257350021
 30
0.0
  0
SPLINE
  5
279
100
AcDbEntity
  8
0
100
AcDbSpline
 62
7
  6
BYLAYER
 70
0
 71
3
 72
15
 73
11
 74
0
 42
0.0000001
 43
0.0000001
 44
0.0000000001
 40
0.0
 40
0.0
 40
0.0
 40
0.0
 40
0.1235850317
 40
0.248183774
 40
0.3737795528
 40
0.4999999048
 40
0.6262202318
 40
0.7518159224
 40
0.8764143912
 40
1.0
 40
1.0
 40
1.0
 40
1.0
 10
17.4300184891
 20
22.2257310443
 30
0.0
 10
17.723463462
 20
22.5635107137
 30
0.0
 10
18.2517145487
 20
23.297466908
 30
0.0
 10
18.8379665118
 20
24.5247510241
 30
0.0
 10
19.199044933
 20
25.8464941318
 30
0.0
 10
19.3212564261
 20
27.2169572839
 30
0.0
 10
19.1990457681
 20
28.5874202646
 30
0.0
 10
18.837967595
 20
29.9091619197
 30
0.0
 10
18.2517167214
 20
31.136447457
 30
0.0
 10
17.7234643452
 20
31.8704041198
 30
0.0
 10
17.4300182909
 20
32.2081856178
 30
0.0
  0
SPLINE
  5
27A
100
AcDbEntity
  8
0
100
AcDbSpline
 62
7
  6
BYLAYER
 70
0
 71
3
 72
15
 73
11
 74
0
 42
0.0000001
 43
0.0000001
 44
0.0000000001
 40
0.0
 40
0.0
 40
0.0
 40
0.0
 40
0.1408014882
 40
0.2754543704
 40
0.4046176001
 40
0.5292247802
 40
0.6502511707
 40
0.768524026
 40
0.8848074303
 40
1.0
 40
1.0
 40
1.0
 40
1.0
 10
17.4300192743
 20
32.2081818365
 30
0.0
 10
17.2370543311
 20
32.4302549517
 30
0.0
 10
16.8395944261
 20
32.8478823034
 30
0.0
 10
16.2015567809
 20
33.4042903186
 30
0.0
 10
15.5428061356
 20
33.8802684606
 30
0.0
 10
14.8685145402
 20
34.280542852
 30
0.0
 10
14.1820839838
 20
34.6098747899
 30
0.0
 10
13.485702424
 20
34.8715429326
 30
0.0
 10
12.7811391873
 20
35.0687847212
 30
0.0
 10
12.3051119507
 20
35.1583082275
 30
0.0
 10
12.066873459
 20
35.1925638767
 30
0.0
  0
SPLINE
  5
27B
100
AcDbEntity
  8
0
100
AcDbSpline
 62
7
  6
BYLAYER
 70
0
 71
3
 72
11
 73
7
 74
0
 42
0.0000001
 43
0.0000001
 44
0.0000000001
 40
0.0
 40
0.0
 40
0.0
 40
0.0
 40
0.2496296656
 40
0.4996148255
 40
0.749770489
 40
1.0
 40
1.0
 40
1.0
 40
1.0
 10
12.0080821864
 20
35.1923428556
 30
0.0
 10
11.6627077069
 20
35.1938374251
 30
0.0
 10
10.9703207105
 20
35.1520568601
 30
0.0
 10
9.9497795533
 20
34.9498419345
 30
0.0
 10
8.9642070866
 20
34.6143701183
 30
0.0
 10
8.3420083939
 20
34.3053481073
 30
0.0
 10
8.0427870602
 20
34.1312035685
 30
0.0
  0
SPLINE
  5
27C
100
AcDbEntity
  8
0
100
AcDbSpline
 62
7
  6
BYLAYER
 70
0
 71
3
 72
11
 73
7
 74
0
 42
0.0000001
 43
0.0000001
 44
0.0000000001
 40
0.0
 40
0.0
 40
0.0
 40
0.0
 40
0.2502338009
 40
0.5003939948
 40
0.7503832469
 40
1.0
 40
1.0
 40
1.0
 40
1.0
 10
8.0416430766
 20
20.3033794795
 30
0.0
 10
8.340262624
 20
20.129519092
 30
0.0
 10
8.9611693427
 20
19.8209032291
 30
0.0
 10
9.9446596762
 20
19.4855538213
 30
0.0
 10
10.9630410351
 20
19.2828272972
 30
0.0
 10
11.6540402802
 20
19.2405872468
 30
0.0
 10
11.9987309707
 20
19.241711362
 30
0.0
  0
SPLINE
  5
27D
100
AcDbEntity
  8
0
100
AcDbSpline
 62
7
  6
BYLAYER
 70
0
 71
3
 72
9
 73
5
 74
0
 42
0.0000001
 43
0.0000001
 44
0.0000000001
 40
0.0
 40
0.0
 40
0.0
 40
0.0
 40
0.4999679747
 40
1.0
 40
1.0
 40
1.0
 40
1.0
 10
11.9987309707
 20
19.241711362
 30
0.0
 10
12.010084142
 20
19.2416127851
 30
0.0
 10
12.0327916451
 20
19.2413623181
 30
0.0
 10
12.0555005924
 20
19.241356383
 30
0.0
 10
12.0668556462
 20
19.2413560335
 30
0.0
  0
SPLINE
  5
27E
100
AcDbEntity
  8
0
100
AcDbSpline
 62
7
  6
BYLAYER
 70
0
 71
3
 72
14
 73
10
 74
0
 42
0.0000001
 43
0.0000001
 44
0.0000000001
 40
0.0
 40
0.0
 40
0.0
 40
0.0
 40
0.1270622076
 40
0.2532915874
 40
0.37880717
 40
0.5037481255
 40
0.6282427725
 40
0.7523981171
 40
1.0
 40
1.0
 40
1.0
 40
1.0
 10
19.5993333991
 20
20.8129180205
 30
0.0
 10
19.3006469867
 20
20.6780667154
 30
0.0
 10
18.6940831426
 20
20.4335259963
 30
0.0
 10
17.765343809
 20
20.1285209346
 30
0.0
 10
16.8264621672
 20
19.8770042421
 30
0.0
 10
15.8810468408
 20
19.6719848275
 30
0.0
 10
14.9311811873
 20
19.508406312
 30
0.0
 10
13.6620300899
 20
19.3409731813
 30
0.0
 10
12.704907416
 20
19.2680812271
 30
0.0
 10
12.0668556465
 20
19.2413560237
 30
0.0
  0
SPLINE
  5
27F
100
AcDbEntity
  8
0
100
AcDbSpline
 62
7
  6
BYLAYER
 70
0
 71
3
 72
20
 73
16
 74
0
 42
0.0000001
 43
0.0000001
 44
0.0000000001
 40
0.0
 40
0.0
 40
0.0
 40
0.0
 40
0.0208107572
 40
0.0473067439
 40
0.0800286133
 40
0.1193717173
 40
0.165568381
 40
0.2184397937
 40
0.2776841504
 40
0.3429825449
 40
0.4139245076
 40
0.4897620956
 40
0.6527580943
 40
0.8251757788
 40
1.0
 40
1.0
 40
1.0
 40
1.0
 10
17.4300188243
 20
22.2257314302
 30
0.0
 10
17.4481211466
 20
22.2264169127
 30
0.0
 10
17.4894310884
 20
22.2226764923
 30
0.0
 10
17.5573044411
 20
22.2065172777
 30
0.0
 10
17.6385169086
 20
22.1784988094
 30
0.0
 10
17.7332167717
 20
22.137978843
 30
0.0
 10
17.8412585757
 20
22.0845491475
 30
0.0
 10
17.9621597464
 20
22.018351088
 30
0.0
 10
18.0950603355
 20
21.9396412939
 30
0.0
 10
18.2389615375
 20
21.8487823604
 30
0.0
 10
18.3925765652
 20
21.7463666525
 30
0.0
 10
18.6137815891
 20
21.5921299941
 30
0.0
 10
18.9017143968
 20
21.3792861496
 30
0.0
 10
19.2507161139
 20
21.104489624
 30
0.0
 10
19.483384014
 20
20.9114811679
 30
0.0
 10
19.5993328764
 20
20.8129175728
 30
0.0
  0
SPLINE
  5
280
100
AcDbEntity
  8
0
100
AcDbSpline
 62
7
  6
BYLAYER
 70
0
 71
3
 72
23
 73
19
 74
0
 42
0.0000001
 43
0.0000001
 44
0.0000000001
 40
0.0
 40
0.0
 40
0.0
 40
0.0
 40
0.0621545487
 40
0.1244014395
 40
0.1867244393
 40
0.249162338
 40
0.3117282741
 40
0.374412159
 40
0.4371845367
 40
0.5000064477
 40
0.5628280285
 40
0.6255999067
 40
0.6882823072
 40
0.7508468393
 40
0.8132836038
 40
0.8756036618
 40
0.9378468939
 40
1.0
 40
1.0
 40
1.0
 40
1.0
 10
19.5993333991
 20
33.6209988285
 30
0.0
 10
19.8042023053
 20
33.4097994785
 30
0.0
 10
20.1954134424
 20
32.9683246775
 30
0.0
 10
20.7193732142
 20
32.2549030305
 30
0.0
 10
21.1750886823
 20
31.4943572281
 30
0.0
 10
21.5570588068
 20
30.6925292427
 30
0.0
 10
21.8603919618
 20
29.855896781
 30
0.0
 10
22.0804819086
 20
28.9919411321
 30
0.0
 10
22.2139876047
 20
28.1091966363
 30
0.0
 10
22.2587822704
 20
27.2168669813
 30
0.0
 10
22.213971294
 20
26.3245413068
 30
0.0
 10
22.0804660627
 20
25.4418070131
 30
0.0
 10
21.8603374792
 20
24.5778775024
 30
0.0
 10
21.5569995565
 20
23.7412679257
 30
0.0
 10
21.175031204
 20
22.9394681724
 30
0.0
 10
20.7193451492
 20
22.1789479369
 30
0.0
 10
20.1954046759
 20
21.4655581241
 30
0.0
 10
19.804197244
 20
21.0241127655
 30
0.0
 10
19.5993333991
 20
20.8129180205
 30
0.0
  0
ENDSEC
  0
SECTION
  2
OBJECTS
  0
DICTIONARY
  5
C
100
AcDbDictionary
280
0
281
1
  3
ACAD_GROUP
350
D
  3
ACAD_MLINESTYLE
350
17
  3
ACAD_LAYOUT
350
1A
  3
ACAD_PLOTSETTINGS
350
19
  3
ACAD_PLOTSTYLENAME
350
E
  0
DICTIONARY
  5
D
102
{ACAD_REACTORS
330
C
102
}
100
AcDbDictionary
280
0
281
1
  0
ACDBDICTIONARYWDFLT
  5
E
102
{ACAD_REACTORS
330
C
102
}
100
AcDbDictionary
281
1
  3
Normal
350
F
100
AcDbDictionaryWithDefault
340
F
  0
DICTIONARY
  5
17
102
{ACAD_REACTORS
330
C
102
}
100
AcDbDictionary
280
0
281
1
  3
Standard
350
18
  0
DICTIONARY
  5
19
102
{ACAD_REACTORS
330
C
102
}
100
AcDbDictionary
281
1
  0
DICTIONARY
  5
1A
102
{ACAD_REACTORS
330
C
102
}
100
AcDbDictionary
281
1
  3
Model
350
281
  3
Layout1
350
282
  0
ACDBPLACEHOLDER
  5
F
102
{ACAD_REACTORS
330
E
102
}
  0
MLINESTYLE
  5
18
102
{ACAD_REACTORS
330
17
102
}
100
AcDbMlineStyle
  2
STANDARD
 70
0
  3

 62
256
 51
90.0
 52
90.0
 71
2
 49
0.5
 62
256
  6
BYLAYER
 49
-0.5
 62
256
  6
BYLAYER
  0
LAYOUT
  5
281
102
{ACAD_REACTORS
330
1A
102
}
100
AcDbPlotSettings
  1

  2
none_device
  4

  6

 40
0.0
 41
0.0
 42
0.0
 43
0.0
 44
210.0
 45
297.0
 46
0.0
 47
0.0
 48
0.0
 49
0.0
140
0.0
141
0.0
142
1.0
143
1.0
 70
1024
 72
1
 73
0
 74
0
  7

 75
0
147
1.0
148
0.0
149
0.0
100
AcDbLayout
  1
Model
 70
0
 71
0
 10
0.0
 20
0.0
 11
210.0
 21
297.0
 12
0.0
 22
0.0
 32
0.0
 14
0.0
 24
0.0
 34
0.0
 15
0.0
 25
0.0
 35
0.0
146
0.0
 13
0.0
 23
0.0
 33
0.0
 16
1.0
 26
0.0
 36
0.0
 17
0.0
 27
1.0
 37
0.0
 76
0
330
210
345
0
346
0
  0
LAYOUT
  5
282
102
{ACAD_REACTORS
330
1A
102
}
100
AcDbPlotSettings
  1

  2
none_device
  4

  6

 40
0.0
 41
0.0
 42
0.0
 43
0.0
 44
210.0
 45
297.0
 46
0.0
 47
0.0
 48
0.0
 49
0.0
140
0.0
141
0.0
142
1.0
143
1.0
 70
0
 72
1
 73
0
 74
0
  7

 75
0
147
1.0
148
0.0
149
0.0
100
AcDbLayout
  1
Layout1
 70
0
 71
1
 10
0.0
 20
0.0
 11
210.0
 21
297.0
 12
0.0
 22
0.0
 32
0.0
 14
0.0
 24
0.0
 34
0.0
 15
0.0
 25
0.0
 35
0.0
146
0.0
 13
0.0
 23
0.0
 33
0.0
 16
1.0
 26
0.0
 36
0.0
 17
0.0
 27
1.0
 37
0.0
 76
0
330
211
345
0
346
0
  0
ENDSEC
  0
EOF
