999
DXF file: C:\Users\sesa63760\Dev\_Creo\CAD\MCADID0004766_3D-CAD\drw0001_6.dxf
999
Pro/ENGINEER 2019471 by Parametric Technology Corporation
  0
SECTION
  2
HEADER
  9
$ACADVER
  1
AC1024
  9
$DWGCODEPAGE
  3
ANSI_1252
  9
$EXTMAX
 10
56.057606336
 20
79.281471818
 30
0.0
  9
$EXTMIN
 10
0.0
 20
0.0
 30
0.0
  9
$LIMMIN
 10
0.0
 20
0.0
  9
$LIMMAX
 10
56.057606336
 20
79.281471818
  9
$VIEWCTR
 10
28.028803168
 20
39.640735909
  9
$VIEWSIZE
 40
79.281471818
  9
$CLAYER
  8
0
  9
$LTSCALE
 40
5.1679774222
  9
$CELTYPE
  6
BYLAYER
  9
$DIMSCALE
 40
1.0
  9
$DIMASZ
 40
0.6673524564
  9
$DIMEXO
 40
1.0
  9
$DIMDLI
 40
3.5706025826
  9
$DIMEXE
 40
1.0
  9
$DIMCEN
 40
0.8456690327
  9
$DIMLFAC
 40
1.0
  9
$DIMBLK
  1
_FILLED
  9
$DIMALT
 70
0
  9
$DIMALTF
 40
0.0393700787
  9
$DIMTXT
 40
0.9342934389
  9
$DIMTOL
 70
1
  9
$DIMLIM
 70
0
  9
$DIMTFAC
 40
1.0
  9
$DIMTP
 40
0.01
  9
$DIMTM
 40
0.01
  9
$DIMGAP
 40
0.625
  9
$DIMDSEP
 70
46
  9
$AUNITS
 70
0
  9
$PDMODE
 70
3
  9
$PDSIZE
 40
0.3125
  9
$HANDSEED
  5
2D0
  9
$TILEMODE
 70
1
  9
$MEASUREMENT
 70
1
  9
$INSUNITS
 70
4
  0
ENDSEC
  0
SECTION
  2
CLASSES
  0
CLASS
  1
ACDBDICTIONARYWDFLT
  2
AcDbDictionaryWithDefault
  3
AutoCAD 2000
 90
0
 91
1
280
0
281
0
  0
CLASS
  1
ACDBPLACEHOLDER
  2
AcDbPlaceHolder
  3
AutoCAD 2000
 90
0
 91
1
280
0
281
0
  0
CLASS
  1
LAYOUT
  2
AcDbLayout
  3
AutoCAD 2000
 90
0
 91
0
280
0
281
0
  0
ENDSEC
  0
SECTION
  2
TABLES
  0
TABLE
  2
VPORT
  5
8
100
AcDbSymbolTable
 70
2
  0
VPORT
  5
1F4
100
AcDbSymbolTableRecord
100
AcDbViewportTableRecord
  2
*ACTIVE
 70
0
 10
0.0
 20
0.0
 11
1.0
 21
1.0
 12
28.028803168
 22
39.640735909
 13
0.0
 23
0.0
 14
1.0
 24
1.0
 15
0.0
 25
0.0
 16
0.0
 26
0.0
 36
1.0
 17
0.0
 27
0.0
 37
0.0
 40
79.281471818
 41
0.7070707071
 42
50.0
 43
0.0
 44
0.0
 50
0.0
 51
0.0
 71
0
 72
100
 73
1
 74
1
 75
0
 76
0
 77
0
 78
0
  0
ENDTAB
  0
TABLE
  2
LTYPE
  5
5
100
AcDbSymbolTable
 70
6
  0
LTYPE
  5
14
100
AcDbSymbolTableRecord
100
AcDbLinetypeTableRecord
  2
BYBLOCK
 70
0
  3

 72
65
 73
0
 40
0.0
  0
LTYPE
  5
15
100
AcDbSymbolTableRecord
100
AcDbLinetypeTableRecord
  2
BYLAYER
 70
0
  3

 72
65
 73
0
 40
0.0
  0
LTYPE
  5
16
100
AcDbSymbolTableRecord
100
AcDbLinetypeTableRecord
  2
CONTINUOUS
 70
64
  3
Solid line
 72
65
 73
0
 40
0.0
  0
LTYPE
  5
1F5
100
AcDbSymbolTableRecord
100
AcDbLinetypeTableRecord
  2
CENTER
 70
64
  3
____ _ ____ _ ____ _ ____ _ ____ _ ____ _ ____
 72
65
 73
4
 40
0.6
 49
0.375
 74
0
 49
-0.075
 74
0
 49
0.075
 74
0
 49
-0.075
 74
0
  0
LTYPE
  5
1F6
100
AcDbSymbolTableRecord
100
AcDbLinetypeTableRecord
  2
HIDDEN
 70
64
  3
- - - - - - - - - - - - - - - - - - - -
 72
65
 73
2
 40
0.2
 49
0.1
 74
0
 49
-0.1
 74
0
  0
LTYPE
  5
1F7
100
AcDbSymbolTableRecord
100
AcDbLinetypeTableRecord
  2
PHANTOM
 70
64
  3
_____ _ _ _____ _ _ _____ _ _ _____
 72
65
 73
6
 40
0.8
 49
0.45
 74
0
 49
-0.05
 74
0
 49
0.1
 74
0
 49
-0.05
 74
0
 49
0.1
 74
0
 49
-0.05
 74
0
  0
LTYPE
  5
1F8
100
AcDbSymbolTableRecord
100
AcDbLinetypeTableRecord
  2
DOT
 70
64
  3
. . . . . . . . . . . . . . . . . . . .
 72
65
 73
2
 40
0.2
 49
0.1
 74
0
 49
-0.1
 74
0
  0
LTYPE
  5
1F9
100
AcDbSymbolTableRecord
100
AcDbLinetypeTableRecord
  2
DASHED
 70
64
  3
- - - - - - - - - - - - - - - - - - - -
 72
65
 73
2
 40
0.2
 49
0.1
 74
0
 49
-0.1
 74
0
  0
ENDTAB
  0
TABLE
  2
LAYER
  5
2
100
AcDbSymbolTable
 70
36
  0
LAYER
  5
10
100
AcDbSymbolTableRecord
100
AcDbLayerTableRecord
  2
0
 70
0
 62
7
  6
CONTINUOUS
370
-3
390
F
  0
LAYER
  5
1FA
100
AcDbSymbolTableRecord
100
AcDbLayerTableRecord
  2
DEFAULT_1
 70
0
 62
7
  6
CENTER
370
-3
390
F
  0
LAYER
  5
1FB
100
AcDbSymbolTableRecord
100
AcDbLayerTableRecord
  2
DEFAULT_2
 70
0
 62
7
  6
HIDDEN
370
-3
390
F
  0
LAYER
  5
1FC
100
AcDbSymbolTableRecord
100
AcDbLayerTableRecord
  2
DEFAULT_3
 70
0
 62
7
  6
PHANTOM
370
-3
390
F
  0
LAYER
  5
1FD
100
AcDbSymbolTableRecord
100
AcDbLayerTableRecord
  2
00_COMPONENTS
 70
0
 62
7
  6
CONTINUOUS
370
-3
390
F
  0
LAYER
  5
1FE
100
AcDbSymbolTableRecord
100
AcDbLayerTableRecord
  2
01_1_DEFAULT_DATUMS
 70
0
 62
7
  6
CONTINUOUS
370
-3
390
F
  0
LAYER
  5
1FF
100
AcDbSymbolTableRecord
100
AcDbLayerTableRecord
  2
01_PLANES
 70
0
 62
7
  6
CONTINUOUS
370
-3
390
F
  0
LAYER
  5
200
100
AcDbSymbolTableRecord
100
AcDbLayerTableRecord
  2
02_COORD_SYS
 70
0
 62
7
  6
CONTINUOUS
370
-3
390
F
  0
LAYER
  5
201
100
AcDbSymbolTableRecord
100
AcDbLayerTableRecord
  2
03_AXES
 70
0
 62
7
  6
CONTINUOUS
370
-3
390
F
  0
LAYER
  5
202
100
AcDbSymbolTableRecord
100
AcDbLayerTableRecord
  2
04_POINTS
 70
0
 62
7
  6
CONTINUOUS
370
-3
390
F
  0
LAYER
  5
203
100
AcDbSymbolTableRecord
100
AcDbLayerTableRecord
  2
05_CURVES
 70
0
 62
7
  6
CONTINUOUS
370
-3
390
F
  0
LAYER
  5
204
100
AcDbSymbolTableRecord
100
AcDbLayerTableRecord
  2
06_SURFS
 70
0
 62
7
  6
CONTINUOUS
370
-3
390
F
  0
LAYER
  5
205
100
AcDbSymbolTableRecord
100
AcDbLayerTableRecord
  2
07_COSMETICS
 70
0
 62
7
  6
CONTINUOUS
370
-3
390
F
  0
LAYER
  5
206
100
AcDbSymbolTableRecord
100
AcDbLayerTableRecord
  2
10_NOTES
 70
0
 62
7
  6
CONTINUOUS
370
-3
390
F
  0
LAYER
  5
207
100
AcDbSymbolTableRecord
100
AcDbLayerTableRecord
  2
11_NOTES_PUB
 70
0
 62
7
  6
CONTINUOUS
370
-3
390
F
  0
LAYER
  5
208
100
AcDbSymbolTableRecord
100
AcDbLayerTableRecord
  2
13_REF_GTOL
 70
0
 62
7
  6
CONTINUOUS
370
-3
390
F
  0
LAYER
  5
209
100
AcDbSymbolTableRecord
100
AcDbLayerTableRecord
  2
16_MISC
 70
0
 62
7
  6
CONTINUOUS
370
-3
390
F
  0
LAYER
  5
20A
100
AcDbSymbolTableRecord
100
AcDbLayerTableRecord
  2
17_NO_PRINT
 70
0
 62
7
  6
CONTINUOUS
370
-3
390
F
  0
LAYER
  5
20B
100
AcDbSymbolTableRecord
100
AcDbLayerTableRecord
  2
18_DATUM_CAMS_JOINTS
 70
0
 62
7
  6
CONTINUOUS
370
-3
390
F
  0
LAYER
  5
20C
100
AcDbSymbolTableRecord
100
AcDbLayerTableRecord
  2
19_DATUM_FUNCTIONAL
 70
0
 62
7
  6
CONTINUOUS
370
-3
390
F
  0
LAYER
  5
20D
100
AcDbSymbolTableRecord
100
AcDbLayerTableRecord
  2
20_DATUM_KINEMATIC_SCHEME
 70
0
 62
7
  6
CONTINUOUS
370
-3
390
F
  0
ENDTAB
  0
TABLE
  2
STYLE
  5
3
100
AcDbSymbolTable
 70
1
  0
STYLE
  5
11
100
AcDbSymbolTableRecord
100
AcDbTextStyleTableRecord
  2
STANDARD
 70
0
 40
0.0
 41
1.0
 50
0.0
 71
0
 42
0.2
  3
ARIAL.TTF
  4

  0
STYLE
  5
20E
100
AcDbSymbolTableRecord
100
AcDbTextStyleTableRecord
  2
TEXTSTYLE_1
 70
0
 40
0.0
 41
0.8
 50
0.0
 71
0
 42
0.2
  3
gdt
  4

  0
ENDTAB
  0
TABLE
  2
VIEW
  5
6
100
AcDbSymbolTable
 70
0
  0
ENDTAB
  0
TABLE
  2
UCS
  5
7
100
AcDbSymbolTable
 70
0
  0
ENDTAB
  0
TABLE
  2
APPID
  5
9
100
AcDbSymbolTable
 70
1
  0
APPID
  5
20F
100
AcDbSymbolTableRecord
100
AcDbRegAppTableRecord
  2
ACAD
 70
0
  0
ENDTAB
  0
TABLE
  2
BLOCK_RECORD
  5
1
100
AcDbSymbolTable
 70
0
  0
BLOCK_RECORD
  5
210
100
AcDbSymbolTableRecord
100
AcDbBlockTableRecord
  2
*Model_Space
  0
BLOCK_RECORD
  5
211
100
AcDbSymbolTableRecord
100
AcDbBlockTableRecord
  2
*Paper_Space
  0
BLOCK_RECORD
  5
212
100
AcDbSymbolTableRecord
100
AcDbBlockTableRecord
  2
_FILLED
  0
ENDTAB
  0
TABLE
  2
DIMSTYLE
  5
A
100
AcDbSymbolTable
 70
1
100
AcDbDimStyleTable
 71
0
  0
DIMSTYLE
105
213
100
AcDbSymbolTableRecord
100
AcDbDimStyleTableRecord
  2
STANDARD
 70
0
  3

  4

 40
1.0
 41
0.6673524564
 42
1.0
 43
0.38
 44
1.0
 45
0.0
 46
0.0
 47
0.01
 48
0.01
140
0.9342934389
141
0.09
142
0.0
143
25.4
144
1.0
145
0.0
146
1.0
147
0.625
 71
1
 72
0
 73
0
 74
0
 75
0
 76
0
 77
1
 78
8
 79
2
170
0
171
1
172
0
173
0
174
0
175
0
176
0
177
0
178
0
270
2
179
2
271
2
272
2
273
2
274
2
275
0
280
0
281
0
282
0
283
1
284
8
285
0
286
0
287
3
288
0
340
11
278
46
341
212
342
212
343
212
344
212
  0
ENDTAB
  0
ENDSEC
  0
SECTION
  2
BLOCKS
  0
BLOCK
  5
20
100
AcDbEntity
  8
0
100
AcDbBlockBegin
  2
*Model_Space
 70
0
 10
0.0
 20
0.0
 30
0.0
  3
*Model_Space
  1

  0
ENDBLK
  5
21
100
AcDbEntity
  8
0
100
AcDbBlockEnd
  0
BLOCK
  5
1C
100
AcDbEntity
  8
0
100
AcDbBlockBegin
  2
*Paper_Space
 70
0
 10
0.0
 20
0.0
 30
0.0
  3
*Paper_Space
  1

  0
ENDBLK
  5
1D
100
AcDbEntity
  8
0
100
AcDbBlockEnd
  0
BLOCK
  5
214
100
AcDbEntity
  8
0
100
AcDbBlockBegin
  2
_FILLED
 70
64
 10
0.0
 20
0.0
  3
_FILLED
  1

  0
SOLID
  5
215
100
AcDbEntity
  8
0
  6
BYBLOCK
 62
0
100
AcDbTrace
 10
0.0
 20
0.0
 11
-1.0
 21
0.25
 12
-1.0
 22
-0.25
 13
-1.0
 23
-0.25
  0
ENDBLK
  5
216
100
AcDbEntity
  8
0
  6
BYBLOCK
 62
0
100
AcDbBlockEnd
  0
ENDSEC
  0
SECTION
  2
ENTITIES
  0
LINE
  5
217
100
AcDbEntity
  8
0
100
AcDbLine
 62
7
  6
BYLAYER
 10
38.4409268026
 20
6.5501828001
 11
25.6870769857
 21
6.5501828001
  0
LINE
  5
218
100
AcDbEntity
  8
0
100
AcDbLine
 62
7
  6
BYLAYER
 10
38.7916496288
 20
6.9633587113
 11
37.3774360664
 21
6.9633587113
  0
LINE
  5
219
100
AcDbEntity
  8
0
100
AcDbLine
 62
7
  6
BYLAYER
 10
35.5207266195
 20
6.9633587113
 11
28.6072771684
 21
6.9633587113
  0
LINE
  5
21A
100
AcDbEntity
  8
0
100
AcDbLine
 62
7
  6
BYLAYER
 10
26.7505677214
 20
6.9633587113
 11
26.3659506984
 21
6.9633587113
  0
LINE
  5
21B
100
AcDbEntity
  8
0
100
AcDbLine
 62
7
  6
BYLAYER
 10
25.6588446502
 20
6.9633587113
 11
25.3363541591
 21
6.9633587113
  0
LINE
  5
21C
100
AcDbEntity
  8
0
100
AcDbLine
 62
7
  6
BYLAYER
 10
26.1450314519
 20
7.0001851067
 11
26.3613518532
 21
7.0001846966
  0
LINE
  5
21D
100
AcDbEntity
  8
0
100
AcDbLine
 62
7
  6
BYLAYER
 10
26.3426185348
 20
7.1501828001
 11
26.2511066599
 21
7.1501828001
  0
LINE
  5
21E
100
AcDbEntity
  8
0
100
AcDbLine
 62
7
  6
BYLAYER
 10
26.1466520239
 20
7.2741355734
 11
26.3271380272
 21
7.2741355734
  0
LINE
  5
21F
100
AcDbEntity
  8
0
100
AcDbLine
 62
7
  6
BYLAYER
 10
28.2884371912
 20
9.487006889
 11
35.8395665967
 21
9.487006889
  0
LINE
  5
220
100
AcDbEntity
  8
0
100
AcDbLine
 62
7
  6
BYLAYER
 10
41.209244942
 20
9.9001828001
 11
25.9605241462
 21
9.9001828001
  0
LINE
  5
221
100
AcDbEntity
  8
0
100
AcDbLine
 62
7
  6
BYLAYER
 10
25.2920864619
 20
9.9001828001
 11
22.919101386
 21
9.9001828001
  0
LINE
  5
222
100
AcDbEntity
  8
0
100
AcDbLine
 62
7
  6
BYLAYER
 10
41.6423140574
 20
10.1501828001
 11
25.6538999832
 21
10.1501828001
  0
LINE
  5
223
100
AcDbEntity
  8
0
100
AcDbLine
 62
7
  6
BYLAYER
 10
24.946793348
 20
10.1501828001
 11
22.4856897304
 21
10.1501828001
  0
LINE
  5
224
100
AcDbEntity
  8
0
100
AcDbLine
 62
7
  6
BYLAYER
 10
21.9188552426
 20
11.1323201369
 11
24.5453206315
 21
11.1323201369
  0
LINE
  5
225
100
AcDbEntity
  8
0
100
AcDbLine
 62
7
  6
BYLAYER
 10
25.2524274127
 20
11.1323201369
 11
42.2093513132
 21
11.1323201369
  0
LINE
  5
226
100
AcDbEntity
  8
0
100
AcDbLine
 62
7
  6
BYLAYER
 10
25.0702791802
 20
11.3720534238
 11
25.2050322557
 21
11.3720534238
  0
LINE
  5
227
100
AcDbEntity
  8
0
100
AcDbLine
 62
7
  6
BYLAYER
 10
42.2762624589
 20
11.3735939337
 11
25.2045283652
 21
11.3735939337
  0
LINE
  5
228
100
AcDbEntity
  8
0
100
AcDbLine
 62
7
  6
BYLAYER
 10
24.4984292946
 20
11.3735939337
 11
21.8519454342
 21
11.3735939337
  0
LINE
  5
229
100
AcDbEntity
  8
0
100
AcDbLine
 62
7
  6
BYLAYER
 10
25.0139948086
 20
11.8345757085
 11
25.1993402839
 21
11.8345757085
  0
LINE
  5
22A
100
AcDbEntity
  8
0
100
AcDbLine
 62
7
  6
BYLAYER
 10
42.3640018939
 20
16.4001828001
 11
25.1432063246
 21
16.4001828001
  0
LINE
  5
22B
100
AcDbEntity
  8
0
100
AcDbLine
 62
7
  6
BYLAYER
 10
24.4353552977
 20
16.4001828001
 11
21.7640018939
 21
16.4001828001
  0
LINE
  5
22C
100
AcDbEntity
  8
0
100
AcDbLine
 62
7
  6
BYLAYER
 10
25.1429664568
 20
16.4054189208
 11
24.957578743
 21
16.4054189208
  0
LINE
  5
22D
100
AcDbEntity
  8
0
100
AcDbLine
 62
7
  6
BYLAYER
 10
44.0639566846
 20
16.8001828001
 11
37.5964233505
 21
16.8001828001
  0
LINE
  5
22E
100
AcDbEntity
  8
0
100
AcDbLine
 62
7
  6
BYLAYER
 10
26.5315804374
 20
16.8001828001
 11
20.0640471033
 21
16.8001828001
  0
LINE
  5
22F
100
AcDbEntity
  8
0
100
AcDbLine
 62
7
  6
BYLAYER
 10
45.5640018939
 20
17.4001828001
 11
18.5640018939
 21
17.4001828001
  0
LINE
  5
230
100
AcDbEntity
  8
0
100
AcDbLine
 62
7
  6
BYLAYER
 10
21.9186524746
 20
11.1323201369
 11
22.4856897304
 21
10.1501828001
  0
LINE
  5
231
100
AcDbEntity
  8
0
100
AcDbLine
 62
7
  6
BYLAYER
 10
11.4640018939
 20
36.2003182658
 11
11.4640018939
 21
40.4000473345
  0
LINE
  5
232
100
AcDbEntity
  8
0
100
AcDbLine
 62
7
  6
BYLAYER
 10
11.8640045476
 20
35.8001828001
 11
11.8640045476
 21
40.8001828001
  0
LINE
  5
233
100
AcDbEntity
  8
0
100
AcDbLine
 62
7
  6
BYLAYER
 10
17.8640018939
 20
50.4696964238
 11
24.8640018939
 21
58.7963188723
  0
LINE
  5
234
100
AcDbEntity
  8
0
100
AcDbLine
 62
7
  6
BYLAYER
 10
24.8640018939
 20
58.1840198651
 11
17.8640018939
 21
49.8573974166
  0
LINE
  5
235
100
AcDbEntity
  8
0
100
AcDbLine
 62
7
  6
BYLAYER
 10
18.5640018939
 20
23.9001828001
 11
45.5640018939
 21
23.9001828001
  0
LINE
  5
236
100
AcDbEntity
  8
0
100
AcDbLine
 62
7
  6
BYLAYER
 10
15.1640018939
 20
35.1001845704
 11
15.1640018939
 21
41.5001810299
  0
LINE
  5
237
100
AcDbEntity
  8
0
100
AcDbLine
 62
7
  6
BYLAYER
 10
15.1640018939
 20
41.5001828001
 11
15.6258821093
 21
42.3001828001
  0
LINE
  5
238
100
AcDbEntity
  8
0
100
AcDbLine
 62
7
  6
BYLAYER
 10
19.8640018939
 20
49.1308227905
 11
26.8640018939
 21
57.457445239
  0
LINE
  5
239
100
AcDbEntity
  8
0
100
AcDbLine
 62
7
  6
BYLAYER
 10
11.4640138914
 20
40.4001686103
 11
11.8640188083
 21
40.8001685392
  0
LINE
  5
23A
100
AcDbEntity
  8
0
100
AcDbLine
 62
7
  6
BYLAYER
 10
25.3140018939
 20
25.9001828001
 11
18.6140018939
 21
25.9001828001
  0
LINE
  5
23B
100
AcDbEntity
  8
0
100
AcDbLine
 62
7
  6
BYLAYER
 10
11.4640138914
 20
36.20019699
 11
11.8640188083
 21
35.8001970611
  0
LINE
  5
23C
100
AcDbEntity
  8
0
100
AcDbLine
 62
7
  6
BYLAYER
 10
15.1640018939
 20
35.1001828001
 11
15.6258821093
 21
34.3001828001
  0
LINE
  5
23D
100
AcDbEntity
  8
0
100
AcDbLine
 62
7
  6
BYLAYER
 10
21.9186524746
 20
11.1323201369
 11
21.851741329
 21
11.3735939337
  0
LINE
  5
23E
100
AcDbEntity
  8
0
100
AcDbLine
 62
7
  6
BYLAYER
 10
17.8640018939
 20
30.3236836871
 11
17.8640018939
 21
50.4696964238
  0
LINE
  5
23F
100
AcDbEntity
  8
0
100
AcDbLine
 62
7
  6
BYLAYER
 10
18.5640018939
 20
23.9001828001
 11
18.5640018939
 21
17.4001828001
  0
LINE
  5
240
100
AcDbEntity
  8
0
100
AcDbLine
 62
7
  6
BYLAYER
 10
18.6140018939
 20
25.9001828001
 11
18.6140018939
 21
23.9001828001
  0
LINE
  5
241
100
AcDbEntity
  8
0
100
AcDbLine
 62
7
  6
BYLAYER
 10
21.7640018939
 20
16.4001828001
 11
21.851741329
 21
11.3735939337
  0
LINE
  5
242
100
AcDbEntity
  8
0
100
AcDbLine
 62
7
  6
BYLAYER
 10
19.2639062646
 20
17.4001828001
 11
19.2639026035
 21
23.9001828001
  0
LINE
  5
243
100
AcDbEntity
  8
0
100
AcDbLine
 62
7
  6
BYLAYER
 10
19.8640018939
 20
49.1308227905
 11
19.8640018939
 21
38.9129322597
  0
LINE
  5
244
100
AcDbEntity
  8
0
100
AcDbLine
 62
7
  6
BYLAYER
 10
19.8640018939
 20
36.9065163792
 11
19.8640018939
 21
30.3236836871
  0
LINE
  5
245
100
AcDbEntity
  8
0
100
AcDbLine
 62
7
  6
BYLAYER
 10
19.8640018939
 20
36.9083432184
 11
19.8640018939
 21
38.4899954924
  0
LINE
  5
246
100
AcDbEntity
  8
0
100
AcDbLine
 62
7
  6
BYLAYER
 10
20.0640018939
 20
16.8001828001
 11
20.0640018939
 21
17.4001828001
  0
LINE
  5
247
100
AcDbEntity
  8
0
100
AcDbLine
 62
7
  6
BYLAYER
 10
20.2226607478
 20
16.8001828001
 11
20.2226607478
 21
17.4001828001
  0
LINE
  5
248
100
AcDbEntity
  8
0
100
AcDbLine
 62
7
  6
BYLAYER
 10
20.3640018939
 20
43.300141499
 11
20.3640018939
 21
33.3002241013
  0
LINE
  5
249
100
AcDbEntity
  8
0
100
AcDbLine
 62
7
  6
BYLAYER
 10
20.6640035924
 20
35.467810822
 11
20.6640035924
 21
42.3001828001
  0
LINE
  5
24A
100
AcDbEntity
  8
0
100
AcDbLine
 62
7
  6
BYLAYER
 10
21.2833209196
 20
17.4001828001
 11
21.2833209196
 21
16.8001828001
  0
LINE
  5
24B
100
AcDbEntity
  8
0
100
AcDbLine
 62
7
  6
BYLAYER
 10
20.417400259
 20
16.8001828001
 11
20.4256046725
 21
17.4001828001
  0
LINE
  5
24C
100
AcDbEntity
  8
0
100
AcDbLine
 62
7
  6
BYLAYER
 10
34.5640018939
 20
58.7532750341
 11
34.0640018939
 21
58.2532750341
  0
LINE
  5
24D
100
AcDbEntity
  8
0
100
AcDbLine
 62
7
  6
BYLAYER
 10
20.3640018939
 20
42.0001812291
 11
20.6640035924
 21
42.3001828001
  0
LINE
  5
24E
100
AcDbEntity
  8
0
100
AcDbLine
 62
7
  6
BYLAYER
 10
17.8640018939
 20
30.3236836871
 11
19.8640018939
 21
30.3236836871
  0
LINE
  5
24F
100
AcDbEntity
  8
0
100
AcDbLine
 62
7
  6
BYLAYER
 10
22.1640026077
 20
33.9751850654
 11
22.4640043269
 21
33.6751835529
  0
LINE
  5
250
100
AcDbEntity
  8
0
100
AcDbLine
 62
7
  6
BYLAYER
 10
17.8640018939
 20
41.5001828001
 11
17.4021216786
 21
42.3001828001
  0
LINE
  5
251
100
AcDbEntity
  8
0
100
AcDbLine
 62
7
  6
BYLAYER
 10
21.7640018939
 20
16.8001828001
 11
21.7640018939
 21
16.4001828001
  0
LINE
  5
252
100
AcDbEntity
  8
0
100
AcDbLine
 62
7
  6
BYLAYER
 10
22.1640018939
 20
33.975337537
 11
22.1640018939
 21
42.6250280633
  0
LINE
  5
253
100
AcDbEntity
  8
0
100
AcDbLine
 62
7
  6
BYLAYER
 10
22.4640035742
 20
33.6751828001
 11
22.4640035742
 21
42.9251828001
  0
LINE
  5
254
100
AcDbEntity
  8
0
100
AcDbLine
 62
7
  6
BYLAYER
 10
22.5816399841
 20
16.8001828001
 11
22.5816399841
 21
17.4001828001
  0
LINE
  5
255
100
AcDbEntity
  8
0
100
AcDbLine
 62
7
  6
BYLAYER
 10
23.3640018939
 20
61.2032777661
 11
23.3640018939
 21
65.3032723021
  0
LINE
  5
256
100
AcDbEntity
  8
0
100
AcDbLine
 62
7
  6
BYLAYER
 10
23.8140018939
 20
25.9001828001
 11
23.8140018939
 21
45.8001828001
  0
LINE
  5
257
100
AcDbEntity
  8
0
100
AcDbLine
 62
7
  6
BYLAYER
 10
17.8640018939
 20
35.1001828001
 11
17.4021216786
 21
34.3001828001
  0
LINE
  5
258
100
AcDbEntity
  8
0
100
AcDbLine
 62
7
  6
BYLAYER
 10
22.1640026077
 20
42.6251805349
 11
22.4640043269
 21
42.9251820474
  0
LINE
  5
259
100
AcDbEntity
  8
0
100
AcDbLine
 62
7
  6
BYLAYER
 10
20.3640018939
 20
33.3001828001
 11
19.8640018939
 21
33.3001828001
  0
LINE
  5
25A
100
AcDbEntity
  8
0
100
AcDbLine
 62
7
  6
BYLAYER
 10
22.4640050796
 20
33.6751828001
 11
23.8140018939
 21
33.6751828001
  0
LINE
  5
25B
100
AcDbEntity
  8
0
100
AcDbLine
 62
7
  6
BYLAYER
 10
17.4021216786
 20
34.3001828001
 11
15.6258821093
 21
34.3001828001
  0
LINE
  5
25C
100
AcDbEntity
  8
0
100
AcDbLine
 62
7
  6
BYLAYER
 10
25.9361249957
 20
7.248152759
 11
25.5978879515
 21
9.9609327561
  0
LINE
  5
25D
100
AcDbEntity
  8
0
100
AcDbLine
 62
7
  6
BYLAYER
 10
25.81223765
 20
9.9562738436
 11
26.1466520239
 21
7.2741355734
  0
LINE
  5
25E
100
AcDbEntity
  8
0
100
AcDbLine
 62
7
  6
BYLAYER
 10
24.4358596756
 20
16.4001828001
 11
24.4979254745
 21
11.3735939337
  0
LINE
  5
25F
100
AcDbEntity
  8
0
100
AcDbLine
 62
7
  6
BYLAYER
 10
25.2050322557
 20
11.3735939337
 11
25.1429664568
 21
16.4001828001
  0
LINE
  5
260
100
AcDbEntity
  8
0
100
AcDbLine
 62
7
  6
BYLAYER
 10
24.8018790238
 20
11.8319392592
 11
24.7454480544
 21
16.4041099808
  0
LINE
  5
261
100
AcDbEntity
  8
0
100
AcDbLine
 62
7
  6
BYLAYER
 10
24.957578743
 20
16.4054189208
 11
25.0139948086
 21
11.8345757085
  0
LINE
  5
262
100
AcDbEntity
  8
0
100
AcDbLine
 62
7
  6
BYLAYER
 10
24.4358596756
 20
16.4001828001
 11
24.4358481161
 21
16.8001828001
  0
LINE
  5
263
100
AcDbEntity
  8
0
100
AcDbLine
 62
7
  6
BYLAYER
 10
24.7454477395
 20
16.8001828001
 11
24.7454480544
 21
16.4041099808
  0
LINE
  5
264
100
AcDbEntity
  8
0
100
AcDbLine
 62
7
  6
BYLAYER
 10
24.8640018939
 20
58.1840198651
 11
24.8640018939
 21
68.2531971041
  0
LINE
  5
265
100
AcDbEntity
  8
0
100
AcDbLine
 62
7
  6
BYLAYER
 10
24.957578743
 20
16.4054189208
 11
24.957578743
 21
16.8001828001
  0
LINE
  5
266
100
AcDbEntity
  8
0
100
AcDbLine
 62
7
  6
BYLAYER
 10
25.1429548972
 20
16.8001828001
 11
25.1429664568
 21
16.4001828001
  0
LINE
  5
267
100
AcDbEntity
  8
0
100
AcDbLine
 62
7
  6
BYLAYER
 10
25.3140018939
 20
25.9001828001
 11
25.3140018939
 21
45.8001828001
  0
LINE
  5
268
100
AcDbEntity
  8
0
100
AcDbLine
 62
7
  6
BYLAYER
 10
20.6640021766
 20
35.1438126535
 11
22.1640018939
 21
35.143812642
  0
LINE
  5
269
100
AcDbEntity
  8
0
100
AcDbLine
 62
7
  6
BYLAYER
 10
20.6640021766
 20
35.4678108107
 11
22.1640018939
 21
35.4678108222
  0
LINE
  5
26A
100
AcDbEntity
  8
0
100
AcDbLine
 62
7
  6
BYLAYER
 10
11.8640330695
 20
35.8001828001
 11
15.1640018939
 21
35.8001828001
  0
LINE
  5
26B
100
AcDbEntity
  8
0
100
AcDbLine
 62
7
  6
BYLAYER
 10
17.4021216786
 20
36.3001828001
 11
15.6258821093
 21
36.3001828001
  0
LINE
  5
26C
100
AcDbEntity
  8
0
100
AcDbLine
 62
7
  6
BYLAYER
 10
19.8640018939
 20
36.7170601431
 11
17.8640018939
 21
36.7170601431
  0
LINE
  5
26D
100
AcDbEntity
  8
0
100
AcDbLine
 62
7
  6
BYLAYER
 10
17.8640018939
 20
36.9083432184
 11
19.8640018939
 21
36.9083432184
  0
LINE
  5
26E
100
AcDbEntity
  8
0
100
AcDbLine
 62
7
  6
BYLAYER
 10
26.5315804374
 20
17.4001828001
 11
26.5315804374
 21
16.8001828001
  0
LINE
  5
26F
100
AcDbEntity
  8
0
100
AcDbLine
 62
7
  6
BYLAYER
 10
26.8640018939
 20
53.7533541881
 11
26.8640018939
 21
72.7531958801
  0
LINE
  5
270
100
AcDbEntity
  8
0
100
AcDbLine
 62
7
  6
BYLAYER
 10
17.8640018939
 20
38.9129322597
 11
19.8640018939
 21
38.9129322597
  0
LINE
  5
271
100
AcDbEntity
  8
0
100
AcDbLine
 62
7
  6
BYLAYER
 10
17.4021216786
 20
40.3001828001
 11
15.6258821093
 21
40.3001828001
  0
LINE
  5
272
100
AcDbEntity
  8
0
100
AcDbLine
 62
7
  6
BYLAYER
 10
11.8640330695
 20
40.8001828001
 11
15.1640018939
 21
40.8001828001
  0
LINE
  5
273
100
AcDbEntity
  8
0
100
AcDbLine
 62
7
  6
BYLAYER
 10
17.4021216786
 20
42.3001828001
 11
15.6258821093
 21
42.3001828001
  0
LINE
  5
274
100
AcDbEntity
  8
0
100
AcDbLine
 62
7
  6
BYLAYER
 10
20.6640035924
 20
42.3001828001
 11
22.1640018939
 21
42.3001828001
  0
LINE
  5
275
100
AcDbEntity
  8
0
100
AcDbLine
 62
7
  6
BYLAYER
 10
17.8640018939
 20
42.3058524913
 11
19.8640018939
 21
42.3058524913
  0
LINE
  5
276
100
AcDbEntity
  8
0
100
AcDbLine
 62
7
  6
BYLAYER
 10
31.8640018939
 20
72.7531958801
 11
31.8640018939
 21
53.7533541881
  0
LINE
  5
277
100
AcDbEntity
  8
0
100
AcDbLine
 62
7
  6
BYLAYER
 10
32.3640018939
 20
67.7532361704
 11
32.3640018939
 21
58.7533138977
  0
LINE
  5
278
100
AcDbEntity
  8
0
100
AcDbLine
 62
7
  6
BYLAYER
 10
33.0640018939
 20
58.2532777937
 11
33.0640018939
 21
68.2532722745
  0
LINE
  5
279
100
AcDbEntity
  8
0
100
AcDbLine
 62
7
  6
BYLAYER
 10
22.4640050796
 20
42.9251828001
 11
23.8140018939
 21
42.9251828001
  0
LINE
  5
27A
100
AcDbEntity
  8
0
100
AcDbLine
 62
7
  6
BYLAYER
 10
20.3640018939
 20
43.3001828001
 11
19.8640018939
 21
43.3001828001
  0
LINE
  5
27B
100
AcDbEntity
  8
0
100
AcDbLine
 62
7
  6
BYLAYER
 10
38.8140018939
 20
43.3001828001
 11
45.5140018939
 21
43.3001828001
  0
LINE
  5
27C
100
AcDbEntity
  8
0
100
AcDbLine
 62
7
  6
BYLAYER
 10
34.0640018939
 20
68.2532750341
 11
34.0640018939
 21
58.2532750341
  0
LINE
  5
27D
100
AcDbEntity
  8
0
100
AcDbLine
 62
7
  6
BYLAYER
 10
34.5640018939
 20
67.7532176528
 11
34.5640018939
 21
58.7533324154
  0
LINE
  5
27E
100
AcDbEntity
  8
0
100
AcDbLine
 62
7
  6
BYLAYER
 10
23.8140018939
 20
45.8001828001
 11
45.5140018939
 21
45.8001828001
  0
LINE
  5
27F
100
AcDbEntity
  8
0
100
AcDbLine
 62
7
  6
BYLAYER
 10
37.5964233505
 20
16.8001828001
 11
37.5964233505
 21
17.4001828001
  0
LINE
  5
280
100
AcDbEntity
  8
0
100
AcDbLine
 62
7
  6
BYLAYER
 10
19.8640018939
 20
47.9252386124
 11
17.8640018939
 21
47.9252386124
  0
LINE
  5
281
100
AcDbEntity
  8
0
100
AcDbLine
 62
7
  6
BYLAYER
 10
38.8140018939
 20
43.3001828001
 11
38.8140018939
 21
45.8001828001
  0
LINE
  5
282
100
AcDbEntity
  8
0
100
AcDbLine
 62
7
  6
BYLAYER
 10
43.7023991153
 20
17.4001828001
 11
43.7106035289
 21
16.8001828001
  0
LINE
  5
283
100
AcDbEntity
  8
0
100
AcDbLine
 62
7
  6
BYLAYER
 10
41.5463638037
 20
17.4001828001
 11
41.5463638037
 21
16.8001828001
  0
LINE
  5
284
100
AcDbEntity
  8
0
100
AcDbLine
 62
7
  6
BYLAYER
 10
42.3640018939
 20
16.4001828001
 11
42.3640018939
 21
16.8001828001
  0
LINE
  5
285
100
AcDbEntity
  8
0
100
AcDbLine
 62
7
  6
BYLAYER
 10
42.8446828683
 20
16.8001828001
 11
42.8446828683
 21
17.4001828001
  0
LINE
  5
286
100
AcDbEntity
  8
0
100
AcDbLine
 62
7
  6
BYLAYER
 10
42.2762624589
 20
11.3735939337
 11
42.3640018939
 21
16.4001828001
  0
LINE
  5
287
100
AcDbEntity
  8
0
100
AcDbLine
 62
7
  6
BYLAYER
 10
26.8640018939
 20
53.7532750341
 11
31.8640018939
 21
53.7532750341
  0
LINE
  5
288
100
AcDbEntity
  8
0
100
AcDbLine
 62
7
  6
BYLAYER
 10
43.90534304
 20
17.4001828001
 11
43.90534304
 21
16.8001828001
  0
LINE
  5
289
100
AcDbEntity
  8
0
100
AcDbLine
 62
7
  6
BYLAYER
 10
44.0640018939
 20
16.8001828001
 11
44.0640018939
 21
17.4001828001
  0
LINE
  5
28A
100
AcDbEntity
  8
0
100
AcDbLine
 62
7
  6
BYLAYER
 10
44.8640975241
 20
17.4001828001
 11
44.864101185
 21
23.9001828001
  0
LINE
  5
28B
100
AcDbEntity
  8
0
100
AcDbLine
 62
7
  6
BYLAYER
 10
45.5140018939
 20
23.9001828001
 11
45.5140018939
 21
45.8001828001
  0
LINE
  5
28C
100
AcDbEntity
  8
0
100
AcDbLine
 62
7
  6
BYLAYER
 10
45.5640018939
 20
17.4001828001
 11
45.5640018939
 21
23.9001828001
  0
LINE
  5
28D
100
AcDbEntity
  8
0
100
AcDbLine
 62
7
  6
BYLAYER
 10
34.0640018939
 20
58.2532750341
 11
33.0640018939
 21
58.2532750341
  0
LINE
  5
28E
100
AcDbEntity
  8
0
100
AcDbLine
 62
7
  6
BYLAYER
 10
31.8640018939
 20
58.7532750341
 11
32.3640018939
 21
58.7532750341
  0
LINE
  5
28F
100
AcDbEntity
  8
0
100
AcDbLine
 62
7
  6
BYLAYER
 10
42.2093513132
 20
11.1323201369
 11
42.2762624589
 21
11.3735939337
  0
LINE
  5
290
100
AcDbEntity
  8
0
100
AcDbLine
 62
7
  6
BYLAYER
 10
33.0640018939
 20
60.2632750341
 11
32.3640018939
 21
60.2632750341
  0
LINE
  5
291
100
AcDbEntity
  8
0
100
AcDbLine
 62
7
  6
BYLAYER
 10
24.8640018939
 20
61.2032750341
 11
23.3640018939
 21
61.2032750341
  0
LINE
  5
292
100
AcDbEntity
  8
0
100
AcDbLine
 62
7
  6
BYLAYER
 10
24.8640018939
 20
62.9471255305
 11
26.8640018939
 21
62.9471255305
  0
LINE
  5
293
100
AcDbEntity
  8
0
100
AcDbLine
 62
7
  6
BYLAYER
 10
34.5640018939
 20
67.7532750341
 11
34.0640018939
 21
68.2532750341
  0
LINE
  5
294
100
AcDbEntity
  8
0
100
AcDbLine
 62
7
  6
BYLAYER
 10
41.6423140574
 20
10.1501828001
 11
42.2093513132
 21
11.1323201369
  0
LINE
  5
295
100
AcDbEntity
  8
0
100
AcDbLine
 62
7
  6
BYLAYER
 10
24.8640018939
 20
65.3032750341
 11
23.3640018939
 21
65.3032750341
  0
LINE
  5
296
100
AcDbEntity
  8
0
100
AcDbLine
 62
7
  6
BYLAYER
 10
33.0640018939
 20
66.2432750341
 11
32.3640018939
 21
66.2432750341
  0
LINE
  5
297
100
AcDbEntity
  8
0
100
AcDbLine
 62
7
  6
BYLAYER
 10
31.8640018939
 20
67.7532750341
 11
32.3640018939
 21
67.7532750341
  0
LINE
  5
298
100
AcDbEntity
  8
0
100
AcDbLine
 62
7
  6
BYLAYER
 10
34.0640018939
 20
68.2532750341
 11
33.0640018939
 21
68.2532750341
  0
LINE
  5
299
100
AcDbEntity
  8
0
100
AcDbLine
 62
7
  6
BYLAYER
 10
26.8640018939
 20
68.2532750341
 11
24.8640018939
 21
68.2532750341
  0
LINE
  5
29A
100
AcDbEntity
  8
0
100
AcDbLine
 62
7
  6
BYLAYER
 10
26.8640018939
 20
72.7532750341
 11
31.8640018939
 21
72.7532750341
  0
ARC
  5
29B
100
AcDbEntity
  8
0
100
AcDbCircle
 62
7
  6
BYLAYER
 10
23.126703025
 20
61.8213397152
 40
26.7909564144
100
AcDbArc
 50
264.0810999967
 51
264.7257635481
  0
ARC
  5
29C
100
AcDbEntity
  8
0
100
AcDbCircle
 62
7
  6
BYLAYER
 10
22.8792599724
 20
11.3154605803
 40
24.2537293783
100
AcDbArc
 50
95.2405163212
 51
95.952620134
  0
ARC
  5
29D
100
AcDbEntity
  8
0
100
AcDbCircle
 62
7
  6
BYLAYER
 10
27.5052058749
 20
11.9466112254
 40
2.5017962898
100
AcDbArc
 50
193.276943957
 51
199.8662010963
  0
ARC
  5
29E
100
AcDbEntity
  8
0
100
AcDbCircle
 62
7
  6
BYLAYER
 10
41.2093013556
 20
10.4001828001
 40
0.5
100
AcDbArc
 50
270.0
 51
330.0
  0
ARC
  5
29F
100
AcDbEntity
  8
0
100
AcDbCircle
 62
7
  6
BYLAYER
 10
22.9187024323
 20
10.4001828001
 40
0.5
100
AcDbArc
 50
210.0
 51
270.0
  0
SPLINE
  5
2A0
100
AcDbEntity
  8
0
100
AcDbSpline
 62
7
  6
BYLAYER
 70
0
 71
3
 72
11
 73
7
 74
0
 42
0.0000001
 43
0.0000001
 44
0.0000000001
 40
0.0
 40
0.0
 40
0.0
 40
0.0
 40
0.2500114931
 40
0.5000143325
 40
0.7500086862
 40
1.0
 40
1.0
 40
1.0
 40
1.0
 10
17.4021216786
 20
40.3001828001
 30
0.0
 10
17.4490470734
 20
40.137628464
 30
0.0
 10
17.5350193447
 20
39.810159183
 30
0.0
 10
17.6341433693
 20
39.3119982274
 30
0.0
 10
17.697088975
 20
38.8078850802
 30
0.0
 10
17.7115227553
 20
38.4693610614
 30
0.0
 10
17.7115227553
 20
38.3001828001
 30
0.0
  0
SPLINE
  5
2A1
100
AcDbEntity
  8
0
100
AcDbSpline
 62
7
  6
BYLAYER
 70
0
 71
3
 72
19
 73
15
 74
0
 42
0.0000001
 43
0.0000001
 44
0.0000000001
 40
0.0
 40
0.0
 40
0.0
 40
0.0
 40
0.1307723242
 40
0.2571511129
 40
0.3188552547
 40
0.3797385161
 40
0.4400271435
 40
0.5000014946
 40
0.5599759075
 40
0.6202640939
 40
0.6811471796
 40
0.7428509133
 40
0.8692287029
 40
1.0
 40
1.0
 40
1.0
 40
1.0
 10
17.4021216786
 20
42.3001828001
 30
0.0
 10
17.4482741398
 20
42.2202443924
 30
0.0
 10
17.5330353325
 20
42.0594473457
 30
0.0
 10
17.6168793386
 20
41.8499472151
 30
0.0
 10
17.6654232998
 20
41.6809116031
 30
0.0
 10
17.691812295
 20
41.5544239694
 30
0.0
 10
17.7079153087
 20
41.4274368061
 30
0.0
 10
17.7133081658
 20
41.3001795341
 30
0.0
 10
17.7079167996
 20
41.1729223388
 30
0.0
 10
17.6918100264
 20
41.0459361184
 30
0.0
 10
17.6654245023
 20
40.9194485261
 30
0.0
 10
17.6168768234
 20
40.7504150295
 30
0.0
 10
17.533034477
 20
40.540916383
 30
0.0
 10
17.4482737773
 20
40.38012058
 30
0.0
 10
17.4021216786
 20
40.3001828001
 30
0.0
  0
SPLINE
  5
2A2
100
AcDbEntity
  8
0
100
AcDbSpline
 62
7
  6
BYLAYER
 70
0
 71
3
 72
11
 73
7
 74
0
 42
0.0000001
 43
0.0000001
 44
0.0000000001
 40
0.0
 40
0.0
 40
0.0
 40
0.0
 40
0.2499913686
 40
0.4999857266
 40
0.7499885435
 40
1.0
 40
1.0
 40
1.0
 40
1.0
 10
15.3164810325
 20
38.3001828001
 30
0.0
 10
15.3164810325
 20
38.4693610984
 30
0.0
 10
15.3309148119
 20
38.8078851576
 30
0.0
 10
15.393860443
 20
39.3119983266
 30
0.0
 10
15.4929844691
 20
39.8101592433
 30
0.0
 10
15.5789567213
 20
40.1376284879
 30
0.0
 10
15.6258821093
 20
40.3001828001
 30
0.0
  0
SPLINE
  5
2A3
100
AcDbEntity
  8
0
100
AcDbSpline
 62
7
  6
BYLAYER
 70
0
 71
3
 72
11
 73
7
 74
0
 42
0.0000001
 43
0.0000001
 44
0.0000000001
 40
0.0
 40
0.0
 40
0.0
 40
0.0
 40
0.250011602
 40
0.5000143442
 40
0.7500087087
 40
1.0
 40
1.0
 40
1.0
 40
1.0
 10
15.6258821093
 20
36.3001828001
 30
0.0
 10
15.5789566934
 20
36.4627372092
 30
0.0
 10
15.4929835481
 20
36.7902062796
 30
0.0
 10
15.3938603652
 20
37.2883674576
 30
0.0
 10
15.3309151381
 20
37.7924805494
 30
0.0
 10
15.3164810325
 20
38.1310045519
 30
0.0
 10
15.3164810325
 20
38.3001828001
 30
0.0
  0
SPLINE
  5
2A4
100
AcDbEntity
  8
0
100
AcDbSpline
 62
7
  6
BYLAYER
 70
0
 71
3
 72
19
 73
15
 74
0
 42
0.0000001
 43
0.0000001
 44
0.0000000001
 40
0.0
 40
0.0
 40
0.0
 40
0.0
 40
0.1307723242
 40
0.2571511129
 40
0.3188552547
 40
0.3797385161
 40
0.4400271435
 40
0.5000014946
 40
0.5599759075
 40
0.6202640939
 40
0.6811471796
 40
0.7428509133
 40
0.8692287029
 40
1.0
 40
1.0
 40
1.0
 40
1.0
 10
17.4021216786
 20
36.3001828001
 30
0.0
 10
17.4482741398
 20
36.2202443924
 30
0.0
 10
17.5330353325
 20
36.0594473457
 30
0.0
 10
17.6168793386
 20
35.8499472151
 30
0.0
 10
17.6654232998
 20
35.6809116031
 30
0.0
 10
17.691812295
 20
35.5544239694
 30
0.0
 10
17.7079153087
 20
35.4274368061
 30
0.0
 10
17.7133081658
 20
35.3001795341
 30
0.0
 10
17.7079167996
 20
35.1729223388
 30
0.0
 10
17.6918100264
 20
35.0459361184
 30
0.0
 10
17.6654245023
 20
34.9194485261
 30
0.0
 10
17.6168768234
 20
34.7504150295
 30
0.0
 10
17.533034477
 20
34.540916383
 30
0.0
 10
17.4482737773
 20
34.38012058
 30
0.0
 10
17.4021216786
 20
34.3001828001
 30
0.0
  0
SPLINE
  5
2A5
100
AcDbEntity
  8
0
100
AcDbSpline
 62
7
  6
BYLAYER
 70
0
 71
3
 72
11
 73
7
 74
0
 42
0.0000001
 43
0.0000001
 44
0.0000000001
 40
0.0
 40
0.0
 40
0.0
 40
0.0
 40
0.2499913545
 40
0.4999857241
 40
0.7499884402
 40
1.0
 40
1.0
 40
1.0
 40
1.0
 10
17.7115227553
 20
38.3001828001
 30
0.0
 10
17.7115227553
 20
38.1310045092
 30
0.0
 10
17.6970886501
 20
37.7924804602
 30
0.0
 10
17.6341434026
 20
37.2883673417
 30
0.0
 10
17.5350202068
 20
36.7902062107
 30
0.0
 10
17.4490470866
 20
36.4627371817
 30
0.0
 10
17.4021216786
 20
36.3001828001
 30
0.0
  0
SPLINE
  5
2A6
100
AcDbEntity
  8
0
100
AcDbSpline
 62
7
  6
BYLAYER
 70
0
 71
3
 72
19
 73
15
 74
0
 42
0.0000001
 43
0.0000001
 44
0.0000000001
 40
0.0
 40
0.0
 40
0.0
 40
0.0
 40
0.1307723045
 40
0.2571511151
 40
0.3188552458
 40
0.3797385092
 40
0.4400271422
 40
0.5000014919
 40
0.5599759069
 40
0.6202640901
 40
0.681147172
 40
0.7428509158
 40
0.869228687
 40
1.0
 40
1.0
 40
1.0
 40
1.0
 10
15.6258821093
 20
34.3001828001
 30
0.0
 10
15.579729655
 20
34.3801211958
 30
0.0
 10
15.4949686746
 20
34.5409183432
 30
0.0
 10
15.4111243356
 20
34.7504183362
 30
0.0
 10
15.3625805322
 20
34.9194540092
 30
0.0
 10
15.3361915354
 20
35.0459416327
 30
0.0
 10
15.3200883679
 20
35.1729287834
 30
0.0
 10
15.3146956111
 20
35.300186071
 30
0.0
 10
15.3200871118
 20
35.4274432532
 30
0.0
 10
15.3361937419
 20
35.5544294835
 30
0.0
 10
15.3625792028
 20
35.680917099
 30
0.0
 10
15.4111270774
 20
35.8499505266
 30
0.0
 10
15.4949691163
 20
36.059449296
 30
0.0
 10
15.5797300049
 20
36.2202450105
 30
0.0
 10
15.6258821093
 20
36.3001828001
 30
0.0
  0
SPLINE
  5
2A7
100
AcDbEntity
  8
0
100
AcDbSpline
 62
7
  6
BYLAYER
 70
0
 71
3
 72
19
 73
15
 74
0
 42
0.0000001
 43
0.0000001
 44
0.0000000001
 40
0.0
 40
0.0
 40
0.0
 40
0.0
 40
0.1307723045
 40
0.2571511151
 40
0.3188552458
 40
0.3797385092
 40
0.4400271422
 40
0.5000014919
 40
0.5599759069
 40
0.6202640901
 40
0.681147172
 40
0.7428509158
 40
0.869228687
 40
1.0
 40
1.0
 40
1.0
 40
1.0
 10
15.6258821093
 20
40.3001828001
 30
0.0
 10
15.579729655
 20
40.3801211958
 30
0.0
 10
15.4949686746
 20
40.5409183432
 30
0.0
 10
15.4111243356
 20
40.7504183362
 30
0.0
 10
15.3625805322
 20
40.9194540092
 30
0.0
 10
15.3361915354
 20
41.0459416327
 30
0.0
 10
15.3200883679
 20
41.1729287834
 30
0.0
 10
15.3146956111
 20
41.300186071
 30
0.0
 10
15.3200871118
 20
41.4274432532
 30
0.0
 10
15.3361937419
 20
41.5544294835
 30
0.0
 10
15.3625792028
 20
41.680917099
 30
0.0
 10
15.4111270774
 20
41.8499505266
 30
0.0
 10
15.4949691163
 20
42.059449296
 30
0.0
 10
15.5797300049
 20
42.2202450105
 30
0.0
 10
15.6258821093
 20
42.3001828001
 30
0.0
  0
LINE
  5
2A8
100
AcDbEntity
  8
0
100
AcDbLine
 62
7
  6
BYLAYER
 10
25.2524274127
 20
11.1323201369
 11
25.6539108789
 21
10.1501563328
  0
SPLINE
  5
2A9
100
AcDbEntity
  8
0
100
AcDbSpline
 62
7
  6
BYLAYER
 70
0
 71
3
 72
9
 73
5
 74
0
 42
0.0000001
 43
0.0000001
 44
0.0000000001
 40
0.0
 40
0.0
 40
0.0
 40
0.0
 40
0.2558910568
 40
1.0
 40
1.0
 40
1.0
 40
1.0
 10
25.2050322557
 20
11.3735939337
 30
0.0
 10
25.2052922403
 20
11.3525551054
 30
0.0
 10
25.2100120777
 20
11.2704547766
 30
0.0
 10
25.2292780174
 20
11.1889554376
 30
0.0
 10
25.2524274127
 20
11.1323201369
 30
0.0
  0
SPLINE
  5
2AA
100
AcDbEntity
  8
0
100
AcDbSpline
 62
7
  6
BYLAYER
 70
0
 71
3
 72
11
 73
7
 74
0
 42
0.0000001
 43
0.0000001
 44
0.0000000001
 40
0.0
 40
0.0
 40
0.0
 40
0.0
 40
0.2228335164
 40
0.4593895915
 40
0.7180143167
 40
1.0
 40
1.0
 40
1.0
 40
1.0
 10
25.9605307767
 20
9.9001828001
 30
0.0
 10
25.9294757661
 20
9.9001828001
 30
0.0
 10
25.8649258109
 20
9.9125413179
 30
0.0
 10
25.7778324912
 20
9.9651792889
 30
0.0
 10
25.704527246
 20
10.0466194947
 30
0.0
 10
25.6687817699
 20
10.1137799018
 30
0.0
 10
25.6539108789
 20
10.1501563328
 30
0.0
  0
SPLINE
  5
2AB
100
AcDbEntity
  8
0
100
AcDbSpline
 62
7
  6
BYLAYER
 70
0
 71
3
 72
13
 73
9
 74
0
 42
0.0000001
 43
0.0000001
 44
0.0000000001
 40
0.0
 40
0.0
 40
0.0
 40
0.0
 40
0.1054118569
 40
0.2140043244
 40
0.3280365242
 40
0.4491343625
 40
0.7127298658
 40
1.0
 40
1.0
 40
1.0
 40
1.0
 10
26.714836706
 20
6.5501828001
 30
0.0
 10
26.6942102446
 20
6.5501828001
 30
0.0
 10
26.6521672173
 20
6.5554257657
 30
0.0
 10
26.5916856632
 20
6.5785241158
 30
0.0
 10
26.5353009588
 20
6.6161178433
 30
0.0
 10
26.4659295409
 20
6.6855030662
 30
0.0
 10
26.3993822768
 20
6.8015851976
 30
0.0
 10
26.3729356104
 20
6.9074351844
 30
0.0
 10
26.3659692111
 20
6.9632134084
 30
0.0
  0
LINE
  5
2AC
100
AcDbEntity
  8
0
100
AcDbLine
 62
7
  6
BYLAYER
 10
24.9678129177
 20
9.9001828001
 11
25.3363541591
 21
6.9633587113
  0
LINE
  5
2AD
100
AcDbEntity
  8
0
100
AcDbLine
 62
7
  6
BYLAYER
 10
25.9991932431
 20
9.9001828001
 11
26.3659692111
 21
6.9632134084
  0
LINE
  5
2AE
100
AcDbEntity
  8
0
100
AcDbLine
 62
7
  6
BYLAYER
 10
38.7916496288
 20
6.9633587113
 11
39.1601908701
 21
9.9001828001
  0
SPLINE
  5
2AF
100
AcDbEntity
  8
0
100
AcDbSpline
 62
7
  6
BYLAYER
 70
0
 71
3
 72
14
 73
10
 74
0
 42
0.0000001
 43
0.0000001
 44
0.0000000001
 40
0.0
 40
0.0
 40
0.0
 40
0.0
 40
0.2871331607
 40
0.4227873895
 40
0.5512557803
 40
0.6721635692
 40
0.7860495033
 40
0.894606815
 40
1.0
 40
1.0
 40
1.0
 40
1.0
 10
38.7916496288
 20
6.9633587113
 30
0.0
 10
38.7846283183
 20
6.9074293976
 30
0.0
 10
38.7640304881
 20
6.8256813169
 30
0.0
 10
38.7159124593
 20
6.7284067735
 30
0.0
 10
38.6720669762
 20
6.6663979831
 30
0.0
 10
38.6211377606
 20
6.6159035897
 30
0.0
 10
38.5644468456
 20
6.5785206024
 30
0.0
 10
38.5037799775
 20
6.5554791608
 30
0.0
 10
38.46161698
 20
6.5501828001
 30
0.0
 10
38.4409268018
 20
6.5501828001
 30
0.0
  0
SPLINE
  5
2B0
100
AcDbEntity
  8
0
100
AcDbSpline
 62
7
  6
BYLAYER
 70
0
 71
3
 72
14
 73
10
 74
0
 42
0.0000001
 43
0.0000001
 44
0.0000000001
 40
0.0
 40
0.0
 40
0.0
 40
0.0
 40
0.1053939692
 40
0.213953768
 40
0.327840958
 40
0.4487511702
 40
0.5772236863
 40
0.7128750645
 40
1.0
 40
1.0
 40
1.0
 40
1.0
 10
25.687077047
 20
6.5501828001
 30
0.0
 10
25.6663866991
 20
6.5501828001
 30
0.0
 10
25.6242231539
 20
6.555480272
 30
0.0
 10
25.5635552558
 20
6.5785208325
 30
0.0
 10
25.5068616003
 20
6.6159025226
 30
0.0
 10
25.4559348145
 20
6.6664020999
 30
0.0
 10
25.4120916745
 20
6.7284128647
 30
0.0
 10
25.3639676501
 20
6.8256831118
 30
0.0
 10
25.3433752738
 20
6.9074309572
 30
0.0
 10
25.3363541591
 20
6.9633587113
 30
0.0
  0
SPLINE
  5
2B1
100
AcDbEntity
  8
0
100
AcDbSpline
 62
7
  6
BYLAYER
 70
0
 71
3
 72
13
 73
9
 74
0
 42
0.0000001
 43
0.0000001
 44
0.0000000001
 40
0.0
 40
0.0
 40
0.0
 40
0.0
 40
0.1052891882
 40
0.2139644212
 40
0.3280686666
 40
0.449111373
 40
0.7127644607
 40
1.0
 40
1.0
 40
1.0
 40
1.0
 10
26.1450314519
 20
7.0001851067
 30
0.0
 10
26.1326766957
 20
7.0001851067
 30
0.0
 10
26.1074751027
 20
7.0033946422
 30
0.0
 10
26.0712189607
 20
7.017282416
 30
0.0
 10
26.0374356548
 20
7.039893493
 30
0.0
 10
25.9958662279
 20
7.081541224
 30
0.0
 10
25.9560546131
 20
7.1512137247
 30
0.0
 10
25.9402950589
 20
7.2147071689
 30
0.0
 10
25.9361249957
 20
7.248152759
 30
0.0
  0
SPLINE
  5
2B2
100
AcDbEntity
  8
0
100
AcDbSpline
 62
7
  6
BYLAYER
 70
0
 71
3
 72
13
 73
9
 74
0
 42
0.0000001
 43
0.0000001
 44
0.0000000001
 40
0.0
 40
0.0
 40
0.0
 40
0.0
 40
0.2872739411
 40
0.5508718849
 40
0.6719688336
 40
0.7859989618
 40
0.8945885838
 40
1.0
 40
1.0
 40
1.0
 40
1.0
 10
25.6588571728
 20
6.9632555015
 30
0.0
 10
25.6658245523
 20
6.9074694304
 30
0.0
 10
25.6922639851
 20
6.8016026943
 30
0.0
 10
25.7588172404
 20
6.6855014369
 30
0.0
 10
25.8281987841
 20
6.616108641
 30
0.0
 10
25.8845922271
 20
6.5785139285
 30
0.0
 10
25.9450840047
 20
6.5554212724
 30
0.0
 10
25.9871318426
 20
6.5501828001
 30
0.0
 10
26.0077608463
 20
6.5501828001
 30
0.0
  0
SPLINE
  5
2B3
100
AcDbEntity
  8
0
100
AcDbSpline
 62
7
  6
BYLAYER
 70
0
 71
3
 72
11
 73
7
 74
0
 42
0.0000001
 43
0.0000001
 44
0.0000000001
 40
0.0
 40
0.0
 40
0.0
 40
0.0
 40
0.2819863996
 40
0.5406109777
 40
0.7771664515
 40
1.0
 40
1.0
 40
1.0
 40
1.0
 10
24.9468040673
 20
10.1501564078
 30
0.0
 10
24.9616754086
 20
10.1137788751
 30
0.0
 10
24.9974221428
 20
10.0466165305
 30
0.0
 10
25.0707304435
 20
9.9651751416
 30
0.0
 10
25.1578275254
 20
9.9125368981
 30
0.0
 10
25.2223798247
 20
9.9001828001
 30
0.0
 10
25.2534357014
 20
9.9001828001
 30
0.0
  0
LINE
  5
2B4
100
AcDbEntity
  8
0
100
AcDbLine
 62
7
  6
BYLAYER
 10
35.5207266195
 20
6.9633587113
 11
35.8395665967
 21
9.487006889
  0
LINE
  5
2B5
100
AcDbEntity
  8
0
100
AcDbLine
 62
7
  6
BYLAYER
 10
28.2884371912
 20
9.487006889
 11
28.6072771684
 21
6.9633587113
  0
SPLINE
  5
2B6
100
AcDbEntity
  8
0
100
AcDbSpline
 62
7
  6
BYLAYER
 70
0
 71
3
 72
13
 73
9
 74
0
 42
0.0000001
 43
0.0000001
 44
0.0000000001
 40
0.0
 40
0.0
 40
0.0
 40
0.0
 40
0.2870578319
 40
0.5535851312
 40
0.6754532606
 40
0.7893508235
 40
0.8967447968
 40
1.0
 40
1.0
 40
1.0
 40
1.0
 10
26.1450406427
 20
7.0001828001
 30
0.0
 10
26.1450406427
 20
7.0195053297
 30
0.0
 10
26.1500734588
 20
7.0569565698
 30
0.0
 10
26.1691665404
 20
7.0992031432
 30
0.0
 10
26.1911947331
 20
7.1251210212
 30
0.0
 10
26.2096649796
 20
7.1393348816
 30
0.0
 10
26.229912229
 20
7.1481299889
 30
0.0
 10
26.2441563123
 20
7.1501828001
 30
0.0
 10
26.2511066599
 20
7.1501828001
 30
0.0
  0
SPLINE
  5
2B7
100
AcDbEntity
  8
0
100
AcDbSpline
 62
7
  6
BYLAYER
 70
0
 71
3
 72
11
 73
7
 74
0
 42
0.0000001
 43
0.0000001
 44
0.0000000001
 40
0.0
 40
0.0
 40
0.0
 40
0.0
 40
0.2286317406
 40
0.4984452907
 40
0.7690687819
 40
1.0
 40
1.0
 40
1.0
 40
1.0
 10
26.1466520239
 20
7.2741355734
 30
0.0
 10
26.1304582505
 20
7.2741355734
 30
0.0
 10
26.0951613231
 20
7.2723809909
 30
0.0
 10
26.0409469075
 20
7.2669375986
 30
0.0
 10
25.9868794236
 20
7.2589765726
 30
0.0
 10
25.9520020175
 20
7.2520459148
 30
0.0
 10
25.9361313706
 20
7.2480883467
 30
0.0
  0
SPLINE
  5
2B8
100
AcDbEntity
  8
0
100
AcDbSpline
 62
7
  6
BYLAYER
 70
0
 71
3
 72
11
 73
7
 74
0
 42
0.0000001
 43
0.0000001
 44
0.0000000001
 40
0.0
 40
0.0
 40
0.0
 40
0.0
 40
0.2130075905
 40
0.4476459831
 40
0.7120137246
 40
1.0
 40
1.0
 40
1.0
 40
1.0
 10
26.2511066599
 20
7.1501828001
 30
0.0
 10
26.2386441291
 20
7.1501828001
 30
0.0
 10
26.2121561736
 20
7.15718046
 30
0.0
 10
26.1798165734
 20
7.1850759744
 30
0.0
 10
26.1566389738
 20
7.2256450377
 30
0.0
 10
26.1487366924
 20
7.2574156902
 30
0.0
 10
26.1466520239
 20
7.2741355735
 30
0.0
  0
SPLINE
  5
2B9
100
AcDbEntity
  8
0
100
AcDbSpline
 62
7
  6
BYLAYER
 70
0
 71
3
 72
11
 73
7
 74
0
 42
0.0000001
 43
0.0000001
 44
0.0000000001
 40
0.0
 40
0.0
 40
0.0
 40
0.0
 40
0.2205747256
 40
0.4788208684
 40
0.7476540544
 40
1.0
 40
1.0
 40
1.0
 40
1.0
 10
25.5978851391
 20
9.9609596623
 30
0.0
 10
25.6107581279
 20
9.9641697224
 30
0.0
 10
25.6389814749
 20
9.9700098503
 30
0.0
 10
25.6833938814
 20
9.9771293955
 30
0.0
 10
25.7299500288
 20
9.9827342305
 30
0.0
 10
25.7612093281
 20
9.9852559221
 30
0.0
 10
25.7763660421
 20
9.9860627611
 30
0.0
  0
SPLINE
  5
2BA
100
AcDbEntity
  8
0
100
AcDbSpline
 62
7
  6
BYLAYER
 70
0
 71
3
 72
10
 73
6
 74
0
 42
0.0000001
 43
0.0000001
 44
0.0000000001
 40
0.0
 40
0.0
 40
0.0
 40
0.0
 40
0.2472549501
 40
0.5048535395
 40
1.0
 40
1.0
 40
1.0
 40
1.0
 10
25.4872918034
 20
10.1952266724
 30
0.0
 10
25.492579388
 20
10.2069446382
 30
0.0
 10
25.5057111683
 20
10.2298776167
 30
0.0
 10
25.5385082184
 20
10.2703226314
 30
0.0
 10
25.5701840843
 20
10.2950262249
 30
0.0
 10
25.5932224392
 20
10.3065159741
 30
0.0
  0
SPLINE
  5
2BB
100
AcDbEntity
  8
0
100
AcDbSpline
 62
7
  6
BYLAYER
 70
0
 71
3
 72
9
 73
5
 74
0
 42
0.0000001
 43
0.0000001
 44
0.0000000001
 40
0.0
 40
0.0
 40
0.0
 40
0.0
 40
0.4842605203
 40
1.0
 40
1.0
 40
1.0
 40
1.0
 10
25.5193342803
 20
10.455516089
 30
0.0
 10
25.4407454902
 20
10.5458377858
 30
0.0
 10
25.2983777156
 20
10.7502040812
 30
0.0
 10
25.1956746943
 20
10.9765366805
 30
0.0
 10
25.1522945995
 20
11.096438769
 30
0.0
  0
SPLINE
  5
2BC
100
AcDbEntity
  8
0
100
AcDbSpline
 62
7
  6
BYLAYER
 70
0
 71
3
 72
11
 73
7
 74
0
 42
0.0000001
 43
0.0000001
 44
0.0000000001
 40
0.0
 40
0.0
 40
0.0
 40
0.0
 40
0.2344721421
 40
0.5051584442
 40
0.7731432515
 40
1.0
 40
1.0
 40
1.0
 40
1.0
 10
24.8636451626
 20
11.3243845101
 30
0.0
 10
24.8787072764
 20
11.3315239329
 30
0.0
 10
24.9124180682
 20
11.3442107574
 30
0.0
 10
24.9654554021
 20
11.3588351237
 30
0.0
 10
25.0189980235
 20
11.3688428197
 30
0.0
 10
25.0541520622
 20
11.3720534238
 30
0.0
 10
25.0702791802
 20
11.3720534238
 30
0.0
  0
SPLINE
  5
2BD
100
AcDbEntity
  8
0
100
AcDbSpline
 62
7
  6
BYLAYER
 70
0
 71
3
 72
9
 73
5
 74
0
 42
0.0000001
 43
0.0000001
 44
0.0000000001
 40
0.0
 40
0.0
 40
0.0
 40
0.0
 40
0.4999842299
 40
1.0
 40
1.0
 40
1.0
 40
1.0
 10
25.0139948086
 20
11.8345757085
 30
0.0
 10
24.9786401228
 20
11.8345757085
 30
0.0
 10
24.9079299856
 20
11.8339148133
 30
0.0
 10
24.837225077
 20
11.8328303739
 30
0.0
 10
24.8018789286
 20
11.8319578476
 30
0.0
  0
SPLINE
  5
2BE
100
AcDbEntity
  8
0
100
AcDbSpline
 62
7
  6
BYLAYER
 70
0
 71
3
 72
9
 73
5
 74
0
 42
0.0000001
 43
0.0000001
 44
0.0000000001
 40
0.0
 40
0.0
 40
0.0
 40
0.0
 40
0.2473973782
 40
1.0
 40
1.0
 40
1.0
 40
1.0
 10
25.0702791802
 20
11.3720534238
 30
0.0
 10
25.0614081829
 20
11.4094840423
 30
0.0
 10
25.0298862816
 20
11.5617828346
 30
0.0
 10
25.0154390426
 20
11.7175635169
 30
0.0
 10
25.0139948086
 20
11.8345757085
 30
0.0
  0
SPLINE
  5
2BF
100
AcDbEntity
  8
0
100
AcDbSpline
 62
7
  6
BYLAYER
 70
0
 71
3
 72
9
 73
5
 74
0
 42
0.0000001
 43
0.0000001
 44
0.0000000001
 40
0.0
 40
0.0
 40
0.0
 40
0.0
 40
0.2432898652
 40
1.0
 40
1.0
 40
1.0
 40
1.0
 10
24.5453206315
 20
11.1323201369
 30
0.0
 10
24.5377509651
 20
11.1508394254
 30
0.0
 10
24.5105947575
 20
11.2285431428
 30
0.0
 10
24.4986943778
 20
11.3113717018
 30
0.0
 10
24.4979254745
 20
11.3735939337
 30
0.0
  0
LINE
  5
2C0
100
AcDbEntity
  8
0
100
AcDbLine
 62
7
  6
BYLAYER
 10
26.7505677214
 20
6.9633587113
 11
26.3820264801
 21
9.9001828001
  0
SPLINE
  5
2C1
100
AcDbEntity
  8
0
100
AcDbSpline
 62
7
  6
BYLAYER
 70
0
 71
3
 72
14
 73
10
 74
0
 42
0.0000001
 43
0.0000001
 44
0.0000000001
 40
0.0
 40
0.0
 40
0.0
 40
0.0
 40
0.2871808538
 40
0.4227979885
 40
0.5512126299
 40
0.6720774779
 40
0.7859572736
 40
0.8945499926
 40
1.0
 40
1.0
 40
1.0
 40
1.0
 10
28.2884371912
 20
9.487006889
 30
0.0
 10
28.2813651314
 20
9.5430348841
 30
0.0
 10
28.2606017425
 20
9.6249061064
 30
0.0
 10
28.2121532277
 20
9.7222125805
 30
0.0
 10
28.168072882
 20
9.7841798682
 30
0.0
 10
28.1169302795
 20
9.8346000618
 30
0.0
 10
28.0600580136
 20
9.8719047421
 30
0.0
 10
27.9992419906
 20
9.8948948733
 30
0.0
 10
27.9569914798
 20
9.9001828001
 30
0.0
 10
27.9362553061
 20
9.9001828001
 30
0.0
  0
SPLINE
  5
2C2
100
AcDbEntity
  8
0
100
AcDbSpline
 62
7
  6
BYLAYER
 70
0
 71
3
 72
14
 73
10
 74
0
 42
0.0000001
 43
0.0000001
 44
0.0000000001
 40
0.0
 40
0.0
 40
0.0
 40
0.0
 40
0.1055027419
 40
0.2141070505
 40
0.3279492414
 40
0.4487583093
 40
0.5771338554
 40
0.7127377582
 40
1.0
 40
1.0
 40
1.0
 40
1.0
 10
28.9609086516
 20
6.5501828001
 30
0.0
 10
28.9401216231
 20
6.5501828001
 30
0.0
 10
28.897777828
 20
6.5554276377
 30
0.0
 10
28.8367753069
 20
6.5782828617
 30
0.0
 10
28.779673621
 20
6.6154492964
 30
0.0
 10
28.7282917479
 20
6.6657925699
 30
0.0
 10
28.6839799918
 20
6.7277535614
 30
0.0
 10
28.6352428799
 20
6.8251633745
 30
0.0
 10
28.6143784901
 20
6.9072071736
 30
0.0
 10
28.6072771684
 20
6.9633587113
 30
0.0
  0
SPLINE
  5
2C3
100
AcDbEntity
  8
0
100
AcDbSpline
 62
7
  6
BYLAYER
 70
0
 71
3
 72
14
 73
10
 74
0
 42
0.0000001
 43
0.0000001
 44
0.0000000001
 40
0.0
 40
0.0
 40
0.0
 40
0.0
 40
0.2871331607
 40
0.4227873895
 40
0.5512557803
 40
0.6721635692
 40
0.7860495033
 40
0.894606815
 40
1.0
 40
1.0
 40
1.0
 40
1.0
 10
26.7505677214
 20
6.9633587113
 30
0.0
 10
26.757589032
 20
6.9074293976
 30
0.0
 10
26.7781868621
 20
6.825681317
 30
0.0
 10
26.8263048909
 20
6.7284067736
 30
0.0
 10
26.870150374
 20
6.6663979832
 30
0.0
 10
26.9210795896
 20
6.6159035897
 30
0.0
 10
26.9777705045
 20
6.5785206025
 30
0.0
 10
27.0384373727
 20
6.5554791608
 30
0.0
 10
27.0806003702
 20
6.5501828001
 30
0.0
 10
27.1012905483
 20
6.5501828001
 30
0.0
  0
SPLINE
  5
2C4
100
AcDbEntity
  8
0
100
AcDbSpline
 62
7
  6
BYLAYER
 70
0
 71
3
 72
14
 73
10
 74
0
 42
0.0000001
 43
0.0000001
 44
0.0000000001
 40
0.0
 40
0.0
 40
0.0
 40
0.0
 40
0.1053939692
 40
0.213953768
 40
0.327840958
 40
0.4487511701
 40
0.5772236862
 40
0.7128750644
 40
1.0
 40
1.0
 40
1.0
 40
1.0
 10
37.0267131776
 20
6.5501828001
 30
0.0
 10
37.0474035255
 20
6.5501828001
 30
0.0
 10
37.0895670708
 20
6.5554802718
 30
0.0
 10
37.1502349691
 20
6.5785208321
 30
0.0
 10
37.2069286248
 20
6.6159025222
 30
0.0
 10
37.2578554107
 20
6.6664020995
 30
0.0
 10
37.3016985508
 20
6.7284128644
 30
0.0
 10
37.3498225754
 20
6.8256831116
 30
0.0
 10
37.3704149517
 20
6.9074309571
 30
0.0
 10
37.3774360664
 20
6.9633587113
 30
0.0
  0
SPLINE
  5
2C5
100
AcDbEntity
  8
0
100
AcDbSpline
 62
7
  6
BYLAYER
 70
0
 71
3
 72
14
 73
10
 74
0
 42
0.0000001
 43
0.0000001
 44
0.0000000001
 40
0.0
 40
0.0
 40
0.0
 40
0.0
 40
0.2872723236
 40
0.4228791205
 40
0.551249221
 40
0.6720537479
 40
0.7858939302
 40
0.8944975791
 40
1.0
 40
1.0
 40
1.0
 40
1.0
 10
35.5207266195
 20
6.9633587113
 30
0.0
 10
35.5136251297
 20
6.907205844
 30
0.0
 10
35.4927530692
 20
6.8251631208
 30
0.0
 10
35.4440250952
 20
6.7277487454
 30
0.0
 10
35.3997129771
 20
6.6657900511
 30
0.0
 10
35.3483295657
 20
6.6154531838
 30
0.0
 10
35.2912305665
 20
6.5782873781
 30
0.0
 10
35.2302305898
 20
6.5554294219
 30
0.0
 10
35.1878875056
 20
6.5501828001
 30
0.0
 10
35.1671007778
 20
6.5501828001
 30
0.0
  0
SPLINE
  5
2C6
100
AcDbEntity
  8
0
100
AcDbSpline
 62
7
  6
BYLAYER
 70
0
 71
3
 72
14
 73
10
 74
0
 42
0.0000001
 43
0.0000001
 44
0.0000000001
 40
0.0
 40
0.0
 40
0.0
 40
0.0
 40
0.1054495216
 40
0.2140448478
 40
0.327925531
 40
0.4487936825
 40
0.5772139571
 40
0.7128288711
 40
1.0
 40
1.0
 40
1.0
 40
1.0
 10
36.1917269818
 20
9.9001828001
 30
0.0
 10
36.1709916376
 20
9.9001828001
 30
0.0
 10
36.1287424584
 20
9.8948893025
 30
0.0
 10
36.0679307536
 20
9.8718948291
 30
0.0
 10
36.0110579468
 20
9.8345926897
 30
0.0
 10
35.959920873
 20
9.784167038
 30
0.0
 10
35.9158459319
 20
9.7221983562
 30
0.0
 10
35.8673943615
 20
9.6248990015
 30
0.0
 10
35.8466381666
 20
9.5430310033
 30
0.0
 10
35.8395665967
 20
9.487006889
 30
0.0
  0
LINE
  5
2C7
100
AcDbEntity
  8
0
100
AcDbLine
 62
7
  6
BYLAYER
 10
25.6588571728
 20
6.9632555015
 11
25.2920864619
 21
9.9001828001
  0
LINE
  5
2C8
100
AcDbEntity
  8
0
100
AcDbLine
 62
7
  6
BYLAYER
 10
37.7459773078
 20
9.9001828001
 11
37.3774360664
 21
6.9633587113
  0
LINE
  5
2C9
100
AcDbEntity
  8
0
100
AcDbLine
 62
7
  6
BYLAYER
 10
24.9468040673
 20
10.1501564078
 11
24.5453206315
 21
11.1323201369
  0
SPLINE
  5
2CA
100
AcDbEntity
  8
0
100
AcDbSpline
 62
7
  6
BYLAYER
 70
0
 71
3
 72
10
 73
6
 74
0
 42
0.0000001
 43
0.0000001
 44
0.0000000001
 40
0.0
 40
0.0
 40
0.0
 40
0.0
 40
0.2294021169
 40
0.4999977723
 40
1.0
 40
1.0
 40
1.0
 40
1.0
 10
24.7454467087
 20
16.4041099901
 30
0.0
 10
24.7616653663
 20
16.4037855706
 30
0.0
 10
24.7970274753
 20
16.4036290953
 30
0.0
 10
24.8677282114
 20
16.4050498298
 30
0.0
 10
24.9222216713
 20
16.4054164894
 30
0.0
 10
24.957578743
 20
16.4054189208
 30
0.0
  0
SPLINE
  5
2CB
100
AcDbEntity
  8
0
100
AcDbSpline
 62
7
  6
BYLAYER
 70
0
 71
3
 72
9
 73
5
 74
0
 42
0.0000001
 43
0.0000001
 44
0.0000000001
 40
0.0
 40
0.0
 40
0.0
 40
0.0
 40
0.2473974604
 40
1.0
 40
1.0
 40
1.0
 40
1.0
 10
24.8636421655
 20
11.3243983156
 30
0.0
 10
24.8539077245
 20
11.3654721807
 30
0.0
 10
24.8193186634
 20
11.5325948501
 30
0.0
 10
24.8034638293
 20
11.7035379385
 30
0.0
 10
24.8018790238
 20
11.8319392592
 30
0.0
  0
SPLINE
  5
2CC
100
AcDbEntity
  8
0
100
AcDbSpline
 62
7
  6
BYLAYER
 70
0
 71
3
 72
12
 73
8
 74
0
 42
0.0000001
 43
0.0000001
 44
0.0000000001
 40
0.0
 40
0.0
 40
0.0
 40
0.0
 40
0.2306716562
 40
0.4751082536
 40
0.6022765744
 40
0.7324128661
 40
1.0
 40
1.0
 40
1.0
 40
1.0
 10
25.4872912956
 20
10.1952255414
 30
0.0
 10
25.4126134699
 20
10.2626200538
 30
0.0
 10
25.2719012515
 20
10.4164028337
 30
0.0
 10
25.1282177712
 20
10.6375088587
 30
0.0
 10
25.0296078008
 20
10.8330098939
 30
0.0
 10
24.9411113852
 20
11.0442632871
 30
0.0
 10
24.8905522057
 20
11.2108530836
 30
0.0
 10
24.8636421655
 20
11.3243983156
 30
0.0
  0
SPLINE
  5
2CD
100
AcDbEntity
  8
0
100
AcDbSpline
 62
7
  6
BYLAYER
 70
0
 71
3
 72
10
 73
6
 74
0
 42
0.0000001
 43
0.0000001
 44
0.0000000001
 40
0.0
 40
0.0
 40
0.0
 40
0.0
 40
0.2692698717
 40
0.5285868998
 40
1.0
 40
1.0
 40
1.0
 40
1.0
 10
25.5978879515
 20
9.9609327561
 30
0.0
 10
25.5949618393
 20
9.9844013572
 30
0.0
 10
25.5857953536
 20
10.0301745103
 30
0.0
 10
25.5554992961
 20
10.11271551
 30
0.0
 10
25.5180294655
 20
10.1674852595
 30
0.0
 10
25.4872912956
 20
10.1952255414
 30
0.0
  0
ENDSEC
  0
SECTION
  2
OBJECTS
  0
DICTIONARY
  5
C
100
AcDbDictionary
280
0
281
1
  3
ACAD_GROUP
350
D
  3
ACAD_MLINESTYLE
350
17
  3
ACAD_LAYOUT
350
1A
  3
ACAD_PLOTSETTINGS
350
19
  3
ACAD_PLOTSTYLENAME
350
E
  0
DICTIONARY
  5
D
102
{ACAD_REACTORS
330
C
102
}
100
AcDbDictionary
280
0
281
1
  0
ACDBDICTIONARYWDFLT
  5
E
102
{ACAD_REACTORS
330
C
102
}
100
AcDbDictionary
281
1
  3
Normal
350
F
100
AcDbDictionaryWithDefault
340
F
  0
DICTIONARY
  5
17
102
{ACAD_REACTORS
330
C
102
}
100
AcDbDictionary
280
0
281
1
  3
Standard
350
18
  0
DICTIONARY
  5
19
102
{ACAD_REACTORS
330
C
102
}
100
AcDbDictionary
281
1
  0
DICTIONARY
  5
1A
102
{ACAD_REACTORS
330
C
102
}
100
AcDbDictionary
281
1
  3
Model
350
2CE
  3
Layout1
350
2CF
  0
ACDBPLACEHOLDER
  5
F
102
{ACAD_REACTORS
330
E
102
}
  0
MLINESTYLE
  5
18
102
{ACAD_REACTORS
330
17
102
}
100
AcDbMlineStyle
  2
STANDARD
 70
0
  3

 62
256
 51
90.0
 52
90.0
 71
2
 49
0.5
 62
256
  6
BYLAYER
 49
-0.5
 62
256
  6
BYLAYER
  0
LAYOUT
  5
2CE
102
{ACAD_REACTORS
330
1A
102
}
100
AcDbPlotSettings
  1

  2
none_device
  4

  6

 40
0.0
 41
0.0
 42
0.0
 43
0.0
 44
210.0
 45
297.0
 46
0.0
 47
0.0
 48
0.0
 49
0.0
140
0.0
141
0.0
142
1.0
143
1.0
 70
1024
 72
1
 73
0
 74
0
  7

 75
0
147
1.0
148
0.0
149
0.0
100
AcDbLayout
  1
Model
 70
0
 71
0
 10
0.0
 20
0.0
 11
210.0
 21
297.0
 12
0.0
 22
0.0
 32
0.0
 14
0.0
 24
0.0
 34
0.0
 15
0.0
 25
0.0
 35
0.0
146
0.0
 13
0.0
 23
0.0
 33
0.0
 16
1.0
 26
0.0
 36
0.0
 17
0.0
 27
1.0
 37
0.0
 76
0
330
210
345
0
346
0
  0
LAYOUT
  5
2CF
102
{ACAD_REACTORS
330
1A
102
}
100
AcDbPlotSettings
  1

  2
none_device
  4

  6

 40
0.0
 41
0.0
 42
0.0
 43
0.0
 44
210.0
 45
297.0
 46
0.0
 47
0.0
 48
0.0
 49
0.0
140
0.0
141
0.0
142
1.0
143
1.0
 70
0
 72
1
 73
0
 74
0
  7

 75
0
147
1.0
148
0.0
149
0.0
100
AcDbLayout
  1
Layout1
 70
0
 71
1
 10
0.0
 20
0.0
 11
210.0
 21
297.0
 12
0.0
 22
0.0
 32
0.0
 14
0.0
 24
0.0
 34
0.0
 15
0.0
 25
0.0
 35
0.0
146
0.0
 13
0.0
 23
0.0
 33
0.0
 16
1.0
 26
0.0
 36
0.0
 17
0.0
 27
1.0
 37
0.0
 76
0
330
211
345
0
346
0
  0
ENDSEC
  0
EOF
