999
DXF file: C:\Users\sesa63760\Dev\_Creo\CAD\MCADID0004767_3D-CAD\drw0001_6.dxf
999
Pro/ENGINEER 2019471 by Parametric Technology Corporation
  0
SECTION
  2
HEADER
  9
$ACADVER
  1
AC1024
  9
$DWGCODEPAGE
  3
ANSI_1252
  9
$EXTMAX
 10
56.057606336
 20
79.281471818
 30
0.0
  9
$EXTMIN
 10
0.0
 20
0.0
 30
0.0
  9
$LIMMIN
 10
0.0
 20
0.0
  9
$LIMMAX
 10
56.057606336
 20
79.281471818
  9
$VIEWCTR
 10
28.028803168
 20
39.640735909
  9
$VIEWSIZE
 40
79.281471818
  9
$CLAYER
  8
0
  9
$LTSCALE
 40
5.1679774222
  9
$CELTYPE
  6
BYLAYER
  9
$DIMSCALE
 40
1.0
  9
$DIMASZ
 40
0.6673524564
  9
$DIMEXO
 40
1.0
  9
$DIMDLI
 40
3.5706025826
  9
$DIMEXE
 40
1.0
  9
$DIMCEN
 40
0.8456690327
  9
$DIMLFAC
 40
1.0
  9
$DIMBLK
  1
_FILLED
  9
$DIMALT
 70
0
  9
$DIMALTF
 40
0.0393700787
  9
$DIMTXT
 40
0.9342934389
  9
$DIMTOL
 70
1
  9
$DIMLIM
 70
0
  9
$DIMTFAC
 40
1.0
  9
$DIMTP
 40
0.01
  9
$DIMTM
 40
0.01
  9
$DIMGAP
 40
0.625
  9
$DIMDSEP
 70
46
  9
$AUNITS
 70
0
  9
$PDMODE
 70
3
  9
$PDSIZE
 40
0.3125
  9
$HANDSEED
  5
2D0
  9
$TILEMODE
 70
1
  9
$MEASUREMENT
 70
1
  9
$INSUNITS
 70
4
  0
ENDSEC
  0
SECTION
  2
CLASSES
  0
CLASS
  1
ACDBDICTIONARYWDFLT
  2
AcDbDictionaryWithDefault
  3
AutoCAD 2000
 90
0
 91
1
280
0
281
0
  0
CLASS
  1
ACDBPLACEHOLDER
  2
AcDbPlaceHolder
  3
AutoCAD 2000
 90
0
 91
1
280
0
281
0
  0
CLASS
  1
LAYOUT
  2
AcDbLayout
  3
AutoCAD 2000
 90
0
 91
0
280
0
281
0
  0
ENDSEC
  0
SECTION
  2
TABLES
  0
TABLE
  2
VPORT
  5
8
100
AcDbSymbolTable
 70
2
  0
VPORT
  5
1F4
100
AcDbSymbolTableRecord
100
AcDbViewportTableRecord
  2
*ACTIVE
 70
0
 10
0.0
 20
0.0
 11
1.0
 21
1.0
 12
28.028803168
 22
39.640735909
 13
0.0
 23
0.0
 14
1.0
 24
1.0
 15
0.0
 25
0.0
 16
0.0
 26
0.0
 36
1.0
 17
0.0
 27
0.0
 37
0.0
 40
79.281471818
 41
0.7070707071
 42
50.0
 43
0.0
 44
0.0
 50
0.0
 51
0.0
 71
0
 72
100
 73
1
 74
1
 75
0
 76
0
 77
0
 78
0
  0
ENDTAB
  0
TABLE
  2
LTYPE
  5
5
100
AcDbSymbolTable
 70
6
  0
LTYPE
  5
14
100
AcDbSymbolTableRecord
100
AcDbLinetypeTableRecord
  2
BYBLOCK
 70
0
  3

 72
65
 73
0
 40
0.0
  0
LTYPE
  5
15
100
AcDbSymbolTableRecord
100
AcDbLinetypeTableRecord
  2
BYLAYER
 70
0
  3

 72
65
 73
0
 40
0.0
  0
LTYPE
  5
16
100
AcDbSymbolTableRecord
100
AcDbLinetypeTableRecord
  2
CONTINUOUS
 70
64
  3
Solid line
 72
65
 73
0
 40
0.0
  0
LTYPE
  5
1F5
100
AcDbSymbolTableRecord
100
AcDbLinetypeTableRecord
  2
CENTER
 70
64
  3
____ _ ____ _ ____ _ ____ _ ____ _ ____ _ ____
 72
65
 73
4
 40
0.6
 49
0.375
 74
0
 49
-0.075
 74
0
 49
0.075
 74
0
 49
-0.075
 74
0
  0
LTYPE
  5
1F6
100
AcDbSymbolTableRecord
100
AcDbLinetypeTableRecord
  2
HIDDEN
 70
64
  3
- - - - - - - - - - - - - - - - - - - -
 72
65
 73
2
 40
0.2
 49
0.1
 74
0
 49
-0.1
 74
0
  0
LTYPE
  5
1F7
100
AcDbSymbolTableRecord
100
AcDbLinetypeTableRecord
  2
PHANTOM
 70
64
  3
_____ _ _ _____ _ _ _____ _ _ _____
 72
65
 73
6
 40
0.8
 49
0.45
 74
0
 49
-0.05
 74
0
 49
0.1
 74
0
 49
-0.05
 74
0
 49
0.1
 74
0
 49
-0.05
 74
0
  0
LTYPE
  5
1F8
100
AcDbSymbolTableRecord
100
AcDbLinetypeTableRecord
  2
DOT
 70
64
  3
. . . . . . . . . . . . . . . . . . . .
 72
65
 73
2
 40
0.2
 49
0.1
 74
0
 49
-0.1
 74
0
  0
LTYPE
  5
1F9
100
AcDbSymbolTableRecord
100
AcDbLinetypeTableRecord
  2
DASHED
 70
64
  3
- - - - - - - - - - - - - - - - - - - -
 72
65
 73
2
 40
0.2
 49
0.1
 74
0
 49
-0.1
 74
0
  0
ENDTAB
  0
TABLE
  2
LAYER
  5
2
100
AcDbSymbolTable
 70
36
  0
LAYER
  5
10
100
AcDbSymbolTableRecord
100
AcDbLayerTableRecord
  2
0
 70
0
 62
7
  6
CONTINUOUS
370
-3
390
F
  0
LAYER
  5
1FA
100
AcDbSymbolTableRecord
100
AcDbLayerTableRecord
  2
DEFAULT_1
 70
0
 62
7
  6
CENTER
370
-3
390
F
  0
LAYER
  5
1FB
100
AcDbSymbolTableRecord
100
AcDbLayerTableRecord
  2
DEFAULT_2
 70
0
 62
7
  6
HIDDEN
370
-3
390
F
  0
LAYER
  5
1FC
100
AcDbSymbolTableRecord
100
AcDbLayerTableRecord
  2
DEFAULT_3
 70
0
 62
7
  6
PHANTOM
370
-3
390
F
  0
LAYER
  5
1FD
100
AcDbSymbolTableRecord
100
AcDbLayerTableRecord
  2
00_COMPONENTS
 70
0
 62
7
  6
CONTINUOUS
370
-3
390
F
  0
LAYER
  5
1FE
100
AcDbSymbolTableRecord
100
AcDbLayerTableRecord
  2
01_1_DEFAULT_DATUMS
 70
0
 62
7
  6
CONTINUOUS
370
-3
390
F
  0
LAYER
  5
1FF
100
AcDbSymbolTableRecord
100
AcDbLayerTableRecord
  2
01_PLANES
 70
0
 62
7
  6
CONTINUOUS
370
-3
390
F
  0
LAYER
  5
200
100
AcDbSymbolTableRecord
100
AcDbLayerTableRecord
  2
02_COORD_SYS
 70
0
 62
7
  6
CONTINUOUS
370
-3
390
F
  0
LAYER
  5
201
100
AcDbSymbolTableRecord
100
AcDbLayerTableRecord
  2
03_AXES
 70
0
 62
7
  6
CONTINUOUS
370
-3
390
F
  0
LAYER
  5
202
100
AcDbSymbolTableRecord
100
AcDbLayerTableRecord
  2
04_POINTS
 70
0
 62
7
  6
CONTINUOUS
370
-3
390
F
  0
LAYER
  5
203
100
AcDbSymbolTableRecord
100
AcDbLayerTableRecord
  2
05_CURVES
 70
0
 62
7
  6
CONTINUOUS
370
-3
390
F
  0
LAYER
  5
204
100
AcDbSymbolTableRecord
100
AcDbLayerTableRecord
  2
06_SURFS
 70
0
 62
7
  6
CONTINUOUS
370
-3
390
F
  0
LAYER
  5
205
100
AcDbSymbolTableRecord
100
AcDbLayerTableRecord
  2
07_COSMETICS
 70
0
 62
7
  6
CONTINUOUS
370
-3
390
F
  0
LAYER
  5
206
100
AcDbSymbolTableRecord
100
AcDbLayerTableRecord
  2
10_NOTES
 70
0
 62
7
  6
CONTINUOUS
370
-3
390
F
  0
LAYER
  5
207
100
AcDbSymbolTableRecord
100
AcDbLayerTableRecord
  2
11_NOTES_PUB
 70
0
 62
7
  6
CONTINUOUS
370
-3
390
F
  0
LAYER
  5
208
100
AcDbSymbolTableRecord
100
AcDbLayerTableRecord
  2
13_REF_GTOL
 70
0
 62
7
  6
CONTINUOUS
370
-3
390
F
  0
LAYER
  5
209
100
AcDbSymbolTableRecord
100
AcDbLayerTableRecord
  2
16_MISC
 70
0
 62
7
  6
CONTINUOUS
370
-3
390
F
  0
LAYER
  5
20A
100
AcDbSymbolTableRecord
100
AcDbLayerTableRecord
  2
17_NO_PRINT
 70
0
 62
7
  6
CONTINUOUS
370
-3
390
F
  0
LAYER
  5
20B
100
AcDbSymbolTableRecord
100
AcDbLayerTableRecord
  2
18_DATUM_CAMS_JOINTS
 70
0
 62
7
  6
CONTINUOUS
370
-3
390
F
  0
LAYER
  5
20C
100
AcDbSymbolTableRecord
100
AcDbLayerTableRecord
  2
19_DATUM_FUNCTIONAL
 70
0
 62
7
  6
CONTINUOUS
370
-3
390
F
  0
LAYER
  5
20D
100
AcDbSymbolTableRecord
100
AcDbLayerTableRecord
  2
20_DATUM_KINEMATIC_SCHEME
 70
0
 62
7
  6
CONTINUOUS
370
-3
390
F
  0
ENDTAB
  0
TABLE
  2
STYLE
  5
3
100
AcDbSymbolTable
 70
1
  0
STYLE
  5
11
100
AcDbSymbolTableRecord
100
AcDbTextStyleTableRecord
  2
STANDARD
 70
0
 40
0.0
 41
1.0
 50
0.0
 71
0
 42
0.2
  3
ARIAL.TTF
  4

  0
STYLE
  5
20E
100
AcDbSymbolTableRecord
100
AcDbTextStyleTableRecord
  2
TEXTSTYLE_1
 70
0
 40
0.0
 41
0.8
 50
0.0
 71
0
 42
0.2
  3
gdt
  4

  0
ENDTAB
  0
TABLE
  2
VIEW
  5
6
100
AcDbSymbolTable
 70
0
  0
ENDTAB
  0
TABLE
  2
UCS
  5
7
100
AcDbSymbolTable
 70
0
  0
ENDTAB
  0
TABLE
  2
APPID
  5
9
100
AcDbSymbolTable
 70
1
  0
APPID
  5
20F
100
AcDbSymbolTableRecord
100
AcDbRegAppTableRecord
  2
ACAD
 70
0
  0
ENDTAB
  0
TABLE
  2
BLOCK_RECORD
  5
1
100
AcDbSymbolTable
 70
0
  0
BLOCK_RECORD
  5
210
100
AcDbSymbolTableRecord
100
AcDbBlockTableRecord
  2
*Model_Space
  0
BLOCK_RECORD
  5
211
100
AcDbSymbolTableRecord
100
AcDbBlockTableRecord
  2
*Paper_Space
  0
BLOCK_RECORD
  5
212
100
AcDbSymbolTableRecord
100
AcDbBlockTableRecord
  2
_FILLED
  0
ENDTAB
  0
TABLE
  2
DIMSTYLE
  5
A
100
AcDbSymbolTable
 70
1
100
AcDbDimStyleTable
 71
0
  0
DIMSTYLE
105
213
100
AcDbSymbolTableRecord
100
AcDbDimStyleTableRecord
  2
STANDARD
 70
0
  3

  4

 40
1.0
 41
0.6673524564
 42
1.0
 43
0.38
 44
1.0
 45
0.0
 46
0.0
 47
0.01
 48
0.01
140
0.9342934389
141
0.09
142
0.0
143
25.4
144
1.0
145
0.0
146
1.0
147
0.625
 71
1
 72
0
 73
0
 74
0
 75
0
 76
0
 77
1
 78
8
 79
2
170
0
171
1
172
0
173
0
174
0
175
0
176
0
177
0
178
0
270
2
179
2
271
2
272
2
273
2
274
2
275
0
280
0
281
0
282
0
283
1
284
8
285
0
286
0
287
3
288
0
340
11
278
46
341
212
342
212
343
212
344
212
  0
ENDTAB
  0
ENDSEC
  0
SECTION
  2
BLOCKS
  0
BLOCK
  5
20
100
AcDbEntity
  8
0
100
AcDbBlockBegin
  2
*Model_Space
 70
0
 10
0.0
 20
0.0
 30
0.0
  3
*Model_Space
  1

  0
ENDBLK
  5
21
100
AcDbEntity
  8
0
100
AcDbBlockEnd
  0
BLOCK
  5
1C
100
AcDbEntity
  8
0
100
AcDbBlockBegin
  2
*Paper_Space
 70
0
 10
0.0
 20
0.0
 30
0.0
  3
*Paper_Space
  1

  0
ENDBLK
  5
1D
100
AcDbEntity
  8
0
100
AcDbBlockEnd
  0
BLOCK
  5
214
100
AcDbEntity
  8
0
100
AcDbBlockBegin
  2
_FILLED
 70
64
 10
0.0
 20
0.0
  3
_FILLED
  1

  0
SOLID
  5
215
100
AcDbEntity
  8
0
  6
BYBLOCK
 62
0
100
AcDbTrace
 10
0.0
 20
0.0
 11
-1.0
 21
0.25
 12
-1.0
 22
-0.25
 13
-1.0
 23
-0.25
  0
ENDBLK
  5
216
100
AcDbEntity
  8
0
  6
BYBLOCK
 62
0
100
AcDbBlockEnd
  0
ENDSEC
  0
SECTION
  2
ENTITIES
  0
LINE
  5
217
100
AcDbEntity
  8
0
100
AcDbLine
 62
7
  6
BYLAYER
 10
38.440926802
 20
6.5501828001
 11
25.6870769859
 21
6.5501828001
  0
LINE
  5
218
100
AcDbEntity
  8
0
100
AcDbLine
 62
7
  6
BYLAYER
 10
38.7916496288
 20
6.9633587113
 11
37.3774360664
 21
6.9633587113
  0
LINE
  5
219
100
AcDbEntity
  8
0
100
AcDbLine
 62
7
  6
BYLAYER
 10
35.5207266195
 20
6.9633587113
 11
28.6072771684
 21
6.9633587113
  0
LINE
  5
21A
100
AcDbEntity
  8
0
100
AcDbLine
 62
7
  6
BYLAYER
 10
26.7505677214
 20
6.9633587113
 11
26.3659510861
 21
6.9633587113
  0
LINE
  5
21B
100
AcDbEntity
  8
0
100
AcDbLine
 62
7
  6
BYLAYER
 10
25.6588443049
 20
6.9633587113
 11
25.3363541591
 21
6.9633587113
  0
LINE
  5
21C
100
AcDbEntity
  8
0
100
AcDbLine
 62
7
  6
BYLAYER
 10
26.1450406427
 20
7.0001828001
 11
26.3613521117
 21
7.0001828001
  0
LINE
  5
21D
100
AcDbEntity
  8
0
100
AcDbLine
 62
7
  6
BYLAYER
 10
26.3426185553
 20
7.1501828001
 11
26.2511066599
 21
7.1501828001
  0
LINE
  5
21E
100
AcDbEntity
  8
0
100
AcDbLine
 62
7
  6
BYLAYER
 10
26.1466520239
 20
7.2741355735
 11
26.3271380468
 21
7.2741355735
  0
LINE
  5
21F
100
AcDbEntity
  8
0
100
AcDbLine
 62
7
  6
BYLAYER
 10
28.2884371912
 20
9.487006889
 11
35.8395665967
 21
9.487006889
  0
LINE
  5
220
100
AcDbEntity
  8
0
100
AcDbLine
 62
7
  6
BYLAYER
 10
41.209244942
 20
9.9001828001
 11
25.9605241462
 21
9.9001828001
  0
LINE
  5
221
100
AcDbEntity
  8
0
100
AcDbLine
 62
7
  6
BYLAYER
 10
25.2920864619
 20
9.9001828001
 11
22.919101386
 21
9.9001828001
  0
LINE
  5
222
100
AcDbEntity
  8
0
100
AcDbLine
 62
7
  6
BYLAYER
 10
41.6423140574
 20
10.1501828001
 11
25.6539000634
 21
10.1501828001
  0
LINE
  5
223
100
AcDbEntity
  8
0
100
AcDbLine
 62
7
  6
BYLAYER
 10
24.9467932822
 20
10.1501828001
 11
22.4856897304
 21
10.1501828001
  0
LINE
  5
224
100
AcDbEntity
  8
0
100
AcDbLine
 62
7
  6
BYLAYER
 10
21.9188552426
 20
11.1323201369
 11
24.5453206315
 21
11.1323201369
  0
LINE
  5
225
100
AcDbEntity
  8
0
100
AcDbLine
 62
7
  6
BYLAYER
 10
25.2524274127
 20
11.1323201369
 11
42.2093513132
 21
11.1323201369
  0
LINE
  5
226
100
AcDbEntity
  8
0
100
AcDbLine
 62
7
  6
BYLAYER
 10
25.0702791802
 20
11.3720534238
 11
25.2050569016
 21
11.3720534238
  0
LINE
  5
227
100
AcDbEntity
  8
0
100
AcDbLine
 62
7
  6
BYLAYER
 10
42.2762624589
 20
11.3735939337
 11
25.2050569016
 21
11.3735939337
  0
LINE
  5
228
100
AcDbEntity
  8
0
100
AcDbLine
 62
7
  6
BYLAYER
 10
24.4979501204
 20
11.3735939337
 11
21.8519454342
 21
11.3735939337
  0
LINE
  5
229
100
AcDbEntity
  8
0
100
AcDbLine
 62
7
  6
BYLAYER
 10
25.0139948086
 20
11.8345757085
 11
25.1993604168
 21
11.8345757085
  0
LINE
  5
22A
100
AcDbEntity
  8
0
100
AcDbLine
 62
7
  6
BYLAYER
 10
42.3640018939
 20
16.4001828004
 11
25.1429418927
 21
16.4001828004
  0
LINE
  5
22B
100
AcDbEntity
  8
0
100
AcDbLine
 62
7
  6
BYLAYER
 10
24.4358351115
 20
16.4001828004
 11
21.7640018939
 21
16.4001828004
  0
LINE
  5
22C
100
AcDbEntity
  8
0
100
AcDbLine
 62
7
  6
BYLAYER
 10
25.1429418927
 20
16.4054189208
 11
24.957578743
 21
16.4054189208
  0
LINE
  5
22D
100
AcDbEntity
  8
0
100
AcDbLine
 62
7
  6
BYLAYER
 10
44.0639566846
 20
16.8001828001
 11
37.5964233505
 21
16.8001828001
  0
LINE
  5
22E
100
AcDbEntity
  8
0
100
AcDbLine
 62
7
  6
BYLAYER
 10
26.5315804374
 20
16.8001828001
 11
20.0640471033
 21
16.8001828001
  0
LINE
  5
22F
100
AcDbEntity
  8
0
100
AcDbLine
 62
7
  6
BYLAYER
 10
45.5640018939
 20
17.4001828001
 11
18.5640018939
 21
17.4001828001
  0
LINE
  5
230
100
AcDbEntity
  8
0
100
AcDbLine
 62
7
  6
BYLAYER
 10
21.9186524746
 20
11.1323201369
 11
22.4856897304
 21
10.1501828001
  0
LINE
  5
231
100
AcDbEntity
  8
0
100
AcDbLine
 62
7
  6
BYLAYER
 10
11.4640018939
 20
36.2003302624
 11
11.4640018939
 21
40.4000353379
  0
LINE
  5
232
100
AcDbEntity
  8
0
100
AcDbLine
 62
7
  6
BYLAYER
 10
11.8640330695
 20
35.8001828001
 11
11.8640330695
 21
40.8001828001
  0
LINE
  5
233
100
AcDbEntity
  8
0
100
AcDbLine
 62
7
  6
BYLAYER
 10
17.8640018939
 20
50.4696964238
 11
24.8640018939
 21
58.7963188723
  0
LINE
  5
234
100
AcDbEntity
  8
0
100
AcDbLine
 62
7
  6
BYLAYER
 10
24.8640018939
 20
58.1840198651
 11
17.8640018939
 21
49.8573974166
  0
LINE
  5
235
100
AcDbEntity
  8
0
100
AcDbLine
 62
7
  6
BYLAYER
 10
18.5640018939
 20
23.9001828001
 11
45.5640018939
 21
23.9001828001
  0
LINE
  5
236
100
AcDbEntity
  8
0
100
AcDbLine
 62
7
  6
BYLAYER
 10
15.1640018939
 20
35.1001845704
 11
15.1640018939
 21
41.5001810299
  0
LINE
  5
237
100
AcDbEntity
  8
0
100
AcDbLine
 62
7
  6
BYLAYER
 10
15.1640018939
 20
41.5001828001
 11
15.6258821093
 21
42.3001828001
  0
LINE
  5
238
100
AcDbEntity
  8
0
100
AcDbLine
 62
7
  6
BYLAYER
 10
19.8640018939
 20
49.1308227905
 11
26.8640018939
 21
57.457445239
  0
LINE
  5
239
100
AcDbEntity
  8
0
100
AcDbLine
 62
7
  6
BYLAYER
 10
11.4640018939
 20
40.400156613
 11
11.8640330695
 21
40.8001828001
  0
LINE
  5
23A
100
AcDbEntity
  8
0
100
AcDbLine
 62
7
  6
BYLAYER
 10
25.3140018939
 20
25.9001828001
 11
18.6140018939
 21
25.9001828001
  0
LINE
  5
23B
100
AcDbEntity
  8
0
100
AcDbLine
 62
7
  6
BYLAYER
 10
11.4640018939
 20
36.2002089873
 11
11.8640330695
 21
35.8001828001
  0
LINE
  5
23C
100
AcDbEntity
  8
0
100
AcDbLine
 62
7
  6
BYLAYER
 10
15.1640018939
 20
35.1001828001
 11
15.6258821093
 21
34.3001828001
  0
LINE
  5
23D
100
AcDbEntity
  8
0
100
AcDbLine
 62
7
  6
BYLAYER
 10
21.9186524746
 20
11.1323201369
 11
21.851741329
 21
11.3735939337
  0
LINE
  5
23E
100
AcDbEntity
  8
0
100
AcDbLine
 62
7
  6
BYLAYER
 10
17.8640018939
 20
30.3236836871
 11
17.8640018939
 21
50.4696964238
  0
LINE
  5
23F
100
AcDbEntity
  8
0
100
AcDbLine
 62
7
  6
BYLAYER
 10
18.5640018939
 20
23.9001828001
 11
18.5640018939
 21
17.4001828001
  0
LINE
  5
240
100
AcDbEntity
  8
0
100
AcDbLine
 62
7
  6
BYLAYER
 10
18.6140018939
 20
25.9001828001
 11
18.6140018939
 21
23.9001828001
  0
LINE
  5
241
100
AcDbEntity
  8
0
100
AcDbLine
 62
7
  6
BYLAYER
 10
21.7640018939
 20
16.4001828004
 11
21.851741329
 21
11.3735939337
  0
LINE
  5
242
100
AcDbEntity
  8
0
100
AcDbLine
 62
7
  6
BYLAYER
 10
19.2639062646
 20
17.4001828001
 11
19.2639026035
 21
23.9001828001
  0
LINE
  5
243
100
AcDbEntity
  8
0
100
AcDbLine
 62
7
  6
BYLAYER
 10
19.8640018939
 20
49.1308227905
 11
19.8640018939
 21
38.9129322597
  0
LINE
  5
244
100
AcDbEntity
  8
0
100
AcDbLine
 62
7
  6
BYLAYER
 10
19.8640018939
 20
36.9065163792
 11
19.8640018939
 21
30.3236836871
  0
LINE
  5
245
100
AcDbEntity
  8
0
100
AcDbLine
 62
7
  6
BYLAYER
 10
19.8640018939
 20
36.9083432184
 11
19.8640018939
 21
38.4899954924
  0
LINE
  5
246
100
AcDbEntity
  8
0
100
AcDbLine
 62
7
  6
BYLAYER
 10
20.0640018939
 20
16.8001828001
 11
20.0640018939
 21
17.4001828001
  0
LINE
  5
247
100
AcDbEntity
  8
0
100
AcDbLine
 62
7
  6
BYLAYER
 10
20.2226607478
 20
16.8001828001
 11
20.2226607478
 21
17.4001828001
  0
LINE
  5
248
100
AcDbEntity
  8
0
100
AcDbLine
 62
7
  6
BYLAYER
 10
20.3640018939
 20
43.300141499
 11
20.3640018939
 21
33.3002241013
  0
LINE
  5
249
100
AcDbEntity
  8
0
100
AcDbLine
 62
7
  6
BYLAYER
 10
20.6640035924
 20
35.4678108222
 11
20.6640035924
 21
42.3001828001
  0
LINE
  5
24A
100
AcDbEntity
  8
0
100
AcDbLine
 62
7
  6
BYLAYER
 10
21.2833209196
 20
17.4001828001
 11
21.2833209196
 21
16.8001828001
  0
LINE
  5
24B
100
AcDbEntity
  8
0
100
AcDbLine
 62
7
  6
BYLAYER
 10
20.417400259
 20
16.8001828001
 11
20.4256046725
 21
17.4001828001
  0
LINE
  5
24C
100
AcDbEntity
  8
0
100
AcDbLine
 62
7
  6
BYLAYER
 10
34.5640018939
 20
58.7532750341
 11
34.0640018939
 21
58.2532750341
  0
LINE
  5
24D
100
AcDbEntity
  8
0
100
AcDbLine
 62
7
  6
BYLAYER
 10
20.3640018939
 20
42.0001812291
 11
20.6640035924
 21
42.3001828001
  0
LINE
  5
24E
100
AcDbEntity
  8
0
100
AcDbLine
 62
7
  6
BYLAYER
 10
17.8640018939
 20
30.3236836871
 11
19.8640018939
 21
30.3236836871
  0
LINE
  5
24F
100
AcDbEntity
  8
0
100
AcDbLine
 62
7
  6
BYLAYER
 10
22.1640018939
 20
33.9751857792
 11
22.4640050796
 21
33.6751828001
  0
LINE
  5
250
100
AcDbEntity
  8
0
100
AcDbLine
 62
7
  6
BYLAYER
 10
17.8640018939
 20
41.5001828001
 11
17.4021216786
 21
42.3001828001
  0
LINE
  5
251
100
AcDbEntity
  8
0
100
AcDbLine
 62
7
  6
BYLAYER
 10
21.7640018939
 20
16.8001828001
 11
21.7640018939
 21
16.4001828004
  0
LINE
  5
252
100
AcDbEntity
  8
0
100
AcDbLine
 62
7
  6
BYLAYER
 10
22.1640018939
 20
33.9752670883
 11
22.1640018939
 21
42.6250273496
  0
LINE
  5
253
100
AcDbEntity
  8
0
100
AcDbLine
 62
7
  6
BYLAYER
 10
22.4640050796
 20
33.6751828001
 11
22.4640050796
 21
42.9251828001
  0
LINE
  5
254
100
AcDbEntity
  8
0
100
AcDbLine
 62
7
  6
BYLAYER
 10
22.5816399841
 20
16.8001828001
 11
22.5816399841
 21
17.4001828001
  0
LINE
  5
255
100
AcDbEntity
  8
0
100
AcDbLine
 62
7
  6
BYLAYER
 10
23.3640018939
 20
61.2032777661
 11
23.3640018939
 21
65.3032723021
  0
LINE
  5
256
100
AcDbEntity
  8
0
100
AcDbLine
 62
7
  6
BYLAYER
 10
23.8140018939
 20
25.9001828001
 11
23.8140018939
 21
45.8001828001
  0
LINE
  5
257
100
AcDbEntity
  8
0
100
AcDbLine
 62
7
  6
BYLAYER
 10
17.8640018939
 20
35.1001828001
 11
17.4021216786
 21
34.3001828001
  0
LINE
  5
258
100
AcDbEntity
  8
0
100
AcDbLine
 62
7
  6
BYLAYER
 10
22.1640018939
 20
42.6251798211
 11
22.4640050796
 21
42.9251828001
  0
LINE
  5
259
100
AcDbEntity
  8
0
100
AcDbLine
 62
7
  6
BYLAYER
 10
20.3640018939
 20
33.3001828001
 11
19.8640018939
 21
33.3001828001
  0
LINE
  5
25A
100
AcDbEntity
  8
0
100
AcDbLine
 62
7
  6
BYLAYER
 10
22.4640050796
 20
33.6751828001
 11
23.8140018939
 21
33.6751828001
  0
LINE
  5
25B
100
AcDbEntity
  8
0
100
AcDbLine
 62
7
  6
BYLAYER
 10
17.4021216786
 20
34.3001828001
 11
15.6258821093
 21
34.3001828001
  0
LINE
  5
25C
100
AcDbEntity
  8
0
100
AcDbLine
 62
7
  6
BYLAYER
 10
25.9361313706
 20
7.2480883468
 11
25.5978851391
 21
9.9609596623
  0
LINE
  5
25D
100
AcDbEntity
  8
0
100
AcDbLine
 62
7
  6
BYLAYER
 10
25.8122372073
 20
9.9562773939
 11
26.1466520239
 21
7.2741355735
  0
LINE
  5
25E
100
AcDbEntity
  8
0
100
AcDbLine
 62
7
  6
BYLAYER
 10
24.4358351115
 20
16.4001828005
 11
24.4979501204
 21
11.3735939336
  0
LINE
  5
25F
100
AcDbEntity
  8
0
100
AcDbLine
 62
7
  6
BYLAYER
 10
25.2050569016
 20
11.3735939337
 11
25.1429418927
 21
16.4001828005
  0
LINE
  5
260
100
AcDbEntity
  8
0
100
AcDbLine
 62
7
  6
BYLAYER
 10
24.8018789286
 20
11.8319578475
 11
24.7454467087
 21
16.4041098906
  0
LINE
  5
261
100
AcDbEntity
  8
0
100
AcDbLine
 62
7
  6
BYLAYER
 10
24.957578743
 20
16.4054189208
 11
25.0139948086
 21
11.8345757085
  0
LINE
  5
262
100
AcDbEntity
  8
0
100
AcDbLine
 62
7
  6
BYLAYER
 10
24.4358351115
 20
16.4001828005
 11
24.4358351115
 21
16.8001828001
  0
LINE
  5
263
100
AcDbEntity
  8
0
100
AcDbLine
 62
7
  6
BYLAYER
 10
24.7454467087
 20
16.8001828001
 11
24.7454467087
 21
16.4041098906
  0
LINE
  5
264
100
AcDbEntity
  8
0
100
AcDbLine
 62
7
  6
BYLAYER
 10
24.8640018939
 20
58.1840198651
 11
24.8640018939
 21
68.2531971041
  0
LINE
  5
265
100
AcDbEntity
  8
0
100
AcDbLine
 62
7
  6
BYLAYER
 10
24.957578743
 20
16.4054189208
 11
24.957578743
 21
16.8001828001
  0
LINE
  5
266
100
AcDbEntity
  8
0
100
AcDbLine
 62
7
  6
BYLAYER
 10
25.1429418927
 20
16.8001828001
 11
25.1429418927
 21
16.4001828005
  0
LINE
  5
267
100
AcDbEntity
  8
0
100
AcDbLine
 62
7
  6
BYLAYER
 10
25.3140018939
 20
25.9001828001
 11
25.3140018939
 21
45.8001828001
  0
LINE
  5
268
100
AcDbEntity
  8
0
100
AcDbLine
 62
7
  6
BYLAYER
 10
22.1640018939
 20
35.143812642
 11
20.6640035924
 21
35.143812642
  0
LINE
  5
269
100
AcDbEntity
  8
0
100
AcDbLine
 62
7
  6
BYLAYER
 10
20.6640035924
 20
35.4678108222
 11
22.1640018939
 21
35.4678108222
  0
LINE
  5
26A
100
AcDbEntity
  8
0
100
AcDbLine
 62
7
  6
BYLAYER
 10
11.8640330695
 20
35.8001828001
 11
15.1640018939
 21
35.8001828001
  0
LINE
  5
26B
100
AcDbEntity
  8
0
100
AcDbLine
 62
7
  6
BYLAYER
 10
17.4021216786
 20
36.3001828001
 11
15.6258821093
 21
36.3001828001
  0
LINE
  5
26C
100
AcDbEntity
  8
0
100
AcDbLine
 62
7
  6
BYLAYER
 10
19.8640018939
 20
36.7170601431
 11
17.8640018939
 21
36.7170601431
  0
LINE
  5
26D
100
AcDbEntity
  8
0
100
AcDbLine
 62
7
  6
BYLAYER
 10
17.8640018939
 20
36.9083432184
 11
19.8640018939
 21
36.9083432184
  0
LINE
  5
26E
100
AcDbEntity
  8
0
100
AcDbLine
 62
7
  6
BYLAYER
 10
26.5315804374
 20
17.4001828001
 11
26.5315804374
 21
16.8001828001
  0
LINE
  5
26F
100
AcDbEntity
  8
0
100
AcDbLine
 62
7
  6
BYLAYER
 10
26.8640018939
 20
53.7533541881
 11
26.8640018939
 21
72.7531958801
  0
LINE
  5
270
100
AcDbEntity
  8
0
100
AcDbLine
 62
7
  6
BYLAYER
 10
17.8640018939
 20
38.9129322597
 11
19.8640018939
 21
38.9129322597
  0
LINE
  5
271
100
AcDbEntity
  8
0
100
AcDbLine
 62
7
  6
BYLAYER
 10
17.4021216786
 20
40.3001828001
 11
15.6258821093
 21
40.3001828001
  0
LINE
  5
272
100
AcDbEntity
  8
0
100
AcDbLine
 62
7
  6
BYLAYER
 10
11.8640330695
 20
40.8001828001
 11
15.1640018939
 21
40.8001828001
  0
LINE
  5
273
100
AcDbEntity
  8
0
100
AcDbLine
 62
7
  6
BYLAYER
 10
17.4021216786
 20
42.3001828001
 11
15.6258821093
 21
42.3001828001
  0
LINE
  5
274
100
AcDbEntity
  8
0
100
AcDbLine
 62
7
  6
BYLAYER
 10
20.6640035924
 20
42.3001828001
 11
22.1640018939
 21
42.3001828001
  0
LINE
  5
275
100
AcDbEntity
  8
0
100
AcDbLine
 62
7
  6
BYLAYER
 10
17.8640018939
 20
42.3058524913
 11
19.8640018939
 21
42.3058524913
  0
LINE
  5
276
100
AcDbEntity
  8
0
100
AcDbLine
 62
7
  6
BYLAYER
 10
31.8640018939
 20
72.7531958801
 11
31.8640018939
 21
53.7533541881
  0
LINE
  5
277
100
AcDbEntity
  8
0
100
AcDbLine
 62
7
  6
BYLAYER
 10
32.3640018939
 20
67.7532361704
 11
32.3640018939
 21
58.7533138977
  0
LINE
  5
278
100
AcDbEntity
  8
0
100
AcDbLine
 62
7
  6
BYLAYER
 10
33.0640018939
 20
58.2532777937
 11
33.0640018939
 21
68.2532722745
  0
LINE
  5
279
100
AcDbEntity
  8
0
100
AcDbLine
 62
7
  6
BYLAYER
 10
22.4640050796
 20
42.9251828001
 11
23.8140018939
 21
42.9251828001
  0
LINE
  5
27A
100
AcDbEntity
  8
0
100
AcDbLine
 62
7
  6
BYLAYER
 10
20.3640018939
 20
43.3001828001
 11
19.8640018939
 21
43.3001828001
  0
LINE
  5
27B
100
AcDbEntity
  8
0
100
AcDbLine
 62
7
  6
BYLAYER
 10
38.8140018939
 20
43.3001828001
 11
45.5140018939
 21
43.3001828001
  0
LINE
  5
27C
100
AcDbEntity
  8
0
100
AcDbLine
 62
7
  6
BYLAYER
 10
34.0640018939
 20
68.2532750341
 11
34.0640018939
 21
58.2532750341
  0
LINE
  5
27D
100
AcDbEntity
  8
0
100
AcDbLine
 62
7
  6
BYLAYER
 10
34.5640018939
 20
67.7532176528
 11
34.5640018939
 21
58.7533324154
  0
LINE
  5
27E
100
AcDbEntity
  8
0
100
AcDbLine
 62
7
  6
BYLAYER
 10
23.8140018939
 20
45.8001828001
 11
45.5140018939
 21
45.8001828001
  0
LINE
  5
27F
100
AcDbEntity
  8
0
100
AcDbLine
 62
7
  6
BYLAYER
 10
37.5964233505
 20
16.8001828001
 11
37.5964233505
 21
17.4001828001
  0
LINE
  5
280
100
AcDbEntity
  8
0
100
AcDbLine
 62
7
  6
BYLAYER
 10
19.8640018939
 20
47.9252386124
 11
17.8640018939
 21
47.9252386124
  0
LINE
  5
281
100
AcDbEntity
  8
0
100
AcDbLine
 62
7
  6
BYLAYER
 10
38.8140018939
 20
43.3001828001
 11
38.8140018939
 21
45.8001828001
  0
LINE
  5
282
100
AcDbEntity
  8
0
100
AcDbLine
 62
7
  6
BYLAYER
 10
43.7023991153
 20
17.4001828001
 11
43.7106035289
 21
16.8001828001
  0
LINE
  5
283
100
AcDbEntity
  8
0
100
AcDbLine
 62
7
  6
BYLAYER
 10
41.5463638037
 20
17.4001828001
 11
41.5463638037
 21
16.8001828001
  0
LINE
  5
284
100
AcDbEntity
  8
0
100
AcDbLine
 62
7
  6
BYLAYER
 10
42.3640018939
 20
16.4001828004
 11
42.3640018939
 21
16.8001828001
  0
LINE
  5
285
100
AcDbEntity
  8
0
100
AcDbLine
 62
7
  6
BYLAYER
 10
42.8446828683
 20
16.8001828001
 11
42.8446828683
 21
17.4001828001
  0
LINE
  5
286
100
AcDbEntity
  8
0
100
AcDbLine
 62
7
  6
BYLAYER
 10
42.2762624589
 20
11.3735939337
 11
42.3640018939
 21
16.4001828004
  0
LINE
  5
287
100
AcDbEntity
  8
0
100
AcDbLine
 62
7
  6
BYLAYER
 10
26.8640018939
 20
53.7532750341
 11
31.8640018939
 21
53.7532750341
  0
LINE
  5
288
100
AcDbEntity
  8
0
100
AcDbLine
 62
7
  6
BYLAYER
 10
43.90534304
 20
17.4001828001
 11
43.90534304
 21
16.8001828001
  0
LINE
  5
289
100
AcDbEntity
  8
0
100
AcDbLine
 62
7
  6
BYLAYER
 10
44.0640018939
 20
16.8001828001
 11
44.0640018939
 21
17.4001828001
  0
LINE
  5
28A
100
AcDbEntity
  8
0
100
AcDbLine
 62
7
  6
BYLAYER
 10
44.8640975241
 20
17.4001828001
 11
44.864101185
 21
23.9001828001
  0
LINE
  5
28B
100
AcDbEntity
  8
0
100
AcDbLine
 62
7
  6
BYLAYER
 10
45.5140018939
 20
23.9001828001
 11
45.5140018939
 21
45.8001828001
  0
LINE
  5
28C
100
AcDbEntity
  8
0
100
AcDbLine
 62
7
  6
BYLAYER
 10
45.5640018939
 20
17.4001828001
 11
45.5640018939
 21
23.9001828001
  0
LINE
  5
28D
100
AcDbEntity
  8
0
100
AcDbLine
 62
7
  6
BYLAYER
 10
34.0640018939
 20
58.2532750341
 11
33.0640018939
 21
58.2532750341
  0
LINE
  5
28E
100
AcDbEntity
  8
0
100
AcDbLine
 62
7
  6
BYLAYER
 10
31.8640018939
 20
58.7532750341
 11
32.3640018939
 21
58.7532750341
  0
LINE
  5
28F
100
AcDbEntity
  8
0
100
AcDbLine
 62
7
  6
BYLAYER
 10
42.2093513132
 20
11.1323201369
 11
42.2762624589
 21
11.3735939337
  0
LINE
  5
290
100
AcDbEntity
  8
0
100
AcDbLine
 62
7
  6
BYLAYER
 10
33.0640018939
 20
60.2632750341
 11
32.3640018939
 21
60.2632750341
  0
LINE
  5
291
100
AcDbEntity
  8
0
100
AcDbLine
 62
7
  6
BYLAYER
 10
24.8640018939
 20
61.2032750341
 11
23.3640018939
 21
61.2032750341
  0
LINE
  5
292
100
AcDbEntity
  8
0
100
AcDbLine
 62
7
  6
BYLAYER
 10
24.8640018939
 20
62.9471255305
 11
26.8640018939
 21
62.9471255305
  0
LINE
  5
293
100
AcDbEntity
  8
0
100
AcDbLine
 62
7
  6
BYLAYER
 10
34.5640018939
 20
67.7532750341
 11
34.0640018939
 21
68.2532750341
  0
LINE
  5
294
100
AcDbEntity
  8
0
100
AcDbLine
 62
7
  6
BYLAYER
 10
41.6423140574
 20
10.1501828001
 11
42.2093513132
 21
11.1323201369
  0
LINE
  5
295
100
AcDbEntity
  8
0
100
AcDbLine
 62
7
  6
BYLAYER
 10
24.8640018939
 20
65.3032750341
 11
23.3640018939
 21
65.3032750341
  0
LINE
  5
296
100
AcDbEntity
  8
0
100
AcDbLine
 62
7
  6
BYLAYER
 10
33.0640018939
 20
66.2432750341
 11
32.3640018939
 21
66.2432750341
  0
LINE
  5
297
100
AcDbEntity
  8
0
100
AcDbLine
 62
7
  6
BYLAYER
 10
31.8640018939
 20
67.7532750341
 11
32.3640018939
 21
67.7532750341
  0
LINE
  5
298
100
AcDbEntity
  8
0
100
AcDbLine
 62
7
  6
BYLAYER
 10
34.0640018939
 20
68.2532750341
 11
33.0640018939
 21
68.2532750341
  0
LINE
  5
299
100
AcDbEntity
  8
0
100
AcDbLine
 62
7
  6
BYLAYER
 10
26.8640018939
 20
68.2532750341
 11
24.8640018939
 21
68.2532750341
  0
LINE
  5
29A
100
AcDbEntity
  8
0
100
AcDbLine
 62
7
  6
BYLAYER
 10
26.8640018939
 20
72.7532750341
 11
31.8640018939
 21
72.7532750341
  0
ARC
  5
29B
100
AcDbEntity
  8
0
100
AcDbCircle
 62
7
  6
BYLAYER
 10
23.1250319544
 20
61.8042785991
 40
26.7738138047
100
AcDbArc
 50
264.0808914161
 51
264.7259713417
  0
ARC
  5
29C
100
AcDbEntity
  8
0
100
AcDbCircle
 62
7
  6
BYLAYER
 10
22.8783083843
 20
11.3251791393
 40
24.2439644095
100
AcDbArc
 50
95.2403713104
 51
95.9527659319
  0
ARC
  5
29D
100
AcDbEntity
  8
0
100
AcDbCircle
 62
7
  6
BYLAYER
 10
27.505205875
 20
11.9466112254
 40
2.5017962899
100
AcDbArc
 50
193.2769439572
 51
199.8662010958
  0
ARC
  5
29E
100
AcDbEntity
  8
0
100
AcDbCircle
 62
7
  6
BYLAYER
 10
41.2093013556
 20
10.4001828001
 40
0.5
100
AcDbArc
 50
270.0
 51
330.0
  0
ARC
  5
29F
100
AcDbEntity
  8
0
100
AcDbCircle
 62
7
  6
BYLAYER
 10
22.9187024323
 20
10.4001828001
 40
0.5
100
AcDbArc
 50
210.0
 51
270.0
  0
SPLINE
  5
2A0
100
AcDbEntity
  8
0
100
AcDbSpline
 62
7
  6
BYLAYER
 70
0
 71
3
 72
19
 73
15
 74
0
 42
0.0000001
 43
0.0000001
 44
0.0000000001
 40
0.0
 40
0.0
 40
0.0
 40
0.0
 40
0.1307723045
 40
0.2571511151
 40
0.3188552458
 40
0.3797385092
 40
0.4400271422
 40
0.5000014919
 40
0.5599759069
 40
0.6202640901
 40
0.681147172
 40
0.7428509158
 40
0.869228687
 40
1.0
 40
1.0
 40
1.0
 40
1.0
 10
15.6258821093
 20
40.3001828001
 30
0.0
 10
15.579729655
 20
40.3801211958
 30
0.0
 10
15.4949686746
 20
40.5409183432
 30
0.0
 10
15.4111243356
 20
40.7504183362
 30
0.0
 10
15.3625805322
 20
40.9194540092
 30
0.0
 10
15.3361915354
 20
41.0459416327
 30
0.0
 10
15.3200883679
 20
41.1729287834
 30
0.0
 10
15.3146956111
 20
41.300186071
 30
0.0
 10
15.3200871118
 20
41.4274432532
 30
0.0
 10
15.3361937419
 20
41.5544294835
 30
0.0
 10
15.3625792028
 20
41.680917099
 30
0.0
 10
15.4111270774
 20
41.8499505266
 30
0.0
 10
15.4949691163
 20
42.059449296
 30
0.0
 10
15.5797300049
 20
42.2202450105
 30
0.0
 10
15.6258821093
 20
42.3001828001
 30
0.0
  0
SPLINE
  5
2A1
100
AcDbEntity
  8
0
100
AcDbSpline
 62
7
  6
BYLAYER
 70
0
 71
3
 72
11
 73
7
 74
0
 42
0.0000001
 43
0.0000001
 44
0.0000000001
 40
0.0
 40
0.0
 40
0.0
 40
0.0
 40
0.2499913686
 40
0.4999857266
 40
0.7499885435
 40
1.0
 40
1.0
 40
1.0
 40
1.0
 10
15.3164810325
 20
38.3001828001
 30
0.0
 10
15.3164810325
 20
38.4693610984
 30
0.0
 10
15.3309148119
 20
38.8078851576
 30
0.0
 10
15.393860443
 20
39.3119983266
 30
0.0
 10
15.4929844691
 20
39.8101592433
 30
0.0
 10
15.5789567213
 20
40.1376284879
 30
0.0
 10
15.6258821093
 20
40.3001828001
 30
0.0
  0
SPLINE
  5
2A2
100
AcDbEntity
  8
0
100
AcDbSpline
 62
7
  6
BYLAYER
 70
0
 71
3
 72
11
 73
7
 74
0
 42
0.0000001
 43
0.0000001
 44
0.0000000001
 40
0.0
 40
0.0
 40
0.0
 40
0.0
 40
0.250011602
 40
0.5000143442
 40
0.7500087087
 40
1.0
 40
1.0
 40
1.0
 40
1.0
 10
15.6258821093
 20
36.3001828001
 30
0.0
 10
15.5789566934
 20
36.4627372092
 30
0.0
 10
15.4929835481
 20
36.7902062796
 30
0.0
 10
15.3938603652
 20
37.2883674576
 30
0.0
 10
15.3309151381
 20
37.7924805494
 30
0.0
 10
15.3164810325
 20
38.1310045519
 30
0.0
 10
15.3164810325
 20
38.3001828001
 30
0.0
  0
SPLINE
  5
2A3
100
AcDbEntity
  8
0
100
AcDbSpline
 62
7
  6
BYLAYER
 70
0
 71
3
 72
19
 73
15
 74
0
 42
0.0000001
 43
0.0000001
 44
0.0000000001
 40
0.0
 40
0.0
 40
0.0
 40
0.0
 40
0.1307723045
 40
0.2571511151
 40
0.3188552458
 40
0.3797385092
 40
0.4400271422
 40
0.5000014919
 40
0.5599759069
 40
0.6202640901
 40
0.681147172
 40
0.7428509158
 40
0.869228687
 40
1.0
 40
1.0
 40
1.0
 40
1.0
 10
15.6258821093
 20
34.3001828001
 30
0.0
 10
15.579729655
 20
34.3801211958
 30
0.0
 10
15.4949686746
 20
34.5409183432
 30
0.0
 10
15.4111243356
 20
34.7504183362
 30
0.0
 10
15.3625805322
 20
34.9194540092
 30
0.0
 10
15.3361915354
 20
35.0459416327
 30
0.0
 10
15.3200883679
 20
35.1729287834
 30
0.0
 10
15.3146956111
 20
35.300186071
 30
0.0
 10
15.3200871118
 20
35.4274432532
 30
0.0
 10
15.3361937419
 20
35.5544294835
 30
0.0
 10
15.3625792028
 20
35.680917099
 30
0.0
 10
15.4111270774
 20
35.8499505266
 30
0.0
 10
15.4949691163
 20
36.059449296
 30
0.0
 10
15.5797300049
 20
36.2202450105
 30
0.0
 10
15.6258821093
 20
36.3001828001
 30
0.0
  0
SPLINE
  5
2A4
100
AcDbEntity
  8
0
100
AcDbSpline
 62
7
  6
BYLAYER
 70
0
 71
3
 72
19
 73
15
 74
0
 42
0.0000001
 43
0.0000001
 44
0.0000000001
 40
0.0
 40
0.0
 40
0.0
 40
0.0
 40
0.1307723242
 40
0.2571511129
 40
0.3188552547
 40
0.3797385161
 40
0.4400271435
 40
0.5000014946
 40
0.5599759075
 40
0.6202640939
 40
0.6811471796
 40
0.7428509133
 40
0.8692287029
 40
1.0
 40
1.0
 40
1.0
 40
1.0
 10
17.4021216786
 20
36.3001828001
 30
0.0
 10
17.4482741398
 20
36.2202443924
 30
0.0
 10
17.5330353325
 20
36.0594473457
 30
0.0
 10
17.6168793386
 20
35.8499472151
 30
0.0
 10
17.6654232998
 20
35.6809116031
 30
0.0
 10
17.691812295
 20
35.5544239694
 30
0.0
 10
17.7079153087
 20
35.4274368061
 30
0.0
 10
17.7133081658
 20
35.3001795341
 30
0.0
 10
17.7079167996
 20
35.1729223388
 30
0.0
 10
17.6918100264
 20
35.0459361184
 30
0.0
 10
17.6654245023
 20
34.9194485261
 30
0.0
 10
17.6168768234
 20
34.7504150295
 30
0.0
 10
17.533034477
 20
34.540916383
 30
0.0
 10
17.4482737773
 20
34.38012058
 30
0.0
 10
17.4021216786
 20
34.3001828001
 30
0.0
  0
SPLINE
  5
2A5
100
AcDbEntity
  8
0
100
AcDbSpline
 62
7
  6
BYLAYER
 70
0
 71
3
 72
11
 73
7
 74
0
 42
0.0000001
 43
0.0000001
 44
0.0000000001
 40
0.0
 40
0.0
 40
0.0
 40
0.0
 40
0.2499913545
 40
0.4999857241
 40
0.7499884402
 40
1.0
 40
1.0
 40
1.0
 40
1.0
 10
17.7115227553
 20
38.3001828001
 30
0.0
 10
17.7115227553
 20
38.1310045092
 30
0.0
 10
17.6970886501
 20
37.7924804602
 30
0.0
 10
17.6341434026
 20
37.2883673417
 30
0.0
 10
17.5350202068
 20
36.7902062107
 30
0.0
 10
17.4490470866
 20
36.4627371817
 30
0.0
 10
17.4021216786
 20
36.3001828001
 30
0.0
  0
SPLINE
  5
2A6
100
AcDbEntity
  8
0
100
AcDbSpline
 62
7
  6
BYLAYER
 70
0
 71
3
 72
11
 73
7
 74
0
 42
0.0000001
 43
0.0000001
 44
0.0000000001
 40
0.0
 40
0.0
 40
0.0
 40
0.0
 40
0.2500114931
 40
0.5000143325
 40
0.7500086862
 40
1.0
 40
1.0
 40
1.0
 40
1.0
 10
17.4021216786
 20
40.3001828001
 30
0.0
 10
17.4490470734
 20
40.137628464
 30
0.0
 10
17.5350193447
 20
39.810159183
 30
0.0
 10
17.6341433693
 20
39.3119982274
 30
0.0
 10
17.697088975
 20
38.8078850802
 30
0.0
 10
17.7115227553
 20
38.4693610614
 30
0.0
 10
17.7115227553
 20
38.3001828001
 30
0.0
  0
SPLINE
  5
2A7
100
AcDbEntity
  8
0
100
AcDbSpline
 62
7
  6
BYLAYER
 70
0
 71
3
 72
19
 73
15
 74
0
 42
0.0000001
 43
0.0000001
 44
0.0000000001
 40
0.0
 40
0.0
 40
0.0
 40
0.0
 40
0.1307723242
 40
0.2571511129
 40
0.3188552547
 40
0.3797385161
 40
0.4400271435
 40
0.5000014946
 40
0.5599759075
 40
0.6202640939
 40
0.6811471796
 40
0.7428509133
 40
0.8692287029
 40
1.0
 40
1.0
 40
1.0
 40
1.0
 10
17.4021216786
 20
42.3001828001
 30
0.0
 10
17.4482741398
 20
42.2202443924
 30
0.0
 10
17.5330353325
 20
42.0594473457
 30
0.0
 10
17.6168793386
 20
41.8499472151
 30
0.0
 10
17.6654232998
 20
41.6809116031
 30
0.0
 10
17.691812295
 20
41.5544239694
 30
0.0
 10
17.7079153087
 20
41.4274368061
 30
0.0
 10
17.7133081658
 20
41.3001795341
 30
0.0
 10
17.7079167996
 20
41.1729223388
 30
0.0
 10
17.6918100264
 20
41.0459361184
 30
0.0
 10
17.6654245023
 20
40.9194485261
 30
0.0
 10
17.6168768234
 20
40.7504150295
 30
0.0
 10
17.533034477
 20
40.540916383
 30
0.0
 10
17.4482737773
 20
40.38012058
 30
0.0
 10
17.4021216786
 20
40.3001828001
 30
0.0
  0
LINE
  5
2A8
100
AcDbEntity
  8
0
100
AcDbLine
 62
7
  6
BYLAYER
 10
25.2524274127
 20
11.1323201369
 11
25.6539236809
 21
10.1501250267
  0
SPLINE
  5
2A9
100
AcDbEntity
  8
0
100
AcDbSpline
 62
7
  6
BYLAYER
 70
0
 71
3
 72
9
 73
5
 74
0
 42
0.0000001
 43
0.0000001
 44
0.0000000001
 40
0.0
 40
0.0
 40
0.0
 40
0.0
 40
0.2559025221
 40
1.0
 40
1.0
 40
1.0
 40
1.0
 10
25.2050569016
 20
11.3735939337
 30
0.0
 10
25.205316896
 20
11.3525543918
 30
0.0
 10
25.2099952936
 20
11.2704527861
 30
0.0
 10
25.229278626
 20
11.1889539485
 30
0.0
 10
25.2524274127
 20
11.1323201369
 30
0.0
  0
SPLINE
  5
2AA
100
AcDbEntity
  8
0
100
AcDbSpline
 62
7
  6
BYLAYER
 70
0
 71
3
 72
11
 73
7
 74
0
 42
0.0000001
 43
0.0000001
 44
0.0000000001
 40
0.0
 40
0.0
 40
0.0
 40
0.0
 40
0.2228371202
 40
0.459389897
 40
0.7180109466
 40
1.0
 40
1.0
 40
1.0
 40
1.0
 10
25.9605711064
 20
9.9001828001
 30
0.0
 10
25.9295150791
 20
9.9001828001
 30
0.0
 10
25.8649630299
 20
9.9125287988
 30
0.0
 10
25.7778592843
 20
9.9651537514
 30
0.0
 10
25.7045428744
 20
10.0465863228
 30
0.0
 10
25.6687949959
 20
10.1137475583
 30
0.0
 10
25.6539236809
 20
10.1501250267
 30
0.0
  0
SPLINE
  5
2AB
100
AcDbEntity
  8
0
100
AcDbSpline
 62
7
  6
BYLAYER
 70
0
 71
3
 72
13
 73
9
 74
0
 42
0.0000001
 43
0.0000001
 44
0.0000000001
 40
0.0
 40
0.0
 40
0.0
 40
0.0
 40
0.1054162659
 40
0.2140069466
 40
0.3280324548
 40
0.4491240346
 40
0.712717878
 40
1.0
 40
1.0
 40
1.0
 40
1.0
 10
26.7149479072
 20
6.5501828001
 30
0.0
 10
26.6943175181
 20
6.5501828001
 30
0.0
 10
26.6522679052
 20
6.5554169397
 30
0.0
 10
26.5917684011
 20
6.5784919631
 30
0.0
 10
26.5353615237
 20
6.6160664043
 30
0.0
 10
26.4659632397
 20
6.685441926
 30
0.0
 10
26.39938182
 20
6.8015318514
 30
0.0
 10
26.3729396473
 20
6.9074030375
 30
0.0
 10
26.365971922
 20
6.9631918774
 30
0.0
  0
LINE
  5
2AC
100
AcDbEntity
  8
0
100
AcDbLine
 62
7
  6
BYLAYER
 10
24.9678129177
 20
9.9001828001
 11
25.3363541591
 21
6.9633587113
  0
LINE
  5
2AD
100
AcDbEntity
  8
0
100
AcDbLine
 62
7
  6
BYLAYER
 10
25.9991932431
 20
9.9001828001
 11
26.365971922
 21
6.9631918774
  0
LINE
  5
2AE
100
AcDbEntity
  8
0
100
AcDbLine
 62
7
  6
BYLAYER
 10
38.7916496288
 20
6.9633587113
 11
39.1601908701
 21
9.9001828001
  0
SPLINE
  5
2AF
100
AcDbEntity
  8
0
100
AcDbSpline
 62
7
  6
BYLAYER
 70
0
 71
3
 72
13
 73
9
 74
0
 42
0.0000001
 43
0.0000001
 44
0.0000000001
 40
0.0
 40
0.0
 40
0.0
 40
0.0
 40
0.2873512054
 40
0.5508418367
 40
0.6718641929
 40
0.7858732948
 40
0.8945137053
 40
1.0
 40
1.0
 40
1.0
 40
1.0
 10
38.7916496288
 20
6.9633587113
 30
0.0
 10
38.7846285901
 20
6.9074315632
 30
0.0
 10
38.7580405784
 20
6.8013216262
 30
0.0
 10
38.6909133344
 20
6.6851816127
 30
0.0
 10
38.6211180085
 20
6.6159391777
 30
0.0
 10
38.5644765988
 20
6.5784560169
 30
0.0
 10
38.5037862915
 20
6.5554254489
 30
0.0
 10
38.4616187439
 20
6.5501828001
 30
0.0
 10
38.440926802
 20
6.5501828001
 30
0.0
  0
SPLINE
  5
2B0
100
AcDbEntity
  8
0
100
AcDbSpline
 62
7
  6
BYLAYER
 70
0
 71
3
 72
13
 73
9
 74
0
 42
0.0000001
 43
0.0000001
 44
0.0000000001
 40
0.0
 40
0.0
 40
0.0
 40
0.0
 40
0.1054869723
 40
0.2141282166
 40
0.328136856
 40
0.4491581316
 40
0.7126468478
 40
1.0
 40
1.0
 40
1.0
 40
1.0
 10
25.6870769859
 20
6.5501828001
 30
0.0
 10
25.6663849113
 20
6.5501828001
 30
0.0
 10
25.6242171292
 20
6.5554258581
 30
0.0
 10
25.5635265059
 20
6.5784561422
 30
0.0
 10
25.5068854062
 20
6.6159395597
 30
0.0
 10
25.4370904485
 20
6.6851813557
 30
0.0
 10
25.3699635489
 20
6.801321335
 30
0.0
 10
25.3433752452
 20
6.9074311849
 30
0.0
 10
25.3363541591
 20
6.9633587113
 30
0.0
  0
LINE
  5
2B1
100
AcDbEntity
  8
0
100
AcDbLine
 62
7
  6
BYLAYER
 10
24.9468168997
 20
10.1501250266
 11
24.5453206315
 21
11.1323201369
  0
SPLINE
  5
2B2
100
AcDbEntity
  8
0
100
AcDbSpline
 62
7
  6
BYLAYER
 70
0
 71
3
 72
9
 73
5
 74
0
 42
0.0000001
 43
0.0000001
 44
0.0000000001
 40
0.0
 40
0.0
 40
0.0
 40
0.0
 40
0.5000010706
 40
1.0
 40
1.0
 40
1.0
 40
1.0
 10
24.7454467087
 20
16.4041098906
 30
0.0
 10
24.7807999535
 20
16.4045672731
 30
0.0
 10
24.851510935
 20
16.4050810631
 30
0.0
 10
24.9222226916
 20
16.4054125397
 30
0.0
 10
24.957578743
 20
16.4054189208
 30
0.0
  0
SPLINE
  5
2B3
100
AcDbEntity
  8
0
100
AcDbSpline
 62
7
  6
BYLAYER
 70
0
 71
3
 72
9
 73
5
 74
0
 42
0.0000001
 43
0.0000001
 44
0.0000000001
 40
0.0
 40
0.0
 40
0.0
 40
0.0
 40
0.2473973887
 40
1.0
 40
1.0
 40
1.0
 40
1.0
 10
24.8636455443
 20
11.3243846909
 30
0.0
 10
24.8539104885
 20
11.3654611501
 30
0.0
 10
24.8193184243
 20
11.5325942688
 30
0.0
 10
24.8034638348
 20
11.7035483679
 30
0.0
 10
24.8018789286
 20
11.8319578475
 30
0.0
  0
SPLINE
  5
2B4
100
AcDbEntity
  8
0
100
AcDbSpline
 62
7
  6
BYLAYER
 70
0
 71
3
 72
12
 73
8
 74
0
 42
0.0000001
 43
0.0000001
 44
0.0000000001
 40
0.0
 40
0.0
 40
0.0
 40
0.0
 40
0.2306715432
 40
0.4751082107
 40
0.6022765456
 40
0.7324128075
 40
1.0
 40
1.0
 40
1.0
 40
1.0
 10
25.4872916479
 20
10.1952263221
 30
0.0
 10
25.4126146697
 20
10.2626200694
 30
0.0
 10
25.2719026213
 20
10.4163998617
 30
0.0
 10
25.1282206273
 20
10.6375035404
 30
0.0
 10
25.0296111325
 20
10.8330021498
 30
0.0
 10
24.9411148064
 20
11.044252894
 30
0.0
 10
24.8905552981
 20
11.2108406672
 30
0.0
 10
24.8636455443
 20
11.3243846909
 30
0.0
  0
SPLINE
  5
2B5
100
AcDbEntity
  8
0
100
AcDbSpline
 62
7
  6
BYLAYER
 70
0
 71
3
 72
10
 73
6
 74
0
 42
0.0000001
 43
0.0000001
 44
0.0000000001
 40
0.0
 40
0.0
 40
0.0
 40
0.0
 40
0.269270299
 40
0.5285874272
 40
1.0
 40
1.0
 40
1.0
 40
1.0
 10
25.5978851391
 20
9.9609596623
 30
0.0
 10
25.5949593061
 20
9.9844260238
 30
0.0
 10
25.5857912577
 20
10.0301943767
 30
0.0
 10
25.5554950798
 20
10.1127262637
 30
0.0
 10
25.5180268011
 20
10.1674887623
 30
0.0
 10
25.4872916479
 20
10.1952263221
 30
0.0
  0
SPLINE
  5
2B6
100
AcDbEntity
  8
0
100
AcDbSpline
 62
7
  6
BYLAYER
 70
0
 71
3
 72
13
 73
9
 74
0
 42
0.0000001
 43
0.0000001
 44
0.0000000001
 40
0.0
 40
0.0
 40
0.0
 40
0.0
 40
0.1052922677
 40
0.2139664568
 40
0.3280699898
 40
0.4491129295
 40
0.7127626576
 40
1.0
 40
1.0
 40
1.0
 40
1.0
 10
26.1450406427
 20
7.0001828001
 30
0.0
 10
26.1326872172
 20
7.0001828001
 30
0.0
 10
26.107488842
 20
7.0033883215
 30
0.0
 10
26.0712344023
 20
7.0172665485
 30
0.0
 10
26.0374529945
 20
7.0398704845
 30
0.0
 10
25.9958851578
 20
7.0815077582
 30
0.0
 10
25.956070033
 20
7.1511645013
 30
0.0
 10
25.9403008889
 20
7.2146471273
 30
0.0
 10
25.9361313706
 20
7.2480883468
 30
0.0
  0
SPLINE
  5
2B7
100
AcDbEntity
  8
0
100
AcDbSpline
 62
7
  6
BYLAYER
 70
0
 71
3
 72
13
 73
9
 74
0
 42
0.0000001
 43
0.0000001
 44
0.0000000001
 40
0.0
 40
0.0
 40
0.0
 40
0.0
 40
0.2872822851
 40
0.5508761578
 40
0.6719677279
 40
0.785993188
 40
0.8945837796
 40
1.0
 40
1.0
 40
1.0
 40
1.0
 10
25.6588651313
 20
6.963191954
 30
0.0
 10
25.665832861
 20
6.9074030781
 30
0.0
 10
25.692275037
 20
6.8015318437
 30
0.0
 10
25.7588564894
 20
6.6854418822
 30
0.0
 10
25.8282547831
 20
6.6160663653
 30
0.0
 10
25.8846616471
 20
6.5784919511
 30
0.0
 10
25.9451611144
 20
6.5554169141
 30
0.0
 10
25.987210708
 20
6.5501828001
 30
0.0
 10
26.0078410898
 20
6.5501828001
 30
0.0
  0
LINE
  5
2B8
100
AcDbEntity
  8
0
100
AcDbLine
 62
7
  6
BYLAYER
 10
35.5207266195
 20
6.9633587113
 11
35.8395665967
 21
9.487006889
  0
LINE
  5
2B9
100
AcDbEntity
  8
0
100
AcDbLine
 62
7
  6
BYLAYER
 10
28.2884371912
 20
9.487006889
 11
28.6072771684
 21
6.9633587113
  0
SPLINE
  5
2BA
100
AcDbEntity
  8
0
100
AcDbSpline
 62
7
  6
BYLAYER
 70
0
 71
3
 72
11
 73
7
 74
0
 42
0.0000001
 43
0.0000001
 44
0.0000000001
 40
0.0
 40
0.0
 40
0.0
 40
0.0
 40
0.2819890534
 40
0.540610103
 40
0.7771628798
 40
1.0
 40
1.0
 40
1.0
 40
1.0
 10
24.9468168997
 20
10.1501250266
 30
0.0
 10
24.9616882147
 20
10.1137475582
 30
0.0
 10
24.9974360932
 20
10.0465863228
 30
0.0
 10
25.0707525032
 20
9.9651537514
 30
0.0
 10
25.1578562488
 20
9.9125287988
 30
0.0
 10
25.2224082979
 20
9.9001828001
 30
0.0
 10
25.2534643252
 20
9.9001828001
 30
0.0
  0
SPLINE
  5
2BB
100
AcDbEntity
  8
0
100
AcDbSpline
 62
7
  6
BYLAYER
 70
0
 71
3
 72
13
 73
9
 74
0
 42
0.0000001
 43
0.0000001
 44
0.0000000001
 40
0.0
 40
0.0
 40
0.0
 40
0.0
 40
0.2870575551
 40
0.5535849332
 40
0.6754531349
 40
0.7893507534
 40
0.8967447786
 40
1.0
 40
1.0
 40
1.0
 40
1.0
 10
26.1450406427
 20
7.0001828001
 30
0.0
 10
26.1450406427
 20
7.0195053111
 30
0.0
 10
26.1500734478
 20
7.0569565386
 30
0.0
 10
26.1691665199
 20
7.0992031063
 30
0.0
 10
26.1911947102
 20
7.1251210049
 30
0.0
 10
26.2096649666
 20
7.1393348738
 30
0.0
 10
26.2299122237
 20
7.1481299833
 30
0.0
 10
26.244156311
 20
7.1501828001
 30
0.0
 10
26.2511066599
 20
7.1501828001
 30
0.0
  0
SPLINE
  5
2BC
100
AcDbEntity
  8
0
100
AcDbSpline
 62
7
  6
BYLAYER
 70
0
 71
3
 72
11
 73
7
 74
0
 42
0.0000001
 43
0.0000001
 44
0.0000000001
 40
0.0
 40
0.0
 40
0.0
 40
0.0
 40
0.2286317406
 40
0.4984452907
 40
0.7690687819
 40
1.0
 40
1.0
 40
1.0
 40
1.0
 10
26.1466520239
 20
7.2741355735
 30
0.0
 10
26.1304582505
 20
7.2741355735
 30
0.0
 10
26.0951613231
 20
7.272380991
 30
0.0
 10
26.0409469075
 20
7.2669375987
 30
0.0
 10
25.9868794235
 20
7.2589765728
 30
0.0
 10
25.9520020175
 20
7.252045915
 30
0.0
 10
25.9361313706
 20
7.2480883468
 30
0.0
  0
SPLINE
  5
2BD
100
AcDbEntity
  8
0
100
AcDbSpline
 62
7
  6
BYLAYER
 70
0
 71
3
 72
11
 73
7
 74
0
 42
0.0000001
 43
0.0000001
 44
0.0000000001
 40
0.0
 40
0.0
 40
0.0
 40
0.0
 40
0.2130075904
 40
0.4476459831
 40
0.7120137246
 40
1.0
 40
1.0
 40
1.0
 40
1.0
 10
26.2511066599
 20
7.1501828001
 30
0.0
 10
26.2386441291
 20
7.1501828001
 30
0.0
 10
26.2121561736
 20
7.15718046
 30
0.0
 10
26.1798165734
 20
7.1850759744
 30
0.0
 10
26.1566389738
 20
7.2256450377
 30
0.0
 10
26.1487366924
 20
7.2574156903
 30
0.0
 10
26.1466520239
 20
7.2741355735
 30
0.0
  0
SPLINE
  5
2BE
100
AcDbEntity
  8
0
100
AcDbSpline
 62
7
  6
BYLAYER
 70
0
 71
3
 72
11
 73
7
 74
0
 42
0.0000001
 43
0.0000001
 44
0.0000000001
 40
0.0
 40
0.0
 40
0.0
 40
0.0
 40
0.2205736805
 40
0.4788184092
 40
0.7476514128
 40
1.0
 40
1.0
 40
1.0
 40
1.0
 10
25.5978851391
 20
9.9609596623
 30
0.0
 10
25.61075772
 20
9.9641696207
 30
0.0
 10
25.638980154
 20
9.970009592
 30
0.0
 10
25.6833911931
 20
9.9771290026
 30
0.0
 10
25.7299461325
 20
9.9827338201
 30
0.0
 10
25.761204725
 20
9.9852555853
 30
0.0
 10
25.7763611843
 20
9.9860625025
 30
0.0
  0
SPLINE
  5
2BF
100
AcDbEntity
  8
0
100
AcDbSpline
 62
7
  6
BYLAYER
 70
0
 71
3
 72
10
 73
6
 74
0
 42
0.0000001
 43
0.0000001
 44
0.0000000001
 40
0.0
 40
0.0
 40
0.0
 40
0.0
 40
0.2472548451
 40
0.504853442
 40
1.0
 40
1.0
 40
1.0
 40
1.0
 10
25.4872916479
 20
10.1952263221
 30
0.0
 10
25.4925792211
 20
10.2069443229
 30
0.0
 10
25.505710999
 20
10.2298773758
 30
0.0
 10
25.5385080933
 20
10.2703225257
 30
0.0
 10
25.5701840378
 20
10.2950262022
 30
0.0
 10
25.5932224569
 20
10.3065159806
 30
0.0
  0
SPLINE
  5
2C0
100
AcDbEntity
  8
0
100
AcDbSpline
 62
7
  6
BYLAYER
 70
0
 71
3
 72
9
 73
5
 74
0
 42
0.0000001
 43
0.0000001
 44
0.0000000001
 40
0.0
 40
0.0
 40
0.0
 40
0.0
 40
0.4842605201
 40
1.0
 40
1.0
 40
1.0
 40
1.0
 10
25.5193342852
 20
10.4555160833
 30
0.0
 10
25.440745494
 20
10.5458377806
 30
0.0
 10
25.2983777173
 20
10.7502040777
 30
0.0
 10
25.1956746948
 20
10.9765366792
 30
0.0
 10
25.1522945995
 20
11.096438769
 30
0.0
  0
SPLINE
  5
2C1
100
AcDbEntity
  8
0
100
AcDbSpline
 62
7
  6
BYLAYER
 70
0
 71
3
 72
11
 73
7
 74
0
 42
0.0000001
 43
0.0000001
 44
0.0000000001
 40
0.0
 40
0.0
 40
0.0
 40
0.0
 40
0.2344725031
 40
0.5051587988
 40
0.7731434148
 40
1.0
 40
1.0
 40
1.0
 40
1.0
 10
24.8636455443
 20
11.3243846909
 30
0.0
 10
24.8787076625
 20
11.3315240873
 30
0.0
 10
24.9124184204
 20
11.3442108677
 30
0.0
 10
24.9654556681
 20
11.3588351813
 30
0.0
 10
25.0189981614
 20
11.3688428356
 30
0.0
 10
25.0541521056
 20
11.3720534238
 30
0.0
 10
25.0702791802
 20
11.3720534238
 30
0.0
  0
SPLINE
  5
2C2
100
AcDbEntity
  8
0
100
AcDbSpline
 62
7
  6
BYLAYER
 70
0
 71
3
 72
9
 73
5
 74
0
 42
0.0000001
 43
0.0000001
 44
0.0000000001
 40
0.0
 40
0.0
 40
0.0
 40
0.0
 40
0.4999842299
 40
1.0
 40
1.0
 40
1.0
 40
1.0
 10
25.0139948086
 20
11.8345757085
 30
0.0
 10
24.9786401228
 20
11.8345757085
 30
0.0
 10
24.9079299856
 20
11.8339148133
 30
0.0
 10
24.837225077
 20
11.8328303739
 30
0.0
 10
24.8018789286
 20
11.8319578475
 30
0.0
  0
SPLINE
  5
2C3
100
AcDbEntity
  8
0
100
AcDbSpline
 62
7
  6
BYLAYER
 70
0
 71
3
 72
9
 73
5
 74
0
 42
0.0000001
 43
0.0000001
 44
0.0000000001
 40
0.0
 40
0.0
 40
0.0
 40
0.0
 40
0.2473973782
 40
1.0
 40
1.0
 40
1.0
 40
1.0
 10
25.0702791802
 20
11.3720534238
 30
0.0
 10
25.0614081829
 20
11.4094840423
 30
0.0
 10
25.0298862816
 20
11.5617828346
 30
0.0
 10
25.0154390426
 20
11.7175635169
 30
0.0
 10
25.0139948086
 20
11.8345757085
 30
0.0
  0
LINE
  5
2C4
100
AcDbEntity
  8
0
100
AcDbLine
 62
7
  6
BYLAYER
 10
26.7505677214
 20
6.9633587113
 11
26.3820264801
 21
9.9001828001
  0
SPLINE
  5
2C5
100
AcDbEntity
  8
0
100
AcDbSpline
 62
7
  6
BYLAYER
 70
0
 71
3
 72
13
 73
9
 74
0
 42
0.0000001
 43
0.0000001
 44
0.0000000001
 40
0.0
 40
0.0
 40
0.0
 40
0.0
 40
0.2874033106
 40
0.5507991206
 40
0.6717795137
 40
0.7857828752
 40
0.8944573436
 40
1.0
 40
1.0
 40
1.0
 40
1.0
 10
28.2884371912
 20
9.487006889
 30
0.0
 10
28.281365393
 20
9.543032812
 30
0.0
 10
28.254565719
 20
9.6492897023
 30
0.0
 10
28.1869996417
 20
9.76542341
 30
0.0
 10
28.1169111068
 20
9.8345600948
 30
0.0
 10
28.0600913801
 20
9.8719681642
 30
0.0
 10
27.9992535594
 20
9.8949490638
 30
0.0
 10
27.9569993548
 20
9.9001828001
 30
0.0
 10
27.9362617935
 20
9.9001828001
 30
0.0
  0
SPLINE
  5
2C6
100
AcDbEntity
  8
0
100
AcDbSpline
 62
7
  6
BYLAYER
 70
0
 71
3
 72
13
 73
9
 74
0
 42
0.0000001
 43
0.0000001
 44
0.0000000001
 40
0.0
 40
0.0
 40
0.0
 40
0.0
 40
0.1055954589
 40
0.2142795942
 40
0.3282449667
 40
0.449165842
 40
0.7124981279
 40
1.0
 40
1.0
 40
1.0
 40
1.0
 10
28.9609030229
 20
6.5501828001
 30
0.0
 10
28.9401147675
 20
6.5501828001
 30
0.0
 10
28.8977679531
 20
6.5553723739
 30
0.0
 10
28.8367446431
 20
6.5782193918
 30
0.0
 10
28.7796998944
 20
6.615492684
 30
0.0
 10
28.7092720459
 20
6.6845159409
 30
0.0
 10
28.6413128659
 20
6.8007420309
 30
0.0
 10
28.6143785926
 20
6.907206363
 30
0.0
 10
28.6072771684
 20
6.9633587113
 30
0.0
  0
SPLINE
  5
2C7
100
AcDbEntity
  8
0
100
AcDbSpline
 62
7
  6
BYLAYER
 70
0
 71
3
 72
13
 73
9
 74
0
 42
0.0000001
 43
0.0000001
 44
0.0000000001
 40
0.0
 40
0.0
 40
0.0
 40
0.0
 40
0.2873512054
 40
0.5508418367
 40
0.6718641929
 40
0.7858732948
 40
0.8945137053
 40
1.0
 40
1.0
 40
1.0
 40
1.0
 10
26.7505677214
 20
6.9633587113
 30
0.0
 10
26.7575887601
 20
6.9074315632
 30
0.0
 10
26.7841767718
 20
6.8013216262
 30
0.0
 10
26.8513040158
 20
6.6851816127
 30
0.0
 10
26.9210993418
 20
6.6159391777
 30
0.0
 10
26.9777407515
 20
6.5784560169
 30
0.0
 10
27.0384310588
 20
6.5554254489
 30
0.0
 10
27.0805986064
 20
6.5501828001
 30
0.0
 10
27.1012905483
 20
6.5501828001
 30
0.0
  0
SPLINE
  5
2C8
100
AcDbEntity
  8
0
100
AcDbSpline
 62
7
  6
BYLAYER
 70
0
 71
3
 72
13
 73
9
 74
0
 42
0.0000001
 43
0.0000001
 44
0.0000000001
 40
0.0
 40
0.0
 40
0.0
 40
0.0
 40
0.1054869723
 40
0.2141282166
 40
0.328136856
 40
0.4491581316
 40
0.7126468478
 40
1.0
 40
1.0
 40
1.0
 40
1.0
 10
37.0267132396
 20
6.5501828001
 30
0.0
 10
37.0474053142
 20
6.5501828001
 30
0.0
 10
37.0895730963
 20
6.5554258581
 30
0.0
 10
37.1502637196
 20
6.5784561422
 30
0.0
 10
37.2069048193
 20
6.6159395597
 30
0.0
 10
37.276699777
 20
6.6851813557
 30
0.0
 10
37.3438266766
 20
6.801321335
 30
0.0
 10
37.3704149803
 20
6.9074311849
 30
0.0
 10
37.3774360664
 20
6.9633587113
 30
0.0
  0
SPLINE
  5
2C9
100
AcDbEntity
  8
0
100
AcDbSpline
 62
7
  6
BYLAYER
 70
0
 71
3
 72
13
 73
9
 74
0
 42
0.0000001
 43
0.0000001
 44
0.0000000001
 40
0.0
 40
0.0
 40
0.0
 40
0.0
 40
0.2875002892
 40
0.5508344458
 40
0.6717563247
 40
0.7857220342
 40
0.894405236
 40
1.0
 40
1.0
 40
1.0
 40
1.0
 10
35.5207266195
 20
6.9633587113
 30
0.0
 10
35.5136252343
 20
6.9072066717
 30
0.0
 10
35.4866911867
 20
6.8007422111
 30
0.0
 10
35.418731665
 20
6.6845160103
 30
0.0
 10
35.3483033754
 20
6.6154922572
 30
0.0
 10
35.2912583968
 20
6.5782192219
 30
0.0
 10
35.2302354398
 20
6.5553719406
 30
0.0
 10
35.1878888837
 20
6.5501828001
 30
0.0
 10
35.1671007649
 20
6.5501828001
 30
0.0
  0
SPLINE
  5
2CA
100
AcDbEntity
  8
0
100
AcDbSpline
 62
7
  6
BYLAYER
 70
0
 71
3
 72
13
 73
9
 74
0
 42
0.0000001
 43
0.0000001
 44
0.0000000001
 40
0.0
 40
0.0
 40
0.0
 40
0.0
 40
0.1055432913
 40
0.2142184192
 40
0.3282210968
 40
0.4492002238
 40
0.7125938762
 40
1.0
 40
1.0
 40
1.0
 40
1.0
 10
36.1917419944
 20
9.9001828001
 30
0.0
 10
36.1710043068
 20
9.9001828001
 30
0.0
 10
36.1287499015
 20
9.8949486877
 30
0.0
 10
36.0679118501
 20
9.8719680748
 30
0.0
 10
36.0110925089
 20
9.8345598383
 30
0.0
 10
35.9410043728
 20
9.7654239534
 30
0.0
 10
35.8734381901
 20
9.6492903987
 30
0.0
 10
35.8466384646
 20
9.5430333643
 30
0.0
 10
35.8395665967
 20
9.487006889
 30
0.0
  0
LINE
  5
2CB
100
AcDbEntity
  8
0
100
AcDbLine
 62
7
  6
BYLAYER
 10
37.7459773078
 20
9.9001828001
 11
37.3774360664
 21
6.9633587113
  0
SPLINE
  5
2CC
100
AcDbEntity
  8
0
100
AcDbSpline
 62
7
  6
BYLAYER
 70
0
 71
3
 72
9
 73
5
 74
0
 42
0.0000001
 43
0.0000001
 44
0.0000000001
 40
0.0
 40
0.0
 40
0.0
 40
0.0
 40
0.243278941
 40
1.0
 40
1.0
 40
1.0
 40
1.0
 10
24.5453206315
 20
11.1323201369
 30
0.0
 10
24.537751419
 20
11.150838315
 30
0.0
 10
24.510592208
 20
11.2285404211
 30
0.0
 10
24.4987190259
 20
11.3113717407
 30
0.0
 10
24.4979501204
 20
11.3735939336
 30
0.0
  0
LINE
  5
2CD
100
AcDbEntity
  8
0
100
AcDbLine
 62
7
  6
BYLAYER
 10
25.6588651313
 20
6.963191954
 11
25.2920864619
 21
9.9001828001
  0
ENDSEC
  0
SECTION
  2
OBJECTS
  0
DICTIONARY
  5
C
100
AcDbDictionary
280
0
281
1
  3
ACAD_GROUP
350
D
  3
ACAD_MLINESTYLE
350
17
  3
ACAD_LAYOUT
350
1A
  3
ACAD_PLOTSETTINGS
350
19
  3
ACAD_PLOTSTYLENAME
350
E
  0
DICTIONARY
  5
D
102
{ACAD_REACTORS
330
C
102
}
100
AcDbDictionary
280
0
281
1
  0
ACDBDICTIONARYWDFLT
  5
E
102
{ACAD_REACTORS
330
C
102
}
100
AcDbDictionary
281
1
  3
Normal
350
F
100
AcDbDictionaryWithDefault
340
F
  0
DICTIONARY
  5
17
102
{ACAD_REACTORS
330
C
102
}
100
AcDbDictionary
280
0
281
1
  3
Standard
350
18
  0
DICTIONARY
  5
19
102
{ACAD_REACTORS
330
C
102
}
100
AcDbDictionary
281
1
  0
DICTIONARY
  5
1A
102
{ACAD_REACTORS
330
C
102
}
100
AcDbDictionary
281
1
  3
Model
350
2CE
  3
Layout1
350
2CF
  0
ACDBPLACEHOLDER
  5
F
102
{ACAD_REACTORS
330
E
102
}
  0
MLINESTYLE
  5
18
102
{ACAD_REACTORS
330
17
102
}
100
AcDbMlineStyle
  2
STANDARD
 70
0
  3

 62
256
 51
90.0
 52
90.0
 71
2
 49
0.5
 62
256
  6
BYLAYER
 49
-0.5
 62
256
  6
BYLAYER
  0
LAYOUT
  5
2CE
102
{ACAD_REACTORS
330
1A
102
}
100
AcDbPlotSettings
  1

  2
none_device
  4

  6

 40
0.0
 41
0.0
 42
0.0
 43
0.0
 44
210.0
 45
297.0
 46
0.0
 47
0.0
 48
0.0
 49
0.0
140
0.0
141
0.0
142
1.0
143
1.0
 70
1024
 72
1
 73
0
 74
0
  7

 75
0
147
1.0
148
0.0
149
0.0
100
AcDbLayout
  1
Model
 70
0
 71
0
 10
0.0
 20
0.0
 11
210.0
 21
297.0
 12
0.0
 22
0.0
 32
0.0
 14
0.0
 24
0.0
 34
0.0
 15
0.0
 25
0.0
 35
0.0
146
0.0
 13
0.0
 23
0.0
 33
0.0
 16
1.0
 26
0.0
 36
0.0
 17
0.0
 27
1.0
 37
0.0
 76
0
330
210
345
0
346
0
  0
LAYOUT
  5
2CF
102
{ACAD_REACTORS
330
1A
102
}
100
AcDbPlotSettings
  1

  2
none_device
  4

  6

 40
0.0
 41
0.0
 42
0.0
 43
0.0
 44
210.0
 45
297.0
 46
0.0
 47
0.0
 48
0.0
 49
0.0
140
0.0
141
0.0
142
1.0
143
1.0
 70
0
 72
1
 73
0
 74
0
  7

 75
0
147
1.0
148
0.0
149
0.0
100
AcDbLayout
  1
Layout1
 70
0
 71
1
 10
0.0
 20
0.0
 11
210.0
 21
297.0
 12
0.0
 22
0.0
 32
0.0
 14
0.0
 24
0.0
 34
0.0
 15
0.0
 25
0.0
 35
0.0
146
0.0
 13
0.0
 23
0.0
 33
0.0
 16
1.0
 26
0.0
 36
0.0
 17
0.0
 27
1.0
 37
0.0
 76
0
330
211
345
0
346
0
  0
ENDSEC
  0
EOF
