999
DXF file: C:\Users\sesa63760\Dev\_Creo\CAD\MCADID0004322_3D-CAD\drw0001_5.dxf
999
Pro/ENGINEER 2019471 by Parametric Technology Corporation
  0
SECTION
  2
HEADER
  9
$ACADVER
  1
AC1024
  9
$DWGCODEPAGE
  3
ANSI_1252
  9
$EXTMAX
 10
21.0944650588
 20
29.8336005831
 30
0.0
  9
$EXTMIN
 10
0.0
 20
0.0
 30
0.0
  9
$LIMMIN
 10
0.0
 20
0.0
  9
$LIMMAX
 10
21.0944650588
 20
29.8336005831
  9
$VIEWCTR
 10
10.5472325294
 20
14.9168002915
  9
$VIEWSIZE
 40
29.8336005831
  9
$CLAYER
  8
0
  9
$LTSCALE
 40
1.9447087787
  9
$CELTYPE
  6
BYLAYER
  9
$DIMSCALE
 40
1.0
  9
$DIMASZ
 40
0.251124584
  9
$DIMEXO
 40
1.0
  9
$DIMDLI
 40
1.3436169744
  9
$DIMEXE
 40
1.0
  9
$DIMCEN
 40
0.3182250729
  9
$DIMLFAC
 40
1.0
  9
$DIMBLK
  1
_FILLED
  9
$DIMALT
 70
0
  9
$DIMALTF
 40
0.0393700787
  9
$DIMTXT
 40
0.3515744176
  9
$DIMTOL
 70
1
  9
$DIMLIM
 70
0
  9
$DIMTFAC
 40
1.0
  9
$DIMTP
 40
0.01
  9
$DIMTM
 40
0.01
  9
$DIMGAP
 40
0.625
  9
$DIMDSEP
 70
46
  9
$AUNITS
 70
0
  9
$PDMODE
 70
3
  9
$PDSIZE
 40
0.3125
  9
$HANDSEED
  5
2BB
  9
$TILEMODE
 70
1
  9
$MEASUREMENT
 70
1
  9
$INSUNITS
 70
4
  0
ENDSEC
  0
SECTION
  2
CLASSES
  0
CLASS
  1
ACDBDICTIONARYWDFLT
  2
AcDbDictionaryWithDefault
  3
AutoCAD 2000
 90
0
 91
1
280
0
281
0
  0
CLASS
  1
ACDBPLACEHOLDER
  2
AcDbPlaceHolder
  3
AutoCAD 2000
 90
0
 91
1
280
0
281
0
  0
CLASS
  1
LAYOUT
  2
AcDbLayout
  3
AutoCAD 2000
 90
0
 91
0
280
0
281
0
  0
ENDSEC
  0
SECTION
  2
TABLES
  0
TABLE
  2
VPORT
  5
8
100
AcDbSymbolTable
 70
2
  0
VPORT
  5
1F4
100
AcDbSymbolTableRecord
100
AcDbViewportTableRecord
  2
*ACTIVE
 70
0
 10
0.0
 20
0.0
 11
1.0
 21
1.0
 12
10.5472325294
 22
14.9168002915
 13
0.0
 23
0.0
 14
1.0
 24
1.0
 15
0.0
 25
0.0
 16
0.0
 26
0.0
 36
1.0
 17
0.0
 27
0.0
 37
0.0
 40
29.8336005831
 41
0.7070707071
 42
50.0
 43
0.0
 44
0.0
 50
0.0
 51
0.0
 71
0
 72
100
 73
1
 74
1
 75
0
 76
0
 77
0
 78
0
  0
ENDTAB
  0
TABLE
  2
LTYPE
  5
5
100
AcDbSymbolTable
 70
6
  0
LTYPE
  5
14
100
AcDbSymbolTableRecord
100
AcDbLinetypeTableRecord
  2
BYBLOCK
 70
0
  3

 72
65
 73
0
 40
0.0
  0
LTYPE
  5
15
100
AcDbSymbolTableRecord
100
AcDbLinetypeTableRecord
  2
BYLAYER
 70
0
  3

 72
65
 73
0
 40
0.0
  0
LTYPE
  5
16
100
AcDbSymbolTableRecord
100
AcDbLinetypeTableRecord
  2
CONTINUOUS
 70
64
  3
Solid line
 72
65
 73
0
 40
0.0
  0
LTYPE
  5
1F5
100
AcDbSymbolTableRecord
100
AcDbLinetypeTableRecord
  2
CENTER
 70
64
  3
____ _ ____ _ ____ _ ____ _ ____ _ ____ _ ____
 72
65
 73
4
 40
0.6
 49
0.375
 74
0
 49
-0.075
 74
0
 49
0.075
 74
0
 49
-0.075
 74
0
  0
LTYPE
  5
1F6
100
AcDbSymbolTableRecord
100
AcDbLinetypeTableRecord
  2
HIDDEN
 70
64
  3
- - - - - - - - - - - - - - - - - - - -
 72
65
 73
2
 40
0.2
 49
0.1
 74
0
 49
-0.1
 74
0
  0
LTYPE
  5
1F7
100
AcDbSymbolTableRecord
100
AcDbLinetypeTableRecord
  2
PHANTOM
 70
64
  3
_____ _ _ _____ _ _ _____ _ _ _____
 72
65
 73
6
 40
0.8
 49
0.45
 74
0
 49
-0.05
 74
0
 49
0.1
 74
0
 49
-0.05
 74
0
 49
0.1
 74
0
 49
-0.05
 74
0
  0
LTYPE
  5
1F8
100
AcDbSymbolTableRecord
100
AcDbLinetypeTableRecord
  2
DOT
 70
64
  3
. . . . . . . . . . . . . . . . . . . .
 72
65
 73
2
 40
0.2
 49
0.1
 74
0
 49
-0.1
 74
0
  0
LTYPE
  5
1F9
100
AcDbSymbolTableRecord
100
AcDbLinetypeTableRecord
  2
DASHED
 70
64
  3
- - - - - - - - - - - - - - - - - - - -
 72
65
 73
2
 40
0.2
 49
0.1
 74
0
 49
-0.1
 74
0
  0
ENDTAB
  0
TABLE
  2
LAYER
  5
2
100
AcDbSymbolTable
 70
36
  0
LAYER
  5
10
100
AcDbSymbolTableRecord
100
AcDbLayerTableRecord
  2
0
 70
0
 62
7
  6
CONTINUOUS
370
-3
390
F
  0
LAYER
  5
1FA
100
AcDbSymbolTableRecord
100
AcDbLayerTableRecord
  2
DEFAULT_1
 70
0
 62
7
  6
CENTER
370
-3
390
F
  0
LAYER
  5
1FB
100
AcDbSymbolTableRecord
100
AcDbLayerTableRecord
  2
DEFAULT_2
 70
0
 62
7
  6
HIDDEN
370
-3
390
F
  0
LAYER
  5
1FC
100
AcDbSymbolTableRecord
100
AcDbLayerTableRecord
  2
DEFAULT_3
 70
0
 62
7
  6
PHANTOM
370
-3
390
F
  0
LAYER
  5
1FD
100
AcDbSymbolTableRecord
100
AcDbLayerTableRecord
  2
00_COMPONENTS
 70
0
 62
7
  6
CONTINUOUS
370
-3
390
F
  0
LAYER
  5
1FE
100
AcDbSymbolTableRecord
100
AcDbLayerTableRecord
  2
01_1_DEFAULT_DATUMS
 70
0
 62
7
  6
CONTINUOUS
370
-3
390
F
  0
LAYER
  5
1FF
100
AcDbSymbolTableRecord
100
AcDbLayerTableRecord
  2
01_PLANES
 70
0
 62
7
  6
CONTINUOUS
370
-3
390
F
  0
LAYER
  5
200
100
AcDbSymbolTableRecord
100
AcDbLayerTableRecord
  2
02_COORD_SYS
 70
0
 62
7
  6
CONTINUOUS
370
-3
390
F
  0
LAYER
  5
201
100
AcDbSymbolTableRecord
100
AcDbLayerTableRecord
  2
03_AXES
 70
0
 62
7
  6
CONTINUOUS
370
-3
390
F
  0
LAYER
  5
202
100
AcDbSymbolTableRecord
100
AcDbLayerTableRecord
  2
04_POINTS
 70
0
 62
7
  6
CONTINUOUS
370
-3
390
F
  0
LAYER
  5
203
100
AcDbSymbolTableRecord
100
AcDbLayerTableRecord
  2
05_CURVES
 70
0
 62
7
  6
CONTINUOUS
370
-3
390
F
  0
LAYER
  5
204
100
AcDbSymbolTableRecord
100
AcDbLayerTableRecord
  2
06_SURFS
 70
0
 62
7
  6
CONTINUOUS
370
-3
390
F
  0
LAYER
  5
205
100
AcDbSymbolTableRecord
100
AcDbLayerTableRecord
  2
07_COSMETICS
 70
0
 62
7
  6
CONTINUOUS
370
-3
390
F
  0
LAYER
  5
206
100
AcDbSymbolTableRecord
100
AcDbLayerTableRecord
  2
10_NOTES
 70
0
 62
7
  6
CONTINUOUS
370
-3
390
F
  0
LAYER
  5
207
100
AcDbSymbolTableRecord
100
AcDbLayerTableRecord
  2
11_NOTES_PUB
 70
0
 62
7
  6
CONTINUOUS
370
-3
390
F
  0
LAYER
  5
208
100
AcDbSymbolTableRecord
100
AcDbLayerTableRecord
  2
13_REF_GTOL
 70
0
 62
7
  6
CONTINUOUS
370
-3
390
F
  0
LAYER
  5
209
100
AcDbSymbolTableRecord
100
AcDbLayerTableRecord
  2
16_MISC
 70
0
 62
7
  6
CONTINUOUS
370
-3
390
F
  0
LAYER
  5
20A
100
AcDbSymbolTableRecord
100
AcDbLayerTableRecord
  2
17_NO_PRINT
 70
0
 62
7
  6
CONTINUOUS
370
-3
390
F
  0
LAYER
  5
20B
100
AcDbSymbolTableRecord
100
AcDbLayerTableRecord
  2
18_DATUM_CAMS_JOINTS
 70
0
 62
7
  6
CONTINUOUS
370
-3
390
F
  0
LAYER
  5
20C
100
AcDbSymbolTableRecord
100
AcDbLayerTableRecord
  2
19_DATUM_FUNCTIONAL
 70
0
 62
7
  6
CONTINUOUS
370
-3
390
F
  0
LAYER
  5
20D
100
AcDbSymbolTableRecord
100
AcDbLayerTableRecord
  2
20_DATUM_KINEMATIC_SCHEME
 70
0
 62
7
  6
CONTINUOUS
370
-3
390
F
  0
LAYER
  5
20E
100
AcDbSymbolTableRecord
100
AcDbLayerTableRecord
  2
_1
 70
0
 62
7
  6
CONTINUOUS
370
-3
390
F
  0
ENDTAB
  0
TABLE
  2
STYLE
  5
3
100
AcDbSymbolTable
 70
1
  0
STYLE
  5
11
100
AcDbSymbolTableRecord
100
AcDbTextStyleTableRecord
  2
STANDARD
 70
0
 40
0.0
 41
1.0
 50
0.0
 71
0
 42
0.2
  3
ARIAL.TTF
  4

  0
STYLE
  5
20F
100
AcDbSymbolTableRecord
100
AcDbTextStyleTableRecord
  2
TEXTSTYLE_1
 70
0
 40
0.0
 41
0.8
 50
0.0
 71
0
 42
0.2
  3
gdt
  4

  0
ENDTAB
  0
TABLE
  2
VIEW
  5
6
100
AcDbSymbolTable
 70
0
  0
ENDTAB
  0
TABLE
  2
UCS
  5
7
100
AcDbSymbolTable
 70
0
  0
ENDTAB
  0
TABLE
  2
APPID
  5
9
100
AcDbSymbolTable
 70
1
  0
APPID
  5
210
100
AcDbSymbolTableRecord
100
AcDbRegAppTableRecord
  2
ACAD
 70
0
  0
ENDTAB
  0
TABLE
  2
BLOCK_RECORD
  5
1
100
AcDbSymbolTable
 70
0
  0
BLOCK_RECORD
  5
211
100
AcDbSymbolTableRecord
100
AcDbBlockTableRecord
  2
*Model_Space
  0
BLOCK_RECORD
  5
212
100
AcDbSymbolTableRecord
100
AcDbBlockTableRecord
  2
*Paper_Space
  0
BLOCK_RECORD
  5
213
100
AcDbSymbolTableRecord
100
AcDbBlockTableRecord
  2
_FILLED
  0
ENDTAB
  0
TABLE
  2
DIMSTYLE
  5
A
100
AcDbSymbolTable
 70
1
100
AcDbDimStyleTable
 71
0
  0
DIMSTYLE
105
214
100
AcDbSymbolTableRecord
100
AcDbDimStyleTableRecord
  2
STANDARD
 70
0
  3

  4

 40
1.0
 41
0.251124584
 42
1.0
 43
0.38
 44
1.0
 45
0.0
 46
0.0
 47
0.01
 48
0.01
140
0.3515744176
141
0.09
142
0.0
143
25.4
144
1.0
145
0.0
146
1.0
147
0.625
 71
1
 72
0
 73
0
 74
0
 75
0
 76
0
 77
1
 78
8
 79
2
170
0
171
1
172
0
173
0
174
0
175
0
176
0
177
0
178
0
270
2
179
2
271
2
272
2
273
2
274
2
275
0
280
0
281
0
282
0
283
1
284
8
285
0
286
0
287
3
288
0
340
11
278
46
341
213
342
213
343
213
344
213
  0
ENDTAB
  0
ENDSEC
  0
SECTION
  2
BLOCKS
  0
BLOCK
  5
20
100
AcDbEntity
  8
0
100
AcDbBlockBegin
  2
*Model_Space
 70
0
 10
0.0
 20
0.0
 30
0.0
  3
*Model_Space
  1

  0
ENDBLK
  5
21
100
AcDbEntity
  8
0
100
AcDbBlockEnd
  0
BLOCK
  5
1C
100
AcDbEntity
  8
0
100
AcDbBlockBegin
  2
*Paper_Space
 70
0
 10
0.0
 20
0.0
 30
0.0
  3
*Paper_Space
  1

  0
ENDBLK
  5
1D
100
AcDbEntity
  8
0
100
AcDbBlockEnd
  0
BLOCK
  5
215
100
AcDbEntity
  8
0
100
AcDbBlockBegin
  2
_FILLED
 70
64
 10
0.0
 20
0.0
  3
_FILLED
  1

  0
SOLID
  5
216
100
AcDbEntity
  8
0
  6
BYBLOCK
 62
0
100
AcDbTrace
 10
0.0
 20
0.0
 11
-1.0
 21
0.25
 12
-1.0
 22
-0.25
 13
-1.0
 23
-0.25
  0
ENDBLK
  5
217
100
AcDbEntity
  8
0
  6
BYBLOCK
 62
0
100
AcDbBlockEnd
  0
ENDSEC
  0
SECTION
  2
ENTITIES
  0
LINE
  5
218
100
AcDbEntity
  8
_1
100
AcDbLine
 62
7
  6
BYLAYER
 10
10.8393608093
 20
2.4283163265
 11
11.7934176436
 21
2.4783163265
  0
LINE
  5
219
100
AcDbEntity
  8
_1
100
AcDbLine
 62
7
  6
BYLAYER
 10
14.2663414003
 20
2.607916769
 11
15.3655287874
 21
2.6655227389
  0
LINE
  5
21A
100
AcDbEntity
  8
_1
100
AcDbLine
 62
7
  6
BYLAYER
 10
7.2731334717
 20
2.4783163265
 11
14.2731334717
 21
2.4783163265
  0
LINE
  5
21B
100
AcDbEntity
  8
_1
100
AcDbLine
 62
7
  6
BYLAYER
 10
6.3131928311
 20
2.6655227389
 11
7.2724487086
 21
2.6152502686
  0
LINE
  5
21C
100
AcDbEntity
  8
_1
100
AcDbLine
 62
7
  6
BYLAYER
 10
9.8853039749
 20
2.4783163265
 11
10.8393608093
 21
2.4283163265
  0
LINE
  5
21D
100
AcDbEntity
  8
0
100
AcDbLine
 62
7
  6
BYLAYER
 10
9.3706165948
 20
27.4783163265
 11
8.4220693354
 21
27.1883163265
  0
LINE
  5
21E
100
AcDbEntity
  8
_1
100
AcDbLine
 62
7
  6
BYLAYER
 10
10.8393608093
 20
2.9276310939
 11
15.3655287874
 21
3.1648375063
  0
LINE
  5
21F
100
AcDbEntity
  8
_1
100
AcDbLine
 62
7
  6
BYLAYER
 10
7.0231334717
 20
2.6283163265
 11
14.6555881468
 21
2.6283163265
  0
LINE
  5
220
100
AcDbEntity
  8
_1
100
AcDbLine
 62
7
  6
BYLAYER
 10
15.8393608093
 20
3.1648375063
 11
15.3655287874
 21
3.1648375063
  0
LINE
  5
221
100
AcDbEntity
  8
_1
100
AcDbLine
 62
7
  6
BYLAYER
 10
6.3131928311
 20
3.1648375063
 11
5.8393608093
 21
3.1648375063
  0
LINE
  5
222
100
AcDbEntity
  8
_1
100
AcDbLine
 62
7
  6
BYLAYER
 10
9.5031709181
 20
3.1790015592
 11
12.1755507004
 21
3.1790015592
  0
LINE
  5
223
100
AcDbEntity
  8
_1
100
AcDbLine
 62
7
  6
BYLAYER
 10
5.8393608093
 20
3.2683482967
 11
6.3131928311
 21
3.2683482967
  0
LINE
  5
224
100
AcDbEntity
  8
_1
100
AcDbLine
 62
7
  6
BYLAYER
 10
15.3655287874
 20
3.2683482967
 11
15.8393608093
 21
3.2683482967
  0
LINE
  5
225
100
AcDbEntity
  8
_1
100
AcDbLine
 62
7
  6
BYLAYER
 10
11.8053127003
 20
3.3790015592
 11
9.8734089182
 21
3.3790015592
  0
LINE
  5
226
100
AcDbEntity
  8
_1
100
AcDbLine
 62
7
  6
BYLAYER
 10
6.3131928311
 20
3.1648375063
 11
10.8393608093
 21
2.9276310939
  0
LINE
  5
227
100
AcDbEntity
  8
_1
100
AcDbLine
 62
7
  6
BYLAYER
 10
10.8393608093
 20
4.9290015592
 11
10.8030245316
 21
4.9270972555
  0
LINE
  5
228
100
AcDbEntity
  8
_1
100
AcDbLine
 62
7
  6
BYLAYER
 10
10.8027758471
 20
4.9270842225
 11
7.7346888968
 21
4.7662925988
  0
LINE
  5
229
100
AcDbEntity
  8
_1
100
AcDbLine
 62
7
  6
BYLAYER
 10
13.9440327217
 20
4.7662925988
 11
10.8759457714
 21
4.9270842225
  0
LINE
  5
22A
100
AcDbEntity
  8
_1
100
AcDbLine
 62
7
  6
BYLAYER
 10
10.8756970869
 20
4.9270972555
 11
10.8393608093
 21
4.9290015592
  0
LINE
  5
22B
100
AcDbEntity
  8
_1
100
AcDbLine
 62
7
  6
BYLAYER
 10
7.7346888968
 20
5.2656073662
 11
10.8393608093
 21
5.4283163265
  0
LINE
  5
22C
100
AcDbEntity
  8
_1
100
AcDbLine
 62
7
  6
BYLAYER
 10
10.8393608093
 20
5.4283163265
 11
13.9440327217
 21
5.2656073662
  0
LWPOLYLINE
  5
22D
100
AcDbEntity
  8
_1
100
AcDbPolyline
 62
7
  6
BYLAYER
 90
3
 70
0
 10
12.1755507004
 20
3.1790015592
 10
12.0888044017
 20
3.2258405456
 10
12.0348133826
 20
3.255008263
  0
LINE
  5
22E
100
AcDbEntity
  8
_1
100
AcDbLine
 62
7
  6
BYLAYER
 10
12.1755507004
 20
3.1790015592
 11
11.8053127003
 21
3.3790015592
  0
LINE
  5
22F
100
AcDbEntity
  8
_1
100
AcDbLine
 62
7
  6
BYLAYER
 10
11.8882522626
 20
3.3341972969
 11
11.8053127003
 21
3.3790015592
  0
LINE
  5
230
100
AcDbEntity
  8
_1
100
AcDbLine
 62
7
  6
BYLAYER
 10
10.5466431723
 20
4.7708775217
 11
10.7139103934
 21
4.6612341145
  0
LINE
  5
231
100
AcDbEntity
  8
_1
100
AcDbLine
 62
7
  6
BYLAYER
 10
14.0080091608
 20
8.9534549628
 11
14.0532343095
 21
8.9594507255
  0
LINE
  5
232
100
AcDbEntity
  8
_1
100
AcDbLine
 62
7
  6
BYLAYER
 10
13.5021962961
 20
8.567869621
 11
10.8393608093
 21
8.4283163265
  0
LINE
  5
233
100
AcDbEntity
  8
_1
100
AcDbLine
 62
7
  6
BYLAYER
 10
10.8393608093
 20
8.4283163265
 11
8.1765253224
 21
8.567869621
  0
LWPOLYLINE
  5
234
100
AcDbEntity
  8
_1
100
AcDbPolyline
 62
7
  6
BYLAYER
 90
3
 70
0
 10
7.5690859054
 20
8.9832813355
 10
7.6332502184
 20
8.9576798892
 10
7.6707157397
 20
8.9534549057
  0
LINE
  5
235
100
AcDbEntity
  8
_1
100
AcDbLine
 62
7
  6
BYLAYER
 10
10.693348234
 20
9.2432751938
 11
10.4986648003
 21
9.1974673271
  0
LINE
  5
236
100
AcDbEntity
  8
_1
100
AcDbLine
 62
7
  6
BYLAYER
 10
10.8393608093
 20
8.9276310939
 11
10.8756970869
 21
8.9295353975
  0
LINE
  5
237
100
AcDbEntity
  8
_1
100
AcDbLine
 62
7
  6
BYLAYER
 10
10.8759457714
 20
8.9295484305
 11
13.5021962961
 21
9.0671843884
  0
LINE
  5
238
100
AcDbEntity
  8
_1
100
AcDbLine
 62
7
  6
BYLAYER
 10
13.9627369805
 20
8.9526650545
 11
14.0080090805
 21
8.9534575585
  0
LINE
  5
239
100
AcDbEntity
  8
_1
100
AcDbLine
 62
7
  6
BYLAYER
 10
7.6707158044
 20
8.9534575013
 11
7.715984638
 21
8.9526650545
  0
LINE
  5
23A
100
AcDbEntity
  8
_1
100
AcDbLine
 62
7
  6
BYLAYER
 10
8.1765253224
 20
9.0671843884
 11
10.8027758471
 21
8.9295484305
  0
LINE
  5
23B
100
AcDbEntity
  8
_1
100
AcDbLine
 62
7
  6
BYLAYER
 10
10.8030245316
 20
8.9295353975
 11
10.8393608093
 21
8.9276310939
  0
LINE
  5
23C
100
AcDbEntity
  8
_1
100
AcDbLine
 62
7
  6
BYLAYER
 10
11.1800568182
 20
9.1974673271
 11
10.9853733845
 21
9.2432751938
  0
LINE
  5
23D
100
AcDbEntity
  8
_1
100
AcDbLine
 62
7
  6
BYLAYER
 10
7.4795476164
 20
9.1075225305
 11
7.5690859054
 21
8.9832813355
  0
LINE
  5
23E
100
AcDbEntity
  8
_1
100
AcDbLine
 62
7
  6
BYLAYER
 10
11.8053127003
 20
3.3790015592
 11
10.9648112251
 21
4.6612341145
  0
LINE
  5
23F
100
AcDbEntity
  8
_1
100
AcDbLine
 62
7
  6
BYLAYER
 10
12.1755507004
 20
3.1790015592
 11
11.1320784463
 21
4.7708775217
  0
LINE
  5
240
100
AcDbEntity
  8
_1
100
AcDbLine
 62
7
  6
BYLAYER
 10
5.8393608093
 20
3.1648375063
 11
5.8393608093
 21
26.1917951468
  0
LINE
  5
241
100
AcDbEntity
  8
_1
100
AcDbLine
 62
7
  6
BYLAYER
 10
6.1893608093
 20
26.9283163265
 11
6.1893608093
 21
26.4283163265
  0
LINE
  5
242
100
AcDbEntity
  8
_1
100
AcDbLine
 62
7
  6
BYLAYER
 10
6.3131928311
 20
3.1648375063
 11
6.3131928311
 21
3.2683482967
  0
LINE
  5
243
100
AcDbEntity
  8
_1
100
AcDbLine
 62
7
  6
BYLAYER
 10
6.3131928311
 20
17.5086278222
 11
6.3131928311
 21
26.1917951468
  0
LINE
  5
244
100
AcDbEntity
  8
0
100
AcDbLine
 62
7
  6
BYLAYER
 10
6.3893608093
 20
27.1783163265
 11
6.3893608093
 21
26.9283163265
  0
LINE
  5
245
100
AcDbEntity
  8
_1
100
AcDbLine
 62
7
  6
BYLAYER
 10
15.8393608093
 20
9.9283163265
 11
14.3923019857
 21
9.9283163265
  0
LINE
  5
246
100
AcDbEntity
  8
_1
100
AcDbLine
 62
7
  6
BYLAYER
 10
5.8393608093
 20
9.9283163265
 11
7.2864196328
 21
9.9283163265
  0
LINE
  5
247
100
AcDbEntity
  8
_1
100
AcDbLine
 62
7
  6
BYLAYER
 10
7.4794635811
 20
9.1078795464
 11
6.5238681436
 21
13.1691601557
  0
LINE
  5
248
100
AcDbEntity
  8
_1
100
AcDbLine
 62
7
  6
BYLAYER
 10
6.6589891799
 20
13.4058929313
 11
7.626918932
 21
9.2921914846
  0
LINE
  5
249
100
AcDbEntity
  8
_1
100
AcDbLine
 62
7
  6
BYLAYER
 10
7.7159847163
 20
8.9526647215
 11
5.9722749676
 21
16.3634311536
  0
LINE
  5
24A
100
AcDbEntity
  8
_1
100
AcDbLine
 62
7
  6
BYLAYER
 10
7.6608370844
 20
9.0497985778
 11
7.6707157724
 21
8.953457785
  0
LINE
  5
24B
100
AcDbEntity
  8
0
100
AcDbLine
 62
7
  6
BYLAYER
 10
6.8893608093
 20
27.1783163265
 11
6.8893608093
 21
26.9283163265
  0
LINE
  5
24C
100
AcDbEntity
  8
_1
100
AcDbLine
 62
7
  6
BYLAYER
 10
6.8893608093
 20
26.4283163265
 11
6.8893608093
 21
26.9283163265
  0
LINE
  5
24D
100
AcDbEntity
  8
_1
100
AcDbLine
 62
7
  6
BYLAYER
 10
7.2731334717
 20
2.6283163265
 11
7.2731334717
 21
2.4783163265
  0
LINE
  5
24E
100
AcDbEntity
  8
_1
100
AcDbLine
 62
7
  6
BYLAYER
 10
6.4328155736
 20
16.4779508205
 11
8.1765253224
 21
9.0671843884
  0
LINE
  5
24F
100
AcDbEntity
  8
_1
100
AcDbLine
 62
7
  6
BYLAYER
 10
7.7731334717
 20
2.4783163265
 11
7.7731334717
 21
2.6283163265
  0
LINE
  5
250
100
AcDbEntity
  8
0
100
AcDbLine
 62
7
  6
BYLAYER
 10
7.8893608093
 20
27.1783163265
 11
7.8893608093
 21
27.1883163265
  0
LINE
  5
251
100
AcDbEntity
  8
_1
100
AcDbLine
 62
7
  6
BYLAYER
 10
8.2893608093
 20
26.9283163265
 11
8.2893608093
 21
27.0283163265
  0
LINE
  5
252
100
AcDbEntity
  8
0
100
AcDbLine
 62
7
  6
BYLAYER
 10
8.6393608093
 20
27.1883163265
 11
8.6393608093
 21
27.1783163265
  0
LINE
  5
253
100
AcDbEntity
  8
_1
100
AcDbLine
 62
7
  6
BYLAYER
 10
9.7556914969
 20
13.2283163265
 11
11.9230301216
 21
13.2283163265
  0
LINE
  5
254
100
AcDbEntity
  8
_1
100
AcDbLine
 62
7
  6
BYLAYER
 10
15.8393608093
 20
13.4283163265
 11
15.0158313975
 21
13.4283163265
  0
LINE
  5
255
100
AcDbEntity
  8
_1
100
AcDbLine
 62
7
  6
BYLAYER
 10
12.1755507004
 20
13.4283163265
 11
9.5031709181
 21
13.4283163265
  0
LINE
  5
256
100
AcDbEntity
  8
_1
100
AcDbLine
 62
7
  6
BYLAYER
 10
6.662890221
 20
13.4283163265
 11
5.8393608093
 21
13.4283163265
  0
LINE
  5
257
100
AcDbEntity
  8
_1
100
AcDbLine
 62
7
  6
BYLAYER
 10
9.5031709181
 20
13.4283163265
 11
10.4986648003
 21
9.1974673271
  0
LINE
  5
258
100
AcDbEntity
  8
_1
100
AcDbLine
 62
7
  6
BYLAYER
 10
9.7556914969
 20
13.2283163265
 11
10.693348234
 21
9.2432751938
  0
LINE
  5
259
100
AcDbEntity
  8
_1
100
AcDbLine
 62
7
  6
BYLAYER
 10
10.4893608093
 20
26.9283163265
 11
10.4893608093
 21
27.0283163265
  0
LINE
  5
25A
100
AcDbEntity
  8
_1
100
AcDbLine
 62
7
  6
BYLAYER
 10
10.577681028
 20
5.4146022703
 11
10.577681028
 21
8.4420303827
  0
LINE
  5
25B
100
AcDbEntity
  8
_1
100
AcDbLine
 62
7
  6
BYLAYER
 10
10.8393608093
 20
2.6283163265
 11
10.8393608093
 21
3.1790015592
  0
LINE
  5
25C
100
AcDbEntity
  8
_1
100
AcDbLine
 62
7
  6
BYLAYER
 10
10.8393608093
 20
4.9290015592
 11
10.8393608093
 21
8.9276310939
  0
LINE
  5
25D
100
AcDbEntity
  8
_1
100
AcDbLine
 62
7
  6
BYLAYER
 10
10.8393608093
 20
13.4283163265
 11
10.8393608093
 21
26.4283163265
  0
LINE
  5
25E
100
AcDbEntity
  8
_1
100
AcDbLine
 62
7
  6
BYLAYER
 10
11.1010405905
 20
8.4420303827
 11
11.1010405905
 21
5.4146022703
  0
LINE
  5
25F
100
AcDbEntity
  8
_1
100
AcDbLine
 62
7
  6
BYLAYER
 10
11.2893608093
 20
26.9283163265
 11
11.2893608093
 21
27.0283163265
  0
LINE
  5
260
100
AcDbEntity
  8
_1
100
AcDbLine
 62
7
  6
BYLAYER
 10
10.9853733845
 20
9.2432751938
 11
11.9230301216
 21
13.2283163265
  0
LINE
  5
261
100
AcDbEntity
  8
_1
100
AcDbLine
 62
7
  6
BYLAYER
 10
11.1800568182
 20
9.1974673271
 11
12.1755507004
 21
13.4283163265
  0
LINE
  5
262
100
AcDbEntity
  8
0
100
AcDbLine
 62
7
  6
BYLAYER
 10
13.1393608093
 20
27.1783163265
 11
13.1393608093
 21
27.1883163265
  0
LINE
  5
263
100
AcDbEntity
  8
_1
100
AcDbLine
 62
7
  6
BYLAYER
 10
13.4893608093
 20
26.9283163265
 11
13.4893608093
 21
27.0283163265
  0
LINE
  5
264
100
AcDbEntity
  8
_1
100
AcDbLine
 62
7
  6
BYLAYER
 10
15.8393608093
 20
17.5086278222
 11
15.3655287874
 21
17.5086278222
  0
LINE
  5
265
100
AcDbEntity
  8
_1
100
AcDbLine
 62
7
  6
BYLAYER
 10
6.3131928311
 20
17.5086278222
 11
5.8393608093
 21
17.5086278222
  0
LINE
  5
266
100
AcDbEntity
  8
_1
100
AcDbLine
 62
7
  6
BYLAYER
 10
13.7731334717
 20
2.6283163265
 11
13.7731334717
 21
2.4783163265
  0
LINE
  5
267
100
AcDbEntity
  8
0
100
AcDbLine
 62
7
  6
BYLAYER
 10
13.8893608093
 20
27.1883163265
 11
13.8893608093
 21
27.1783163265
  0
LINE
  5
268
100
AcDbEntity
  8
_1
100
AcDbLine
 62
7
  6
BYLAYER
 10
14.2731334717
 20
2.4783163265
 11
14.2731334717
 21
2.6283163265
  0
LINE
  5
269
100
AcDbEntity
  8
0
100
AcDbLine
 62
7
  6
BYLAYER
 10
14.8893608093
 20
27.1783163265
 11
14.8893608093
 21
26.9283163265
  0
LINE
  5
26A
100
AcDbEntity
  8
_1
100
AcDbLine
 62
7
  6
BYLAYER
 10
14.8893608093
 20
26.9283163265
 11
14.8893608093
 21
26.4283163265
  0
LINE
  5
26B
100
AcDbEntity
  8
_1
100
AcDbLine
 62
7
  6
BYLAYER
 10
15.3655287874
 20
26.1917951468
 11
15.3655287874
 21
17.5086278222
  0
LINE
  5
26C
100
AcDbEntity
  8
_1
100
AcDbLine
 62
7
  6
BYLAYER
 10
15.3655287874
 20
3.2683482967
 11
15.3655287874
 21
3.1648375063
  0
LINE
  5
26D
100
AcDbEntity
  8
0
100
AcDbLine
 62
7
  6
BYLAYER
 10
15.3893608093
 20
27.1783163265
 11
15.3893608093
 21
26.9283163265
  0
LINE
  5
26E
100
AcDbEntity
  8
_1
100
AcDbLine
 62
7
  6
BYLAYER
 10
14.0181579254
 20
9.0524729578
 11
14.0080091896
 21
8.9534555078
  0
LINE
  5
26F
100
AcDbEntity
  8
_1
100
AcDbLine
 62
7
  6
BYLAYER
 10
13.5021962961
 20
9.0671843884
 11
15.2459060449
 21
16.4779508205
  0
LINE
  5
270
100
AcDbEntity
  8
_1
100
AcDbLine
 62
7
  6
BYLAYER
 10
15.7064466509
 20
16.3634311536
 11
13.9627369022
 21
8.9526647215
  0
LINE
  5
271
100
AcDbEntity
  8
_1
100
AcDbLine
 62
7
  6
BYLAYER
 10
14.0518026865
 20
9.2921914846
 11
15.0197324387
 21
13.4058929313
  0
LINE
  5
272
100
AcDbEntity
  8
_1
100
AcDbLine
 62
7
  6
BYLAYER
 10
15.1548534749
 20
13.1691601557
 11
14.1992814959
 21
9.1079792447
  0
LINE
  5
273
100
AcDbEntity
  8
_1
100
AcDbLine
 62
7
  6
BYLAYER
 10
15.5893608093
 20
26.4283163265
 11
15.5893608093
 21
26.9283163265
  0
LINE
  5
274
100
AcDbEntity
  8
_1
100
AcDbLine
 62
7
  6
BYLAYER
 10
15.8393608093
 20
3.1648375063
 11
15.8393608093
 21
9.9283163265
  0
LINE
  5
275
100
AcDbEntity
  8
_1
100
AcDbLine
 62
7
  6
BYLAYER
 10
15.8393608093
 20
9.9284587521
 11
15.8393608093
 21
26.1917951468
  0
LINE
  5
276
100
AcDbEntity
  8
_1
100
AcDbLine
 62
7
  6
BYLAYER
 10
10.5466431723
 20
4.7708775217
 11
9.5031709181
 21
3.1790015592
  0
LINE
  5
277
100
AcDbEntity
  8
_1
100
AcDbLine
 62
7
  6
BYLAYER
 10
10.7139103934
 20
4.6612341145
 11
9.8734089182
 21
3.3790015592
  0
LINE
  5
278
100
AcDbEntity
  8
_1
100
AcDbLine
 62
7
  6
BYLAYER
 10
14.1172662453
 20
8.988239346
 11
14.1991699256
 21
9.10750525
  0
LINE
  5
279
100
AcDbEntity
  8
_1
100
AcDbLine
 62
7
  6
BYLAYER
 10
14.0532343095
 20
8.9594507255
 11
14.1172662453
 21
8.988239346
  0
LINE
  5
27A
100
AcDbEntity
  8
_1
100
AcDbLine
 62
7
  6
BYLAYER
 10
10.9648112251
 20
4.6612341145
 11
11.1320784463
 21
4.7708775217
  0
LWPOLYLINE
  5
27B
100
AcDbEntity
  8
_1
100
AcDbPolyline
 62
7
  6
BYLAYER
 90
3
 70
0
 10
9.5031709181
 20
3.1790015592
 10
9.5898998523
 20
3.2258726905
 10
9.643892664
 20
3.2550370896
  0
LINE
  5
27C
100
AcDbEntity
  8
_1
100
AcDbLine
 62
7
  6
BYLAYER
 10
9.5031709181
 20
3.1790015592
 11
9.8734089182
 21
3.3790015592
  0
LINE
  5
27D
100
AcDbEntity
  8
_1
100
AcDbLine
 62
7
  6
BYLAYER
 10
10.8262857919
 20
26.4283163265
 11
6.3131928311
 21
26.1917951468
  0
LINE
  5
27E
100
AcDbEntity
  8
_1
100
AcDbLine
 62
7
  6
BYLAYER
 10
5.8393608093
 20
26.1917951468
 11
6.3131928311
 21
26.1917951468
  0
LINE
  5
27F
100
AcDbEntity
  8
_1
100
AcDbLine
 62
7
  6
BYLAYER
 10
15.3655287874
 20
26.1917951468
 11
15.8393608093
 21
26.1917951468
  0
LINE
  5
280
100
AcDbEntity
  8
_1
100
AcDbLine
 62
7
  6
BYLAYER
 10
5.8988409669
 20
26.4283163265
 11
15.7798806516
 21
26.4283163265
  0
LINE
  5
281
100
AcDbEntity
  8
_1
100
AcDbLine
 62
7
  6
BYLAYER
 10
15.3655287874
 20
26.1917951468
 11
10.8524358266
 21
26.4283163265
  0
LINE
  5
282
100
AcDbEntity
  8
_1
100
AcDbLine
 62
7
  6
BYLAYER
 10
6.1893608093
 20
26.9283163265
 11
15.5893608093
 21
26.9283163265
  0
LINE
  5
283
100
AcDbEntity
  8
_1
100
AcDbLine
 62
7
  6
BYLAYER
 10
8.2893608093
 20
27.0283163265
 11
10.4893608093
 21
27.0283163265
  0
LINE
  5
284
100
AcDbEntity
  8
_1
100
AcDbLine
 62
7
  6
BYLAYER
 10
11.2893608093
 20
27.0283163265
 11
13.4893608093
 21
27.0283163265
  0
LINE
  5
285
100
AcDbEntity
  8
0
100
AcDbLine
 62
7
  6
BYLAYER
 10
6.3893608093
 20
27.1783163265
 11
15.3893608093
 21
27.1783163265
  0
LINE
  5
286
100
AcDbEntity
  8
0
100
AcDbLine
 62
7
  6
BYLAYER
 10
13.8893608093
 20
27.1883163265
 11
7.8893608093
 21
27.1883163265
  0
LINE
  5
287
100
AcDbEntity
  8
0
100
AcDbLine
 62
7
  6
BYLAYER
 10
12.4080049182
 20
27.4783163265
 11
9.3707167003
 21
27.4783163265
  0
LINE
  5
288
100
AcDbEntity
  8
0
100
AcDbLine
 62
7
  6
BYLAYER
 10
12.4081050237
 20
27.4783163265
 11
13.3566522831
 21
27.1883163265
  0
ARC
  5
289
100
AcDbEntity
  8
_1
100
AcDbCircle
 62
7
  6
BYLAYER
 10
10.8393608093
 20
17.5086278222
 40
5.0
100
AcDbArc
 50
346.7594800848
 51
360.0
  0
ARC
  5
28A
100
AcDbEntity
  8
_1
100
AcDbCircle
 62
7
  6
BYLAYER
 10
10.8393608093
 20
17.5086278222
 40
5.0
100
AcDbArc
 50
180.0
 51
193.2405199152
  0
ARC
  5
28B
100
AcDbEntity
  8
_1
100
AcDbCircle
 62
7
  6
BYLAYER
 10
10.8609110796
 20
17.5091636784
 40
4.5046420481
100
AcDbArc
 50
346.766297746
 51
359.9931842981
  0
ARC
  5
28C
100
AcDbEntity
  8
_1
100
AcDbCircle
 62
7
  6
BYLAYER
 10
10.8178105389
 20
17.5091636784
 40
4.5046420481
100
AcDbArc
 50
180.0068157019
 51
193.233702254
  0
ARC
  5
28D
100
AcDbEntity
  8
_1
100
AcDbCircle
 62
7
  6
BYLAYER
 10
13.8393608093
 20
3.2683482967
 40
2.0
100
AcDbArc
 50
0.0
 51
87.0
  0
ARC
  5
28E
100
AcDbEntity
  8
_1
100
AcDbCircle
 62
7
  6
BYLAYER
 10
7.8393608093
 20
3.2683482967
 40
2.0
100
AcDbArc
 50
93.0
 51
180.0
  0
ARC
  5
28F
100
AcDbEntity
  8
_1
100
AcDbCircle
 62
7
  6
BYLAYER
 10
13.476028318
 20
9.0671843884
 40
0.5
100
AcDbArc
 50
273.0
 51
346.7594800848
  0
ARC
  5
290
100
AcDbEntity
  8
_1
100
AcDbCircle
 62
7
  6
BYLAYER
 10
8.2026933005
 20
9.0671843884
 40
0.5
100
AcDbArc
 50
193.2405199152
 51
267.0
  0
ARC
  5
291
100
AcDbEntity
  8
_1
100
AcDbCircle
 62
7
  6
BYLAYER
 10
6.3393608093
 20
3.1648375063
 40
0.5
100
AcDbArc
 50
180.0
 51
267.0
  0
ARC
  5
292
100
AcDbEntity
  8
_1
100
AcDbCircle
 62
7
  6
BYLAYER
 10
15.3393608093
 20
3.1648375063
 40
0.5
100
AcDbArc
 50
273.0
 51
360.0
  0
ARC
  5
293
100
AcDbEntity
  8
_1
100
AcDbCircle
 62
7
  6
BYLAYER
 10
15.3393608093
 20
26.1917951468
 40
0.5
100
AcDbArc
 50
0.0
 51
60.2514543338
  0
ARC
  5
294
100
AcDbEntity
  8
_1
100
AcDbCircle
 62
7
  6
BYLAYER
 10
6.3393608093
 20
26.1917951468
 40
0.5
100
AcDbArc
 50
107.7117675822
 51
180.0
  0
ARC
  5
295
100
AcDbEntity
  8
_1
100
AcDbCircle
 62
7
  6
BYLAYER
 10
10.8393608093
 20
9.2776310939
 40
0.35
100
AcDbArc
 50
276.0000000002
 51
346.7594800848
  0
ARC
  5
296
100
AcDbEntity
  8
_1
100
AcDbCircle
 62
7
  6
BYLAYER
 10
10.8393608093
 20
9.2776310939
 40
0.35
100
AcDbArc
 50
193.2405199152
 51
263.9999999998
  0
ARC
  5
297
100
AcDbEntity
  8
_1
100
AcDbCircle
 62
7
  6
BYLAYER
 10
10.8393608093
 20
4.5790015592
 40
0.35
100
AcDbArc
 50
33.2447799551
 51
83.9999999994
  0
ARC
  5
298
100
AcDbEntity
  8
_1
100
AcDbCircle
 62
7
  6
BYLAYER
 10
10.8393608093
 20
4.5790015592
 40
0.35
100
AcDbArc
 50
96.0000000006
 51
146.7552200449
  0
ARC
  5
299
100
AcDbEntity
  8
_1
100
AcDbCircle
 62
7
  6
BYLAYER
 10
14.9601700413
 20
13.2149680224
 40
0.2
100
AcDbArc
 50
346.7594800848
 51
72.6737667165
  0
ARC
  5
29A
100
AcDbEntity
  8
_1
100
AcDbCircle
 62
7
  6
BYLAYER
 10
6.7185515772
 20
13.2149680224
 40
0.2
100
AcDbArc
 50
107.3262332835
 51
193.2405199152
  0
ARC
  5
29B
100
AcDbEntity
  8
_1
100
AcDbCircle
 62
7
  6
BYLAYER
 10
10.8393608093
 20
9.2776310939
 40
0.15
100
AcDbArc
 50
193.2405199152
 51
346.7594800848
  0
ARC
  5
29C
100
AcDbEntity
  8
_1
100
AcDbCircle
 62
7
  6
BYLAYER
 10
10.8393608093
 20
4.5790015592
 40
0.15
100
AcDbArc
 50
33.2447799551
 51
146.7552200449
  0
SPLINE
  5
29D
100
AcDbEntity
  8
_1
100
AcDbSpline
 62
7
  6
BYLAYER
 70
0
 71
3
 72
11
 73
7
 74
0
 42
0.0000001
 43
0.0000001
 44
0.0000000001
 40
0.0
 40
0.0
 40
0.0
 40
0.0
 40
0.3195803978
 40
0.6237126591
 40
0.8811088423
 40
1.0
 40
1.0
 40
1.0
 40
1.0
 10
11.9230301216
 20
13.2283163265
 30
0.0
 10
11.9499303495
 20
13.2496217014
 30
0.0
 10
12.0022839758
 20
13.2913872419
 30
0.0
 10
12.0765086934
 20
13.3500540136
 30
0.0
 10
12.1338771682
 20
13.3952950317
 30
0.0
 10
12.1655513829
 20
13.4203799003
 30
0.0
 10
12.1755507004
 20
13.4283163265
 30
0.0
  0
SPLINE
  5
29E
100
AcDbEntity
  8
_1
100
AcDbSpline
 62
7
  6
BYLAYER
 70
0
 71
3
 72
18
 73
14
 74
0
 42
0.0000001
 43
0.0000001
 44
0.0000000001
 40
0.0
 40
0.0
 40
0.0
 40
0.0
 40
0.2213731823
 40
0.4183375945
 40
0.588597475
 40
0.7303376563
 40
0.8424992069
 40
0.8872125571
 40
0.9242581949
 40
0.9536719671
 40
0.9755962075
 40
0.9904816778
 40
1.0
 40
1.0
 40
1.0
 40
1.0
 10
15.3763173405
 20
2.8122511943
 30
0.0
 10
15.3763173405
 20
2.8012998534
 30
0.0
 10
15.3762172041
 20
2.7806043866
 30
0.0
 10
15.3757152174
 20
2.7514899891
 30
0.0
 10
15.3748803879
 20
2.7263235835
 30
0.0
 10
15.373719088
 20
2.7053709692
 30
0.0
 10
15.3724340876
 20
2.6906488546
 30
0.0
 10
15.3711765073
 20
2.6811364157
 30
0.0
 10
15.3702291917
 20
2.6757169682
 30
0.0
 10
15.3692369833
 20
2.6714550423
 30
0.0
 10
15.3681517577
 20
2.6683516966
 30
0.0
 10
15.3670969152
 20
2.6663133411
 30
0.0
 10
15.3659990139
 20
2.6655473825
 30
0.0
 10
15.3655287874
 20
2.6655227389
 30
0.0
  0
SPLINE
  5
29F
100
AcDbEntity
  8
_1
100
AcDbSpline
 62
7
  6
BYLAYER
 70
0
 71
3
 72
10
 73
6
 74
0
 42
0.0000001
 43
0.0000001
 44
0.0000000001
 40
0.0
 40
0.0
 40
0.0
 40
0.0
 40
0.5412219903
 40
0.7857188275
 40
1.0
 40
1.0
 40
1.0
 40
1.0
 10
15.3655287874
 20
3.1648375063
 30
0.0
 10
15.3688505837
 20
3.1012797693
 30
0.0
 10
15.3728019203
 20
3.0089585223
 30
0.0
 10
15.3757389292
 20
2.8913991633
 30
0.0
 10
15.3763173405
 20
2.8374493843
 30
0.0
 10
15.3763173405
 20
2.8122511943
 30
0.0
  0
SPLINE
  5
2A0
100
AcDbEntity
  8
_1
100
AcDbSpline
 62
7
  6
BYLAYER
 70
0
 71
3
 72
21
 73
17
 74
0
 42
0.0000001
 43
0.0000001
 44
0.0000000001
 40
0.0
 40
0.0
 40
0.0
 40
0.0
 40
0.006230482
 40
0.0119824417
 40
0.0197992288
 40
0.0298007865
 40
0.0420785046
 40
0.0737715139
 40
0.1153158857
 40
0.1665287798
 40
0.2269907931
 40
0.295970537
 40
0.4553127985
 40
0.6334349049
 40
0.8185527878
 40
1.0
 40
1.0
 40
1.0
 40
1.0
 10
13.9440327217
 20
5.2656073662
 30
0.0
 10
13.9450719802
 20
5.2655528999
 30
0.0
 10
13.9464007211
 20
5.2634161906
 30
0.0
 10
13.9474649995
 20
5.2604819635
 30
0.0
 10
13.9484735313
 20
5.2565987215
 30
0.0
 10
13.9493964308
 20
5.2516823004
 30
0.0
 10
13.9506887317
 20
5.2427454329
 30
0.0
 10
13.9520254615
 20
5.2285260428
 30
0.0
 10
13.9532549466
 20
5.2077700892
 30
0.0
 10
13.9541620969
 20
5.182193046
 30
0.0
 10
13.9547144387
 20
5.1520217083
 30
0.0
 10
13.9549539353
 20
5.1037853809
 30
0.0
 10
13.9541652798
 20
5.035896947
 30
0.0
 10
13.9519394727
 20
4.948635874
 30
0.0
 10
13.9485176761
 20
4.8577185784
 30
0.0
 10
13.9456145527
 20
4.796558632
 30
0.0
 10
13.9440327217
 20
4.7662925988
 30
0.0
  0
SPLINE
  5
2A1
100
AcDbEntity
  8
_1
100
AcDbSpline
 62
7
  6
BYLAYER
 70
0
 71
3
 72
15
 73
11
 74
0
 42
0.0000001
 43
0.0000001
 44
0.0000000001
 40
0.0
 40
0.0
 40
0.0
 40
0.0
 40
0.1250107978
 40
0.2500001975
 40
0.3749971416
 40
0.4999998807
 40
0.6250026331
 40
0.7499996143
 40
0.8749890791
 40
1.0
 40
1.0
 40
1.0
 40
1.0
 10
15.3655798211
 20
3.2683482967
 30
0.0
 10
15.3655798212
 20
3.3631170089
 30
0.0
 10
15.3473550785
 20
3.5531031417
 30
0.0
 10
15.2672528002
 20
3.8275695141
 30
0.0
 10
15.1363650895
 20
4.0818648246
 30
0.0
 10
14.9602400873
 20
4.3071905527
 30
0.0
 10
14.74444106
 20
4.4948671262
 30
0.0
 10
14.4973444983
 20
4.6388846172
 30
0.0
 10
14.227446453
 20
4.7332419671
 30
0.0
 10
14.0386743814
 20
4.7613850481
 30
0.0
 10
13.9440354578
 20
4.7663449514
 30
0.0
  0
SPLINE
  5
2A2
100
AcDbEntity
  8
_1
100
AcDbSpline
 62
7
  6
BYLAYER
 70
0
 71
3
 72
11
 73
7
 74
0
 42
0.0000001
 43
0.0000001
 44
0.0000000001
 40
0.0
 40
0.0
 40
0.0
 40
0.0
 40
0.3195803978
 40
0.6237126591
 40
0.8811088423
 40
1.0
 40
1.0
 40
1.0
 40
1.0
 10
9.7556914969
 20
13.2283163265
 30
0.0
 10
9.728791269
 20
13.2496217014
 30
0.0
 10
9.6761449351
 20
13.2910176684
 30
0.0
 10
9.6020373124
 20
13.3498322846
 30
0.0
 10
9.5448592915
 20
13.3953137702
 30
0.0
 10
9.5131866087
 20
13.4204005729
 30
0.0
 10
9.5031709181
 20
13.4283163265
 30
0.0
  0
SPLINE
  5
2A3
100
AcDbEntity
  8
_1
100
AcDbSpline
 62
7
  6
BYLAYER
 70
0
 71
3
 72
15
 73
11
 74
0
 42
0.0000001
 43
0.0000001
 44
0.0000000001
 40
0.0
 40
0.0
 40
0.0
 40
0.0
 40
0.1250109209
 40
0.2500003857
 40
0.3749973669
 40
0.5000001193
 40
0.6250028584
 40
0.7499998025
 40
0.8749892022
 40
1.0
 40
1.0
 40
1.0
 40
1.0
 10
7.7346861607
 20
4.7663449513
 30
0.0
 10
7.6400472371
 20
4.761385048
 30
0.0
 10
7.4512751655
 20
4.7332419671
 30
0.0
 10
7.1813771203
 20
4.6388846172
 30
0.0
 10
6.9342805585
 20
4.4948671262
 30
0.0
 10
6.7184815312
 20
4.3071905527
 30
0.0
 10
6.542356529
 20
4.0818648245
 30
0.0
 10
6.4114688183
 20
3.827569514
 30
0.0
 10
6.3313665401
 20
3.5531031417
 30
0.0
 10
6.3131417974
 20
3.3631170089
 30
0.0
 10
6.3131417975
 20
3.2683482967
 30
0.0
  0
SPLINE
  5
2A4
100
AcDbEntity
  8
_1
100
AcDbSpline
 62
7
  6
BYLAYER
 70
0
 71
3
 72
15
 73
11
 74
0
 42
0.0000001
 43
0.0000001
 44
0.0000000001
 40
0.0
 40
0.0
 40
0.0
 40
0.0
 40
0.0534072677
 40
0.1121519839
 40
0.192758993
 40
0.3005515894
 40
0.4366918601
 40
0.5998257215
 40
0.788164473
 40
1.0
 40
1.0
 40
1.0
 40
1.0
 10
7.4408474549
 20
9.2719980825
 30
0.0
 10
7.44108518
 20
9.2709883112
 30
0.0
 10
7.4422284987
 20
9.2689185148
 30
0.0
 10
7.445873385
 20
9.2674938132
 30
0.0
 10
7.450636906
 20
9.2670188975
 30
0.0
 10
7.4569522708
 20
9.266941943
 30
0.0
 10
7.4648551181
 20
9.2670055956
 30
0.0
 10
7.4743239682
 20
9.2673168626
 30
0.0
 10
7.4852472802
 20
9.2679625219
 30
0.0
 10
7.4929920304
 20
9.2686411851
 30
0.0
 10
7.4970853922
 20
9.2690594049
 30
0.0
  0
SPLINE
  5
2A5
100
AcDbEntity
  8
_1
100
AcDbSpline
 62
7
  6
BYLAYER
 70
0
 71
3
 72
10
 73
6
 74
0
 42
0.0000001
 43
0.0000001
 44
0.0000000001
 40
0.0
 40
0.0
 40
0.0
 40
0.0
 40
0.2122429428
 40
0.4553501828
 40
1.0
 40
1.0
 40
1.0
 40
1.0
 10
7.4970853922
 20
9.2690594049
 30
0.0
 10
7.506371141
 20
9.2700081322
 30
0.0
 10
7.5262293853
 20
9.2726606673
 30
0.0
 10
7.569599465
 20
9.2799573728
 30
0.0
 10
7.6035718742
 20
9.2868388366
 30
0.0
 10
7.626918932
 20
9.2921914846
 30
0.0
  0
SPLINE
  5
2A6
100
AcDbEntity
  8
_1
100
AcDbSpline
 62
7
  6
BYLAYER
 70
0
 71
3
 72
9
 73
5
 74
0
 42
0.0000001
 43
0.0000001
 44
0.0000000001
 40
0.0
 40
0.0
 40
0.0
 40
0.0
 40
0.2598566095
 40
1.0
 40
1.0
 40
1.0
 40
1.0
 10
6.3131928311
 20
26.1917951468
 30
0.0
 10
6.3121227088
 20
26.2122703804
 30
0.0
 10
6.3082618603
 20
26.2910776115
 30
0.0
 10
6.3053589023
 20
26.3699345285
 30
0.0
 10
6.3039532883
 20
26.4283163265
 30
0.0
  0
SPLINE
  5
2A7
100
AcDbEntity
  8
_1
100
AcDbSpline
 62
7
  6
BYLAYER
 70
0
 71
3
 72
26
 73
22
 74
0
 42
0.0000001
 43
0.0000001
 44
0.0000000001
 40
0.0
 40
0.0
 40
0.0
 40
0.0
 40
0.000371409
 40
0.0011796428
 40
0.0043074047
 40
0.0095483107
 40
0.0169796303
 40
0.0266713525
 40
0.038691448
 40
0.0531071074
 40
0.0699851566
 40
0.1112149852
 40
0.1620139344
 40
0.2218341339
 40
0.2901273119
 40
0.3661932296
 40
0.4487243907
 40
0.5362613958
 40
0.6273447719
 40
0.8145686286
 40
1.0
 40
1.0
 40
1.0
 40
1.0
 10
5.9722749676
 20
16.3634311536
 30
0.0
 10
5.9722615071
 20
16.3634883616
 30
0.0
 10
5.9724212475
 20
16.3636544144
 30
0.0
 10
5.9729796279
 20
16.3639619995
 30
0.0
 10
5.9743671518
 20
16.3645315641
 30
0.0
 10
5.9767078674
 20
16.3653310339
 30
0.0
 10
5.9800944503
 20
16.3663994738
 30
0.0
 10
5.984511093
 20
16.3677094369
 30
0.0
 10
5.9900100898
 20
16.3692786087
 30
0.0
 10
5.9966146865
 20
16.3711078335
 30
0.0
 10
6.0076920312
 20
16.374106876
 30
0.0
 10
6.0243572513
 20
16.3784938587
 30
0.0
 10
6.0476261946
 20
16.3844859133
 30
0.0
 10
6.0750700956
 20
16.391436454
 30
0.0
 10
6.1064142425
 20
16.3992713383
 30
0.0
 10
6.141267152
 20
16.4078877482
 30
0.0
 10
6.1790949694
 20
16.4171583862
 30
0.0
 10
6.2192475144
 20
16.4269261294
 30
0.0
 10
6.2755174485
 20
16.4405242992
 30
0.0
 10
6.3468806602
 20
16.4576104913
 30
0.0
 10
6.4042577973
 20
16.4712128881
 30
0.0
 10
6.4328155736
 20
16.4779508205
 30
0.0
  0
SPLINE
  5
2A8
100
AcDbEntity
  8
_1
100
AcDbSpline
 62
7
  6
BYLAYER
 70
0
 71
3
 72
11
 73
7
 74
0
 42
0.0000001
 43
0.0000001
 44
0.0000000001
 40
0.0
 40
0.0
 40
0.0
 40
0.0
 40
0.2775879179
 40
0.5432453451
 40
0.7866436971
 40
1.0
 40
1.0
 40
1.0
 40
1.0
 10
7.6274159248
 20
9.2905186735
 30
0.0
 10
7.6158607376
 20
9.2872513345
 30
0.0
 10
7.5932517483
 20
9.2808418776
 30
0.0
 10
7.5603904734
 20
9.2719857729
 30
0.0
 10
7.5299588409
 20
9.2648565494
 30
0.0
 10
7.5106414182
 20
9.260703699
 30
0.0
 10
7.5016227605
 20
9.2587415845
 30
0.0
  0
SPLINE
  5
2A9
100
AcDbEntity
  8
_1
100
AcDbSpline
 62
7
  6
BYLAYER
 70
0
 71
3
 72
19
 73
15
 74
0
 42
0.0000001
 43
0.0000001
 44
0.0000000001
 40
0.0
 40
0.0
 40
0.0
 40
0.0
 40
0.2253887202
 40
0.4251951814
 40
0.5976232438
 40
0.7408775141
 40
0.8010407775
 40
0.853407321
 40
0.8979020712
 40
0.9344507352
 40
0.9629807567
 40
0.9834241923
 40
0.9957302214
 40
1.0
 40
1.0
 40
1.0
 40
1.0
 10
7.5016227605
 20
9.2587415845
 30
0.0
 10
7.4974994206
 20
9.2578445037
 30
0.0
 10
7.4897235448
 20
9.2561394052
 30
0.0
 10
7.4787990717
 20
9.2537209915
 30
0.0
 10
7.4693761529
 20
9.2516355897
 30
0.0
 10
7.4625006317
 20
9.2501355074
 30
0.0
 10
7.4578155801
 20
9.2491477213
 30
0.0
 10
7.4549338783
 20
9.2485558906
 30
0.0
 10
7.4524890885
 20
9.2480731917
 30
0.0
 10
7.450458264
 20
9.2476852455
 30
0.0
 10
7.4489194521
 20
9.2474282609
 30
0.0
 10
7.447698116
 20
9.2472101374
 30
0.0
 10
7.4471631495
 20
9.2472105486
 30
0.0
 10
7.4466887401
 20
9.2471253027
 30
0.0
 10
7.4466813338
 20
9.247204899
 30
0.0
  0
SPLINE
  5
2AA
100
AcDbEntity
  8
_1
100
AcDbSpline
 62
7
  6
BYLAYER
 70
0
 71
3
 72
9
 73
5
 74
0
 42
0.0000001
 43
0.0000001
 44
0.0000000001
 40
0.0
 40
0.0
 40
0.0
 40
0.0
 40
0.5444728541
 40
1.0
 40
1.0
 40
1.0
 40
1.0
 10
7.6386637525
 20
9.2812780925
 30
0.0
 10
7.6421778249
 20
9.239220703
 30
0.0
 10
7.6496667429
 20
9.1620660122
 30
0.0
 10
7.6573093465
 20
9.084931367
 30
0.0
 10
7.6608370844
 20
9.0497985778
 30
0.0
  0
SPLINE
  5
2AB
100
AcDbEntity
  8
_1
100
AcDbSpline
 62
7
  6
BYLAYER
 70
0
 71
3
 72
21
 73
17
 74
0
 42
0.0000001
 43
0.0000001
 44
0.0000000001
 40
0.0
 40
0.0
 40
0.0
 40
0.0
 40
0.1814472122
 40
0.3665650951
 40
0.5446872015
 40
0.704029463
 40
0.7730092069
 40
0.8334712202
 40
0.8846841143
 40
0.9262284861
 40
0.9579214954
 40
0.9701992135
 40
0.9802007712
 40
0.9880175583
 40
0.993769518
 40
1.0
 40
1.0
 40
1.0
 40
1.0
 10
7.7346888968
 20
4.7662925988
 30
0.0
 10
7.7331070658
 20
4.796558632
 30
0.0
 10
7.7302039424
 20
4.8577185784
 30
0.0
 10
7.7267821458
 20
4.948635874
 30
0.0
 10
7.7245563387
 20
5.035896947
 30
0.0
 10
7.7237676832
 20
5.1037853809
 30
0.0
 10
7.7240071798
 20
5.1520217083
 30
0.0
 10
7.7245595217
 20
5.182193046
 30
0.0
 10
7.725466672
 20
5.2077700892
 30
0.0
 10
7.726696157
 20
5.2285260428
 30
0.0
 10
7.7280328869
 20
5.2427454329
 30
0.0
 10
7.7293251877
 20
5.2516823004
 30
0.0
 10
7.7302480872
 20
5.2565987215
 30
0.0
 10
7.731256619
 20
5.2604819635
 30
0.0
 10
7.7323208974
 20
5.2634161906
 30
0.0
 10
7.7336496383
 20
5.2655528999
 30
0.0
 10
7.7346888968
 20
5.2656073662
 30
0.0
  0
SPLINE
  5
2AC
100
AcDbEntity
  8
_1
100
AcDbSpline
 62
7
  6
BYLAYER
 70
0
 71
3
 72
27
 73
23
 74
0
 42
0.0000001
 43
0.0000001
 44
0.0000000001
 40
0.0
 40
0.0
 40
0.0
 40
0.0
 40
0.1975181862
 40
0.3863520531
 40
0.4751317117
 40
0.5591261966
 40
0.6375910933
 40
0.7098426991
 40
0.7752442269
 40
0.833162753
 40
0.8830648676
 40
0.9245471531
 40
0.9420077688
 40
0.9572162054
 40
0.9701371937
 40
0.9807532172
 40
0.9890487251
 40
0.9950102116
 40
0.9971134496
 40
0.9986329345
 40
0.9995770533
 40
1.0
 40
1.0
 40
1.0
 40
1.0
 10
8.1765253224
 20
9.0671843884
 30
0.0
 10
8.1461061042
 20
9.0600072668
 30
0.0
 10
8.0866209673
 20
9.0459013051
 30
0.0
 10
8.0135077414
 20
9.0283819954
 30
0.0
 10
7.9578916627
 20
9.0149319462
 30
0.0
 10
7.9192647075
 20
9.0055287785
 30
0.0
 10
7.8831939805
 20
8.9966823565
 30
0.0
 10
7.8499968441
 20
8.988470916
 30
0.0
 10
7.8199732924
 20
8.9809696082
 30
0.0
 10
7.793400247
 20
8.9742478888
 30
0.0
 10
7.7705189055
 20
8.9683666136
 30
0.0
 10
7.7538600234
 20
8.9639932619
 30
0.0
 10
7.7425301792
 20
8.9609426881
 30
0.0
 10
7.7355740598
 20
8.9590302409
 30
0.0
 10
7.7296745684
 20
8.9573636757
 30
0.0
 10
7.7248392785
 20
8.95594589
 30
0.0
 10
7.7210830698
 20
8.9547846874
 30
0.0
 10
7.718620673
 20
8.9539549168
 30
0.0
 10
7.7172150384
 20
8.9534179553
 30
0.0
 10
7.716537733
 20
8.9531101556
 30
0.0
 10
7.7161686245
 20
8.9529148471
 30
0.0
 10
7.7159693878
 20
8.9527298677
 30
0.0
 10
7.7159847163
 20
8.9526647215
 30
0.0
  0
SPLINE
  5
2AD
100
AcDbEntity
  8
_1
100
AcDbSpline
 62
7
  6
BYLAYER
 70
0
 71
3
 72
10
 73
6
 74
0
 42
0.0000001
 43
0.0000001
 44
0.0000000001
 40
0.0
 40
0.0
 40
0.0
 40
0.0
 40
0.2142811725
 40
0.4587780097
 40
1.0
 40
1.0
 40
1.0
 40
1.0
 10
6.302404278
 20
2.8122511943
 30
0.0
 10
6.302404278
 20
2.8374493843
 30
0.0
 10
6.3029826893
 20
2.8913991633
 30
0.0
 10
6.3059196982
 20
3.0089585223
 30
0.0
 10
6.3098710348
 20
3.1012797693
 30
0.0
 10
6.3131928311
 20
3.1648375063
 30
0.0
  0
SPLINE
  5
2AE
100
AcDbEntity
  8
_1
100
AcDbSpline
 62
7
  6
BYLAYER
 70
0
 71
3
 72
18
 73
14
 74
0
 42
0.0000001
 43
0.0000001
 44
0.0000000001
 40
0.0
 40
0.0
 40
0.0
 40
0.0
 40
0.0095183222
 40
0.0244037925
 40
0.0463280329
 40
0.0757418051
 40
0.1127874429
 40
0.1575007931
 40
0.2696623437
 40
0.411402525
 40
0.5816624055
 40
0.7786268177
 40
1.0
 40
1.0
 40
1.0
 40
1.0
 10
6.3131928311
 20
2.6655227389
 30
0.0
 10
6.3127226046
 20
2.6655473825
 30
0.0
 10
6.3116247033
 20
2.6663133411
 30
0.0
 10
6.3105698608
 20
2.6683516966
 30
0.0
 10
6.3094846352
 20
2.6714550423
 30
0.0
 10
6.3084924268
 20
2.6757169682
 30
0.0
 10
6.3075451112
 20
2.6811364157
 30
0.0
 10
6.3062875309
 20
2.6906488546
 30
0.0
 10
6.3050025305
 20
2.7053709692
 30
0.0
 10
6.3038412306
 20
2.7263235835
 30
0.0
 10
6.3030064011
 20
2.7514899891
 30
0.0
 10
6.3025044144
 20
2.7806043866
 30
0.0
 10
6.302404278
 20
2.8012998534
 30
0.0
 10
6.302404278
 20
2.8122511943
 30
0.0
  0
SPLINE
  5
2AF
100
AcDbEntity
  8
_1
100
AcDbSpline
 62
7
  6
BYLAYER
 70
0
 71
3
 72
22
 73
18
 74
0
 42
0.0000001
 43
0.0000001
 44
0.0000000001
 40
0.0
 40
0.0
 40
0.0
 40
0.0
 40
0.0028166895
 40
0.0072264004
 40
0.0137217118
 40
0.022433775
 40
0.0334026674
 40
0.0466381967
 40
0.0798667111
 40
0.1218470236
 40
0.1721873607
 40
0.2304718664
 40
0.2961416372
 40
0.446958702
 40
0.6189965633
 40
0.8059226796
 40
1.0
 40
1.0
 40
1.0
 40
1.0
 10
8.1765253224
 20
8.567869621
 30
0.0
 10
8.1760553993
 20
8.5678942486
 30
0.0
 10
8.1749583297
 20
8.5686620862
 30
0.0
 10
8.1739052109
 20
8.5707014131
 30
0.0
 10
8.1728204117
 20
8.5738063578
 30
0.0
 10
8.1718282377
 20
8.5780689914
 30
0.0
 10
8.1708801986
 20
8.5834877571
 30
0.0
 10
8.1696193995
 20
8.5930015081
 30
0.0
 10
8.1683346141
 20
8.6077271321
 30
0.0
 10
8.1671745887
 20
8.6286712258
 30
0.0
 10
8.1663373418
 20
8.6538197711
 30
0.0
 10
8.1658365442
 20
8.6829346964
 30
0.0
 10
8.1656201242
 20
8.7288395797
 30
0.0
 10
8.1663143623
 20
8.7937480317
 30
0.0
 10
8.1684388854
 20
8.8788897262
 30
0.0
 10
8.1718338308
 20
8.971222595
 30
0.0
 10
8.1748330495
 20
9.034805211
 30
0.0
 10
8.1765253224
 20
9.0671843884
 30
0.0
  0
SPLINE
  5
2B0
100
AcDbEntity
  8
_1
100
AcDbSpline
 62
7
  6
BYLAYER
 70
0
 71
3
 72
27
 73
23
 74
0
 42
0.0000001
 43
0.0000001
 44
0.0000000001
 40
0.0
 40
0.0
 40
0.0
 40
0.0
 40
0.0004229467
 40
0.0013670655
 40
0.0028865506
 40
0.0049897887
 40
0.0109512756
 40
0.0192467839
 40
0.0298628077
 40
0.0427837964
 40
0.0579922333
 40
0.0754528495
 40
0.1169351365
 40
0.1668372524
 40
0.224755779
 40
0.290157308
 40
0.362408915
 40
0.440873812
 40
0.5248682969
 40
0.6136479546
 40
0.8024818162
 40
1.0
 40
1.0
 40
1.0
 40
1.0
 10
13.9627369022
 20
8.9526647215
 30
0.0
 10
13.9627522307
 20
8.9527298677
 30
0.0
 10
13.962552994
 20
8.9529148471
 30
0.0
 10
13.9621838855
 20
8.9531101556
 30
0.0
 10
13.96150658
 20
8.9534179553
 30
0.0
 10
13.9601009454
 20
8.9539549169
 30
0.0
 10
13.9576385484
 20
8.9547846875
 30
0.0
 10
13.9538823395
 20
8.9559458901
 30
0.0
 10
13.9490470494
 20
8.9573636759
 30
0.0
 10
13.9431475579
 20
8.9590302411
 30
0.0
 10
13.9361914383
 20
8.9609426883
 30
0.0
 10
13.9248615937
 20
8.9639932623
 30
0.0
 10
13.9082027112
 20
8.9683666141
 30
0.0
 10
13.8853213692
 20
8.9742478894
 30
0.0
 10
13.8587483233
 20
8.9809696089
 30
0.0
 10
13.8287247712
 20
8.9884709168
 30
0.0
 10
13.7955276344
 20
8.9966823574
 30
0.0
 10
13.7594569071
 20
9.0055287794
 30
0.0
 10
13.720829952
 20
9.0149319471
 30
0.0
 10
13.6652138742
 20
9.0283819961
 30
0.0
 10
13.5921006496
 20
9.0459013055
 30
0.0
 10
13.532615514
 20
9.0600072668
 30
0.0
 10
13.5021962961
 20
9.0671843884
 30
0.0
  0
SPLINE
  5
2B1
100
AcDbEntity
  8
_1
100
AcDbSpline
 62
7
  6
BYLAYER
 70
0
 71
3
 72
22
 73
18
 74
0
 42
0.0000001
 43
0.0000001
 44
0.0000000001
 40
0.0
 40
0.0
 40
0.0
 40
0.0
 40
0.1940773204
 40
0.3810034367
 40
0.553041298
 40
0.7038583628
 40
0.7695281336
 40
0.8278126393
 40
0.8781529764
 40
0.9201332889
 40
0.9533618033
 40
0.9665973326
 40
0.977566225
 40
0.9862782882
 40
0.9927735996
 40
0.9971833105
 40
1.0
 40
1.0
 40
1.0
 40
1.0
 10
13.5021962961
 20
9.0671843884
 30
0.0
 10
13.503888569
 20
9.034805211
 30
0.0
 10
13.5068877877
 20
8.971222595
 30
0.0
 10
13.5102827332
 20
8.8788897262
 30
0.0
 10
13.5124072563
 20
8.7937480317
 30
0.0
 10
13.5131014943
 20
8.7288395797
 30
0.0
 10
13.5128850743
 20
8.6829346964
 30
0.0
 10
13.5123842768
 20
8.6538197711
 30
0.0
 10
13.5115470298
 20
8.6286712258
 30
0.0
 10
13.5103870044
 20
8.6077271321
 30
0.0
 10
13.509102219
 20
8.5930015081
 30
0.0
 10
13.5078414199
 20
8.5834877571
 30
0.0
 10
13.5068933808
 20
8.5780689914
 30
0.0
 10
13.5059012068
 20
8.5738063578
 30
0.0
 10
13.5048164076
 20
8.5707014131
 30
0.0
 10
13.5037632888
 20
8.5686620862
 30
0.0
 10
13.5026662192
 20
8.5678942486
 30
0.0
 10
13.5021962961
 20
8.567869621
 30
0.0
  0
SPLINE
  5
2B2
100
AcDbEntity
  8
_1
100
AcDbSpline
 62
7
  6
BYLAYER
 70
0
 71
3
 72
26
 73
22
 74
0
 42
0.0000001
 43
0.0000001
 44
0.0000000001
 40
0.0
 40
0.0
 40
0.0
 40
0.0
 40
0.1854313714
 40
0.3726552281
 40
0.4637386042
 40
0.5512756093
 40
0.6338067704
 40
0.7098726881
 40
0.7781658661
 40
0.8379860656
 40
0.8887850148
 40
0.9300148434
 40
0.9468928926
 40
0.961308552
 40
0.9733286475
 40
0.9830203697
 40
0.9904516893
 40
0.9956925953
 40
0.9988203572
 40
0.999628591
 40
1.0
 40
1.0
 40
1.0
 40
1.0
 10
15.2459060449
 20
16.4779508205
 30
0.0
 10
15.2744638212
 20
16.4712128881
 30
0.0
 10
15.3318409583
 20
16.4576104913
 30
0.0
 10
15.4032041701
 20
16.4405242992
 30
0.0
 10
15.4594741041
 20
16.4269261294
 30
0.0
 10
15.4996266491
 20
16.4171583862
 30
0.0
 10
15.5374544665
 20
16.4078877482
 30
0.0
 10
15.572307376
 20
16.3992713383
 30
0.0
 10
15.6036515229
 20
16.391436454
 30
0.0
 10
15.6310954239
 20
16.3844859133
 30
0.0
 10
15.6543643672
 20
16.3784938587
 30
0.0
 10
15.6710295874
 20
16.374106876
 30
0.0
 10
15.682106932
 20
16.3711078335
 30
0.0
 10
15.6887115287
 20
16.3692786087
 30
0.0
 10
15.6942105256
 20
16.3677094369
 30
0.0
 10
15.6986271682
 20
16.3663994738
 30
0.0
 10
15.7020137511
 20
16.3653310339
 30
0.0
 10
15.7043544667
 20
16.3645315641
 30
0.0
 10
15.7057419906
 20
16.3639619995
 30
0.0
 10
15.706300371
 20
16.3636544144
 30
0.0
 10
15.7064601114
 20
16.3634883616
 30
0.0
 10
15.7064466509
 20
16.3634311536
 30
0.0
  0
SPLINE
  5
2B3
100
AcDbEntity
  8
_1
100
AcDbSpline
 62
7
  6
BYLAYER
 70
0
 71
3
 72
15
 73
11
 74
0
 42
0.0000001
 43
0.0000001
 44
0.0000000001
 40
0.0
 40
0.0
 40
0.0
 40
0.0
 40
0.0534088438
 40
0.1121706109
 40
0.1927885051
 40
0.30057997
 40
0.4367135227
 40
0.5998428034
 40
0.7881754881
 40
1.0
 40
1.0
 40
1.0
 40
1.0
 10
14.2378741636
 20
9.2719980825
 30
0.0
 10
14.2376362937
 20
9.2709876958
 30
0.0
 10
14.2364918038
 20
9.2689166638
 30
0.0
 10
14.2328447753
 20
9.2674900813
 30
0.0
 10
14.2280779019
 20
9.2670140433
 30
0.0
 10
14.2217587998
 20
9.2669385299
 30
0.0
 10
14.2138516325
 20
9.2670045857
 30
0.0
 10
14.2043776852
 20
9.2673173691
 30
0.0
 10
14.1934485308
 20
9.2679645645
 30
0.0
 10
14.1856996743
 20
9.268644172
 30
0.0
 10
14.1816041824
 20
9.269062909
 30
0.0
  0
SPLINE
  5
2B4
100
AcDbEntity
  8
_1
100
AcDbSpline
 62
7
  6
BYLAYER
 70
0
 71
3
 72
10
 73
6
 74
0
 42
0.0000001
 43
0.0000001
 44
0.0000000001
 40
0.0
 40
0.0
 40
0.0
 40
0.0
 40
0.2122584927
 40
0.4553681853
 40
1.0
 40
1.0
 40
1.0
 40
1.0
 10
14.1816041824
 20
9.269062909
 30
0.0
 10
14.1723200911
 20
9.2700121461
 30
0.0
 10
14.1524660497
 20
9.2726650275
 30
0.0
 10
14.1091066569
 20
9.2799604688
 30
0.0
 10
14.075143268
 20
9.2868403214
 30
0.0
 10
14.0518026865
 20
9.2921914846
 30
0.0
  0
SPLINE
  5
2B5
100
AcDbEntity
  8
_1
100
AcDbSpline
 62
7
  6
BYLAYER
 70
0
 71
3
 72
9
 73
5
 74
0
 42
0.0000001
 43
0.0000001
 44
0.0000000001
 40
0.0
 40
0.0
 40
0.0
 40
0.0
 40
0.5427833221
 40
1.0
 40
1.0
 40
1.0
 40
1.0
 10
14.0400577572
 20
9.2812793243
 30
0.0
 10
14.0365106947
 20
9.2398440688
 30
0.0
 10
14.0292023672
 20
9.163573354
 30
0.0
 10
14.0216700673
 20
9.0873273355
 30
0.0
 10
14.0181579254
 20
9.0524729578
 30
0.0
  0
SPLINE
  5
2B6
100
AcDbEntity
  8
_1
100
AcDbSpline
 62
7
  6
BYLAYER
 70
0
 71
3
 72
18
 73
14
 74
0
 42
0.0000001
 43
0.0000001
 44
0.0000000001
 40
0.0
 40
0.0
 40
0.0
 40
0.0
 40
0.0042691436
 40
0.016509848
 40
0.036848728
 40
0.0652452969
 40
0.1016401501
 40
0.1459687776
 40
0.2581602757
 40
0.4011270932
 40
0.5734806023
 40
0.7736341455
 40
1.0
 40
1.0
 40
1.0
 40
1.0
 10
14.2320402847
 20
9.247204899
 30
0.0
 10
14.2320335584
 20
9.2471326109
 30
0.0
 10
14.2316061471
 20
9.2472002032
 30
0.0
 10
14.2311199607
 20
9.2472022854
 30
0.0
 10
14.2300166578
 20
9.2473920806
 30
0.0
 10
14.2286241048
 20
9.2476219761
 30
0.0
 10
14.2267866197
 20
9.2479681711
 30
0.0
 10
14.2235735316
 20
9.248596871
 30
0.0
 10
14.2185826813
 20
9.2496342447
 30
0.0
 10
14.2114789523
 20
9.2511722997
 30
0.0
 10
14.2029170345
 20
9.2530562351
 30
0.0
 10
14.1929715493
 20
9.2552478512
 30
0.0
 10
14.1858856294
 20
9.2567974653
 30
0.0
 10
14.1821238031
 20
9.2576145403
 30
0.0
  0
SPLINE
  5
2B7
100
AcDbEntity
  8
_1
100
AcDbSpline
 62
7
  6
BYLAYER
 70
0
 71
3
 72
11
 73
7
 74
0
 42
0.0000001
 43
0.0000001
 44
0.0000000001
 40
0.0
 40
0.0
 40
0.0
 40
0.0
 40
0.209440738
 40
0.4521476998
 40
0.7195159548
 40
1.0
 40
1.0
 40
1.0
 40
1.0
 10
14.1821238031
 20
9.2576145403
 30
0.0
 10
14.1729185114
 20
9.2596139453
 30
0.0
 10
14.1530362616
 20
9.2638859773
 30
0.0
 10
14.1215237083
 20
9.2712687968
 30
0.0
 10
14.0871741284
 20
9.2804693762
 30
0.0
 10
14.0634494145
 20
9.2871230438
 30
0.0
 10
14.0513001548
 20
9.2905199593
 30
0.0
  0
SPLINE
  5
2B8
100
AcDbEntity
  8
_1
100
AcDbSpline
 62
7
  6
BYLAYER
 70
0
 71
3
 72
9
 73
5
 74
0
 42
0.0000001
 43
0.0000001
 44
0.0000000001
 40
0.0
 40
0.0
 40
0.0
 40
0.0
 40
0.2362747419
 40
1.0
 40
1.0
 40
1.0
 40
1.0
 10
15.3747683302
 20
26.4283163265
 30
0.0
 10
15.3743196179
 20
26.4096791811
 30
0.0
 10
15.3720807687
 20
26.3308084068
 30
0.0
 10
15.3686739081
 20
26.2519724536
 30
0.0
 10
15.3655287874
 20
26.1917951468
 30
0.0
  0
ENDSEC
  0
SECTION
  2
OBJECTS
  0
DICTIONARY
  5
C
100
AcDbDictionary
280
0
281
1
  3
ACAD_GROUP
350
D
  3
ACAD_MLINESTYLE
350
17
  3
ACAD_LAYOUT
350
1A
  3
ACAD_PLOTSETTINGS
350
19
  3
ACAD_PLOTSTYLENAME
350
E
  0
DICTIONARY
  5
D
102
{ACAD_REACTORS
330
C
102
}
100
AcDbDictionary
280
0
281
1
  0
ACDBDICTIONARYWDFLT
  5
E
102
{ACAD_REACTORS
330
C
102
}
100
AcDbDictionary
281
1
  3
Normal
350
F
100
AcDbDictionaryWithDefault
340
F
  0
DICTIONARY
  5
17
102
{ACAD_REACTORS
330
C
102
}
100
AcDbDictionary
280
0
281
1
  3
Standard
350
18
  0
DICTIONARY
  5
19
102
{ACAD_REACTORS
330
C
102
}
100
AcDbDictionary
281
1
  0
DICTIONARY
  5
1A
102
{ACAD_REACTORS
330
C
102
}
100
AcDbDictionary
281
1
  3
Model
350
2B9
  3
Layout1
350
2BA
  0
ACDBPLACEHOLDER
  5
F
102
{ACAD_REACTORS
330
E
102
}
  0
MLINESTYLE
  5
18
102
{ACAD_REACTORS
330
17
102
}
100
AcDbMlineStyle
  2
STANDARD
 70
0
  3

 62
256
 51
90.0
 52
90.0
 71
2
 49
0.5
 62
256
  6
BYLAYER
 49
-0.5
 62
256
  6
BYLAYER
  0
LAYOUT
  5
2B9
102
{ACAD_REACTORS
330
1A
102
}
100
AcDbPlotSettings
  1

  2
none_device
  4

  6

 40
0.0
 41
0.0
 42
0.0
 43
0.0
 44
210.0
 45
297.0
 46
0.0
 47
0.0
 48
0.0
 49
0.0
140
0.0
141
0.0
142
1.0
143
1.0
 70
1024
 72
1
 73
0
 74
0
  7

 75
0
147
1.0
148
0.0
149
0.0
100
AcDbLayout
  1
Model
 70
0
 71
0
 10
0.0
 20
0.0
 11
210.0
 21
297.0
 12
0.0
 22
0.0
 32
0.0
 14
0.0
 24
0.0
 34
0.0
 15
0.0
 25
0.0
 35
0.0
146
0.0
 13
0.0
 23
0.0
 33
0.0
 16
1.0
 26
0.0
 36
0.0
 17
0.0
 27
1.0
 37
0.0
 76
0
330
211
345
0
346
0
  0
LAYOUT
  5
2BA
102
{ACAD_REACTORS
330
1A
102
}
100
AcDbPlotSettings
  1

  2
none_device
  4

  6

 40
0.0
 41
0.0
 42
0.0
 43
0.0
 44
210.0
 45
297.0
 46
0.0
 47
0.0
 48
0.0
 49
0.0
140
0.0
141
0.0
142
1.0
143
1.0
 70
0
 72
1
 73
0
 74
0
  7

 75
0
147
1.0
148
0.0
149
0.0
100
AcDbLayout
  1
Layout1
 70
0
 71
1
 10
0.0
 20
0.0
 11
210.0
 21
297.0
 12
0.0
 22
0.0
 32
0.0
 14
0.0
 24
0.0
 34
0.0
 15
0.0
 25
0.0
 35
0.0
146
0.0
 13
0.0
 23
0.0
 33
0.0
 16
1.0
 26
0.0
 36
0.0
 17
0.0
 27
1.0
 37
0.0
 76
0
330
212
345
0
346
0
  0
ENDSEC
  0
EOF
