999
DXF file: C:\Users\sesa63760\Dev\_Creo\CAD\MCADID0004655_3D-CAD\drw0001_1.dxf
999
Pro/ENGINEER 2019471 by Parametric Technology Corporation
  0
SECTION
  2
HEADER
  9
$ACADVER
  1
AC1024
  9
$DWGCODEPAGE
  3
ANSI_1252
  9
$EXTMAX
 10
72.4075389604
 20
102.4049479582
 30
0.0
  9
$EXTMIN
 10
0.0
 20
0.0
 30
0.0
  9
$LIMMIN
 10
0.0
 20
0.0
  9
$LIMMAX
 10
72.4075389604
 20
102.4049479582
  9
$VIEWCTR
 10
36.2037694802
 20
51.2024739791
  9
$VIEWSIZE
 40
102.4049479582
  9
$CLAYER
  8
0
  9
$LTSCALE
 40
6.6752854965
  9
$CELTYPE
  6
BYLAYER
  9
$DIMSCALE
 40
1.0
  9
$DIMASZ
 40
0.8619945114
  9
$DIMEXO
 40
1.0
  9
$DIMDLI
 40
4.612015434
  9
$DIMEXE
 40
1.0
  9
$DIMCEN
 40
1.0923194449
  9
$DIMLFAC
 40
1.0
  9
$DIMBLK
  1
_FILLED
  9
$DIMALT
 70
0
  9
$DIMALTF
 40
0.0393700787
  9
$DIMTXT
 40
1.206792316
  9
$DIMTOL
 70
1
  9
$DIMLIM
 70
0
  9
$DIMTFAC
 40
1.0
  9
$DIMTP
 40
0.01
  9
$DIMTM
 40
0.01
  9
$DIMGAP
 40
0.625
  9
$DIMDSEP
 70
46
  9
$AUNITS
 70
0
  9
$PDMODE
 70
3
  9
$PDSIZE
 40
0.3125
  9
$HANDSEED
  5
290
  9
$TILEMODE
 70
1
  9
$MEASUREMENT
 70
1
  9
$INSUNITS
 70
4
  0
ENDSEC
  0
SECTION
  2
CLASSES
  0
CLASS
  1
ACDBDICTIONARYWDFLT
  2
AcDbDictionaryWithDefault
  3
AutoCAD 2000
 90
0
 91
1
280
0
281
0
  0
CLASS
  1
ACDBPLACEHOLDER
  2
AcDbPlaceHolder
  3
AutoCAD 2000
 90
0
 91
1
280
0
281
0
  0
CLASS
  1
LAYOUT
  2
AcDbLayout
  3
AutoCAD 2000
 90
0
 91
0
280
0
281
0
  0
ENDSEC
  0
SECTION
  2
TABLES
  0
TABLE
  2
VPORT
  5
8
100
AcDbSymbolTable
 70
2
  0
VPORT
  5
1F4
100
AcDbSymbolTableRecord
100
AcDbViewportTableRecord
  2
*ACTIVE
 70
0
 10
0.0
 20
0.0
 11
1.0
 21
1.0
 12
36.2037694802
 22
51.2024739791
 13
0.0
 23
0.0
 14
1.0
 24
1.0
 15
0.0
 25
0.0
 16
0.0
 26
0.0
 36
1.0
 17
0.0
 27
0.0
 37
0.0
 40
102.4049479582
 41
0.7070707071
 42
50.0
 43
0.0
 44
0.0
 50
0.0
 51
0.0
 71
0
 72
100
 73
1
 74
1
 75
0
 76
0
 77
0
 78
0
  0
ENDTAB
  0
TABLE
  2
LTYPE
  5
5
100
AcDbSymbolTable
 70
6
  0
LTYPE
  5
14
100
AcDbSymbolTableRecord
100
AcDbLinetypeTableRecord
  2
BYBLOCK
 70
0
  3

 72
65
 73
0
 40
0.0
  0
LTYPE
  5
15
100
AcDbSymbolTableRecord
100
AcDbLinetypeTableRecord
  2
BYLAYER
 70
0
  3

 72
65
 73
0
 40
0.0
  0
LTYPE
  5
16
100
AcDbSymbolTableRecord
100
AcDbLinetypeTableRecord
  2
CONTINUOUS
 70
64
  3
Solid line
 72
65
 73
0
 40
0.0
  0
LTYPE
  5
1F5
100
AcDbSymbolTableRecord
100
AcDbLinetypeTableRecord
  2
CENTER
 70
64
  3
____ _ ____ _ ____ _ ____ _ ____ _ ____ _ ____
 72
65
 73
4
 40
0.6
 49
0.375
 74
0
 49
-0.075
 74
0
 49
0.075
 74
0
 49
-0.075
 74
0
  0
LTYPE
  5
1F6
100
AcDbSymbolTableRecord
100
AcDbLinetypeTableRecord
  2
HIDDEN
 70
64
  3
- - - - - - - - - - - - - - - - - - - -
 72
65
 73
2
 40
0.2
 49
0.1
 74
0
 49
-0.1
 74
0
  0
LTYPE
  5
1F7
100
AcDbSymbolTableRecord
100
AcDbLinetypeTableRecord
  2
PHANTOM
 70
64
  3
_____ _ _ _____ _ _ _____ _ _ _____
 72
65
 73
6
 40
0.8
 49
0.45
 74
0
 49
-0.05
 74
0
 49
0.1
 74
0
 49
-0.05
 74
0
 49
0.1
 74
0
 49
-0.05
 74
0
  0
LTYPE
  5
1F8
100
AcDbSymbolTableRecord
100
AcDbLinetypeTableRecord
  2
DOT
 70
64
  3
. . . . . . . . . . . . . . . . . . . .
 72
65
 73
2
 40
0.2
 49
0.1
 74
0
 49
-0.1
 74
0
  0
LTYPE
  5
1F9
100
AcDbSymbolTableRecord
100
AcDbLinetypeTableRecord
  2
DASHED
 70
64
  3
- - - - - - - - - - - - - - - - - - - -
 72
65
 73
2
 40
0.2
 49
0.1
 74
0
 49
-0.1
 74
0
  0
ENDTAB
  0
TABLE
  2
LAYER
  5
2
100
AcDbSymbolTable
 70
36
  0
LAYER
  5
10
100
AcDbSymbolTableRecord
100
AcDbLayerTableRecord
  2
0
 70
0
 62
7
  6
CONTINUOUS
370
-3
390
F
  0
LAYER
  5
1FA
100
AcDbSymbolTableRecord
100
AcDbLayerTableRecord
  2
DEFAULT_1
 70
0
 62
7
  6
CENTER
370
-3
390
F
  0
LAYER
  5
1FB
100
AcDbSymbolTableRecord
100
AcDbLayerTableRecord
  2
DEFAULT_2
 70
0
 62
7
  6
HIDDEN
370
-3
390
F
  0
LAYER
  5
1FC
100
AcDbSymbolTableRecord
100
AcDbLayerTableRecord
  2
DEFAULT_3
 70
0
 62
7
  6
PHANTOM
370
-3
390
F
  0
LAYER
  5
1FD
100
AcDbSymbolTableRecord
100
AcDbLayerTableRecord
  2
00_COMPONENTS
 70
0
 62
7
  6
CONTINUOUS
370
-3
390
F
  0
LAYER
  5
1FE
100
AcDbSymbolTableRecord
100
AcDbLayerTableRecord
  2
01_1_DEFAULT_DATUMS
 70
0
 62
7
  6
CONTINUOUS
370
-3
390
F
  0
LAYER
  5
1FF
100
AcDbSymbolTableRecord
100
AcDbLayerTableRecord
  2
01_PLANES
 70
0
 62
7
  6
CONTINUOUS
370
-3
390
F
  0
LAYER
  5
200
100
AcDbSymbolTableRecord
100
AcDbLayerTableRecord
  2
02_COORD_SYS
 70
0
 62
7
  6
CONTINUOUS
370
-3
390
F
  0
LAYER
  5
201
100
AcDbSymbolTableRecord
100
AcDbLayerTableRecord
  2
03_AXES
 70
0
 62
7
  6
CONTINUOUS
370
-3
390
F
  0
LAYER
  5
202
100
AcDbSymbolTableRecord
100
AcDbLayerTableRecord
  2
04_POINTS
 70
0
 62
7
  6
CONTINUOUS
370
-3
390
F
  0
LAYER
  5
203
100
AcDbSymbolTableRecord
100
AcDbLayerTableRecord
  2
05_CURVES
 70
0
 62
7
  6
CONTINUOUS
370
-3
390
F
  0
LAYER
  5
204
100
AcDbSymbolTableRecord
100
AcDbLayerTableRecord
  2
06_SURFS
 70
0
 62
7
  6
CONTINUOUS
370
-3
390
F
  0
LAYER
  5
205
100
AcDbSymbolTableRecord
100
AcDbLayerTableRecord
  2
07_COSMETICS
 70
0
 62
7
  6
CONTINUOUS
370
-3
390
F
  0
LAYER
  5
206
100
AcDbSymbolTableRecord
100
AcDbLayerTableRecord
  2
10_NOTES
 70
0
 62
7
  6
CONTINUOUS
370
-3
390
F
  0
LAYER
  5
207
100
AcDbSymbolTableRecord
100
AcDbLayerTableRecord
  2
11_NOTES_PUB
 70
0
 62
7
  6
CONTINUOUS
370
-3
390
F
  0
LAYER
  5
208
100
AcDbSymbolTableRecord
100
AcDbLayerTableRecord
  2
13_REF_GTOL
 70
0
 62
7
  6
CONTINUOUS
370
-3
390
F
  0
LAYER
  5
209
100
AcDbSymbolTableRecord
100
AcDbLayerTableRecord
  2
16_MISC
 70
0
 62
7
  6
CONTINUOUS
370
-3
390
F
  0
LAYER
  5
20A
100
AcDbSymbolTableRecord
100
AcDbLayerTableRecord
  2
17_NO_PRINT
 70
0
 62
7
  6
CONTINUOUS
370
-3
390
F
  0
LAYER
  5
20B
100
AcDbSymbolTableRecord
100
AcDbLayerTableRecord
  2
18_DATUM_CAMS_JOINTS
 70
0
 62
7
  6
CONTINUOUS
370
-3
390
F
  0
LAYER
  5
20C
100
AcDbSymbolTableRecord
100
AcDbLayerTableRecord
  2
19_DATUM_FUNCTIONAL
 70
0
 62
7
  6
CONTINUOUS
370
-3
390
F
  0
LAYER
  5
20D
100
AcDbSymbolTableRecord
100
AcDbLayerTableRecord
  2
20_DATUM_KINEMATIC_SCHEME
 70
0
 62
7
  6
CONTINUOUS
370
-3
390
F
  0
ENDTAB
  0
TABLE
  2
STYLE
  5
3
100
AcDbSymbolTable
 70
1
  0
STYLE
  5
11
100
AcDbSymbolTableRecord
100
AcDbTextStyleTableRecord
  2
STANDARD
 70
0
 40
0.0
 41
1.0
 50
0.0
 71
0
 42
0.2
  3
ARIAL.TTF
  4

  0
STYLE
  5
20E
100
AcDbSymbolTableRecord
100
AcDbTextStyleTableRecord
  2
TEXTSTYLE_1
 70
0
 40
0.0
 41
0.8
 50
0.0
 71
0
 42
0.2
  3
gdt
  4

  0
ENDTAB
  0
TABLE
  2
VIEW
  5
6
100
AcDbSymbolTable
 70
0
  0
ENDTAB
  0
TABLE
  2
UCS
  5
7
100
AcDbSymbolTable
 70
0
  0
ENDTAB
  0
TABLE
  2
APPID
  5
9
100
AcDbSymbolTable
 70
1
  0
APPID
  5
20F
100
AcDbSymbolTableRecord
100
AcDbRegAppTableRecord
  2
ACAD
 70
0
  0
ENDTAB
  0
TABLE
  2
BLOCK_RECORD
  5
1
100
AcDbSymbolTable
 70
0
  0
BLOCK_RECORD
  5
210
100
AcDbSymbolTableRecord
100
AcDbBlockTableRecord
  2
*Model_Space
  0
BLOCK_RECORD
  5
211
100
AcDbSymbolTableRecord
100
AcDbBlockTableRecord
  2
*Paper_Space
  0
BLOCK_RECORD
  5
212
100
AcDbSymbolTableRecord
100
AcDbBlockTableRecord
  2
_FILLED
  0
ENDTAB
  0
TABLE
  2
DIMSTYLE
  5
A
100
AcDbSymbolTable
 70
1
100
AcDbDimStyleTable
 71
0
  0
DIMSTYLE
105
213
100
AcDbSymbolTableRecord
100
AcDbDimStyleTableRecord
  2
STANDARD
 70
0
  3

  4

 40
1.0
 41
0.8619945114
 42
1.0
 43
0.38
 44
1.0
 45
0.0
 46
0.0
 47
0.01
 48
0.01
140
1.206792316
141
0.09
142
0.0
143
25.4
144
1.0
145
0.0
146
1.0
147
0.625
 71
1
 72
0
 73
0
 74
0
 75
0
 76
0
 77
1
 78
8
 79
2
170
0
171
1
172
0
173
0
174
0
175
0
176
0
177
0
178
0
270
2
179
2
271
2
272
2
273
2
274
2
275
0
280
0
281
0
282
0
283
1
284
8
285
0
286
0
287
3
288
0
340
11
278
46
341
212
342
212
343
212
344
212
  0
ENDTAB
  0
ENDSEC
  0
SECTION
  2
BLOCKS
  0
BLOCK
  5
20
100
AcDbEntity
  8
0
100
AcDbBlockBegin
  2
*Model_Space
 70
0
 10
0.0
 20
0.0
 30
0.0
  3
*Model_Space
  1

  0
ENDBLK
  5
21
100
AcDbEntity
  8
0
100
AcDbBlockEnd
  0
BLOCK
  5
1C
100
AcDbEntity
  8
0
100
AcDbBlockBegin
  2
*Paper_Space
 70
0
 10
0.0
 20
0.0
 30
0.0
  3
*Paper_Space
  1

  0
ENDBLK
  5
1D
100
AcDbEntity
  8
0
100
AcDbBlockEnd
  0
BLOCK
  5
214
100
AcDbEntity
  8
0
100
AcDbBlockBegin
  2
_FILLED
 70
64
 10
0.0
 20
0.0
  3
_FILLED
  1

  0
SOLID
  5
215
100
AcDbEntity
  8
0
  6
BYBLOCK
 62
0
100
AcDbTrace
 10
0.0
 20
0.0
 11
-1.0
 21
0.25
 12
-1.0
 22
-0.25
 13
-1.0
 23
-0.25
  0
ENDBLK
  5
216
100
AcDbEntity
  8
0
  6
BYBLOCK
 62
0
100
AcDbBlockEnd
  0
ENDSEC
  0
SECTION
  2
ENTITIES
  0
LINE
  5
217
100
AcDbEntity
  8
0
100
AcDbLine
 62
7
  6
BYLAYER
 10
8.3994999129
 20
36.3487554652
 11
8.3994999129
 21
31.3680907207
  0
LINE
  5
218
100
AcDbEntity
  8
0
100
AcDbLine
 62
7
  6
BYLAYER
 10
8.7994997407
 20
38.51248697
 11
8.7994997407
 21
42.8807749016
  0
LINE
  5
219
100
AcDbEntity
  8
0
100
AcDbLine
 62
7
  6
BYLAYER
 10
8.8175875484
 20
43.1108770512
 11
8.7994997407
 21
42.8807749016
  0
LINE
  5
21A
100
AcDbEntity
  8
0
100
AcDbLine
 62
7
  6
BYLAYER
 10
9.3058304459
 20
46.2100460354
 11
8.8175875484
 21
43.1108770512
  0
LINE
  5
21B
100
AcDbEntity
  8
0
100
AcDbLine
 62
7
  6
BYLAYER
 10
16.3107825313
 20
41.0845155818
 11
15.9641161314
 21
44.4094664967
  0
LINE
  5
21C
100
AcDbEntity
  8
0
100
AcDbLine
 62
7
  6
BYLAYER
 10
16.3107825313
 20
39.6148112309
 11
16.3107825313
 21
40.5946141315
  0
LINE
  5
21D
100
AcDbEntity
  8
0
100
AcDbLine
 62
7
  6
BYLAYER
 10
16.3814935038
 20
42.5133958571
 11
16.3814935038
 21
41.5335929566
  0
LINE
  5
21E
100
AcDbEntity
  8
0
100
AcDbLine
 62
7
  6
BYLAYER
 10
16.3814935038
 20
40.553790056
 11
16.3814935038
 21
39.5739871555
  0
LINE
  5
21F
100
AcDbEntity
  8
0
100
AcDbLine
 62
7
  6
BYLAYER
 10
16.5936255382
 20
39.6964630279
 11
16.5936255382
 21
40.4313152034
  0
LINE
  5
220
100
AcDbEntity
  8
0
100
AcDbLine
 62
7
  6
BYLAYER
 10
16.5936255382
 20
41.6560688291
 11
16.5936255382
 21
42.3909210045
  0
LINE
  5
221
100
AcDbEntity
  8
0
100
AcDbLine
 62
7
  6
BYLAYER
 10
17.5994997407
 20
38.51248697
 11
17.5994997407
 21
38.8629549805
  0
LINE
  5
222
100
AcDbEntity
  8
0
100
AcDbLine
 62
7
  6
BYLAYER
 10
16.3107825313
 20
39.6148112309
 11
16.3814935038
 21
39.5739871555
  0
LINE
  5
223
100
AcDbEntity
  8
0
100
AcDbLine
 62
7
  6
BYLAYER
 10
16.3107825313
 20
40.5946141315
 11
16.5936255382
 21
40.4313152034
  0
LINE
  5
224
100
AcDbEntity
  8
0
100
AcDbLine
 62
7
  6
BYLAYER
 10
17.9994999129
 20
36.3487554652
 11
17.9994999129
 21
31.3680907207
  0
LINE
  5
225
100
AcDbEntity
  8
0
100
AcDbLine
 62
7
  6
BYLAYER
 10
16.2564328244
 20
41.6057951401
 11
16.3814935038
 21
41.5335929566
  0
LINE
  5
226
100
AcDbEntity
  8
0
100
AcDbLine
 62
7
  6
BYLAYER
 10
16.1477334105
 20
42.6483542568
 11
16.5936255382
 21
42.3909210045
  0
LINE
  5
227
100
AcDbEntity
  8
0
100
AcDbLine
 62
7
  6
BYLAYER
 10
22.7523129687
 20
48.3286103738
 11
23.0989793686
 21
45.0036594589
  0
LINE
  5
228
100
AcDbEntity
  8
0
100
AcDbLine
 62
7
  6
BYLAYER
 10
22.7186712431
 20
44.0900503163
 11
22.674717655
 21
44.1871630255
  0
LINE
  5
229
100
AcDbEntity
  8
0
100
AcDbLine
 62
7
  6
BYLAYER
 10
22.674717655
 20
46.1467688266
 11
22.7186520789
 21
46.0496671907
  0
LINE
  5
22A
100
AcDbEntity
  8
0
100
AcDbLine
 62
7
  6
BYLAYER
 10
23.8031910842
 20
45.8218140967
 11
23.4227431356
 21
49.4707710052
  0
LINE
  5
22B
100
AcDbEntity
  8
0
100
AcDbLine
 62
7
  6
BYLAYER
 10
22.6747185382
 20
45.9018207278
 11
22.6747185382
 21
45.1669685523
  0
LINE
  5
22C
100
AcDbEntity
  8
0
100
AcDbLine
 62
7
  6
BYLAYER
 10
22.6747185382
 20
43.9422149267
 11
22.6747185382
 21
43.2073627512
  0
LINE
  5
22D
100
AcDbEntity
  8
0
100
AcDbLine
 62
7
  6
BYLAYER
 10
22.7186520795
 20
46.0496596398
 11
22.7186520795
 21
45.1416018667
  0
LINE
  5
22E
100
AcDbEntity
  8
0
100
AcDbLine
 62
7
  6
BYLAYER
 10
22.7186520795
 20
44.0900538387
 11
22.7186520795
 21
43.1819960656
  0
LINE
  5
22F
100
AcDbEntity
  8
0
100
AcDbLine
 62
7
  6
BYLAYER
 10
23.0989793686
 20
45.0036594589
 11
22.7523129687
 21
42.0789953669
  0
LINE
  5
230
100
AcDbEntity
  8
0
100
AcDbLine
 62
7
  6
BYLAYER
 10
23.4227431356
 20
42.6121507013
 11
23.8031910842
 21
45.8218140967
  0
LINE
  5
231
100
AcDbEntity
  8
0
100
AcDbLine
 62
7
  6
BYLAYER
 10
22.7186520789
 20
46.0496671907
 11
22.6747185382
 21
45.9018207278
  0
LINE
  5
232
100
AcDbEntity
  8
0
100
AcDbLine
 62
7
  6
BYLAYER
 10
22.5496569756
 20
44.259365209
 11
22.674717655
 21
44.1871630255
  0
LINE
  5
233
100
AcDbEntity
  8
0
100
AcDbLine
 62
7
  6
BYLAYER
 10
22.6747185382
 20
43.2073627512
 11
22.7186520789
 21
43.1819739369
  0
LINE
  5
234
100
AcDbEntity
  8
0
100
AcDbLine
 62
7
  6
BYLAYER
 10
22.6747185382
 20
45.1669685523
 11
22.7186520789
 21
45.141579738
  0
LINE
  5
235
100
AcDbEntity
  8
0
100
AcDbLine
 62
7
  6
BYLAYER
 10
22.6747185382
 20
43.9422149267
 11
22.7186712431
 21
44.0900503163
  0
LINE
  5
236
100
AcDbEntity
  8
0
100
AcDbLine
 62
7
  6
BYLAYER
 10
17.8673517637
 20
52.1338903787
 11
10.6362637951
 21
47.9590447139
  0
LINE
  5
237
100
AcDbEntity
  8
0
100
AcDbLine
 62
7
  6
BYLAYER
 10
11.1362615566
 20
47.9095204349
 11
17.9244583939
 21
51.8286643121
  0
LINE
  5
238
100
AcDbEntity
  8
0
100
AcDbLine
 62
7
  6
BYLAYER
 10
17.9861700458
 20
52.2001481265
 11
17.8673556499
 21
52.1338809683
  0
LINE
  5
239
100
AcDbEntity
  8
0
100
AcDbLine
 62
7
  6
BYLAYER
 10
16.3814935038
 20
39.5739871555
 11
16.4875710522
 21
39.5844790865
  0
LINE
  5
23A
100
AcDbEntity
  8
0
100
AcDbLine
 62
7
  6
BYLAYER
 10
22.4409575617
 20
46.2817272263
 11
22.674717655
 21
46.1467688266
  0
LINE
  5
23B
100
AcDbEntity
  8
0
100
AcDbLine
 62
7
  6
BYLAYER
 10
16.5936255382
 20
41.6560688291
 11
16.4875518814
 21
41.5440959648
  0
LINE
  5
23C
100
AcDbEntity
  8
0
100
AcDbLine
 62
7
  6
BYLAYER
 10
26.4168857788
 20
55.0151161172
 11
24.2955742672
 21
53.7903836555
  0
LINE
  5
23D
100
AcDbEntity
  8
0
100
AcDbLine
 62
7
  6
BYLAYER
 10
24.329506074
 20
53.4050162146
 11
20.311969187
 21
51.2667365516
  0
LINE
  5
23E
100
AcDbEntity
  8
0
100
AcDbLine
 62
7
  6
BYLAYER
 10
16.4875518814
 20
41.5440959648
 11
16.3814935038
 21
41.5335929566
  0
LINE
  5
23F
100
AcDbEntity
  8
0
100
AcDbLine
 62
7
  6
BYLAYER
 10
17.9244583939
 20
51.8286643121
 11
22.050934762
 21
49.4462959665
  0
LINE
  5
240
100
AcDbEntity
  8
0
100
AcDbLine
 62
7
  6
BYLAYER
 10
23.4227431356
 20
49.4707710052
 11
18.673961532
 21
52.212419318
  0
LINE
  5
241
100
AcDbEntity
  8
0
100
AcDbLine
 62
7
  6
BYLAYER
 10
23.4227431356
 20
42.6121507013
 11
23.046960419
 21
42.0103707058
  0
LINE
  5
242
100
AcDbEntity
  8
0
100
AcDbLine
 62
7
  6
BYLAYER
 10
23.8031910842
 20
45.8218140967
 11
23.0989793686
 21
45.0036594589
  0
LINE
  5
243
100
AcDbEntity
  8
0
100
AcDbLine
 62
7
  6
BYLAYER
 10
16.4875710522
 20
39.5844790865
 11
16.5936255382
 21
39.6964630279
  0
LINE
  5
244
100
AcDbEntity
  8
0
100
AcDbLine
 62
7
  6
BYLAYER
 10
29.457930379
 20
54.9810703917
 11
62.2995878269
 21
73.9420969778
  0
LINE
  5
245
100
AcDbEntity
  8
0
100
AcDbLine
 62
7
  6
BYLAYER
 10
22.050934762
 20
49.4462959665
 11
15.2627379247
 21
45.5271520894
  0
LINE
  5
246
100
AcDbEntity
  8
0
100
AcDbLine
 62
7
  6
BYLAYER
 10
30.0217949902
 20
53.2294102939
 11
30.5728770724
 21
52.2749024308
  0
LINE
  5
247
100
AcDbEntity
  8
0
100
AcDbLine
 62
7
  6
BYLAYER
 10
15.9641161314
 20
44.4094664967
 11
22.7523129687
 21
48.3286103738
  0
LINE
  5
248
100
AcDbEntity
  8
0
100
AcDbLine
 62
7
  6
BYLAYER
 10
16.1477334105
 20
42.6483542568
 11
22.4409575617
 21
46.2817272263
  0
LINE
  5
249
100
AcDbEntity
  8
0
100
AcDbLine
 62
7
  6
BYLAYER
 10
22.674717655
 20
46.1467688266
 11
16.3814935038
 21
42.5133958571
  0
LINE
  5
24A
100
AcDbEntity
  8
0
100
AcDbLine
 62
7
  6
BYLAYER
 10
16.5936255382
 20
42.3909210045
 11
22.6747185382
 21
45.9018207278
  0
LINE
  5
24B
100
AcDbEntity
  8
0
100
AcDbLine
 62
7
  6
BYLAYER
 10
31.6847874252
 20
50.8396548008
 11
64.6495773063
 21
69.871771506
  0
LINE
  5
24C
100
AcDbEntity
  8
0
100
AcDbLine
 62
7
  6
BYLAYER
 10
23.4227431356
 20
49.4707710052
 11
23.046960419
 21
49.2783655418
  0
LINE
  5
24D
100
AcDbEntity
  8
0
100
AcDbLine
 62
7
  6
BYLAYER
 10
27.8787858652
 20
47.2574465903
 11
23.6612696563
 21
44.6244886442
  0
LINE
  5
24E
100
AcDbEntity
  8
0
100
AcDbLine
 62
7
  6
BYLAYER
 10
22.6747185382
 20
45.1669685523
 11
16.5936255382
 21
41.6560688291
  0
LINE
  5
24F
100
AcDbEntity
  8
0
100
AcDbLine
 62
7
  6
BYLAYER
 10
22.7186520795
 20
45.1416018667
 11
16.4875584079
 21
41.5440997322
  0
LINE
  5
250
100
AcDbEntity
  8
0
100
AcDbLine
 62
7
  6
BYLAYER
 10
16.3107825313
 20
41.0845155818
 11
23.0989793686
 21
45.0036594589
  0
LINE
  5
251
100
AcDbEntity
  8
0
100
AcDbLine
 62
7
  6
BYLAYER
 10
16.8354277659
 20
40.9602731295
 11
22.5496569756
 21
44.259365209
  0
LINE
  5
252
100
AcDbEntity
  8
0
100
AcDbLine
 62
7
  6
BYLAYER
 10
22.674717655
 20
44.1871630255
 11
16.3814935038
 21
40.553790056
  0
LINE
  5
253
100
AcDbEntity
  8
0
100
AcDbLine
 62
7
  6
BYLAYER
 10
16.5936255382
 20
40.4313152034
 11
22.6747185382
 21
43.9422149267
  0
LINE
  5
254
100
AcDbEntity
  8
0
100
AcDbLine
 62
7
  6
BYLAYER
 10
30.316868319
 20
48.2601078872
 11
28.1955568074
 21
47.0353754256
  0
LINE
  5
255
100
AcDbEntity
  8
0
100
AcDbLine
 62
7
  6
BYLAYER
 10
22.6747185382
 20
43.2073627512
 11
16.5936255382
 21
39.6964630279
  0
LINE
  5
256
100
AcDbEntity
  8
0
100
AcDbLine
 62
7
  6
BYLAYER
 10
22.7186520795
 20
43.1819960656
 11
16.4875584079
 21
39.5844939311
  0
LINE
  5
257
100
AcDbEntity
  8
0
100
AcDbLine
 62
7
  6
BYLAYER
 10
23.046960419
 20
42.0103707058
 11
22.9938275516
 21
41.977364755
  0
LINE
  5
258
100
AcDbEntity
  8
0
100
AcDbLine
 62
7
  6
BYLAYER
 10
22.7523129687
 20
42.0789953669
 11
17.3913312143
 21
38.9838495835
  0
LINE
  5
259
100
AcDbEntity
  8
0
100
AcDbLine
 62
7
  6
BYLAYER
 10
17.5262124511
 20
38.8206427967
 11
22.9938236549
 21
41.9773507541
  0
LINE
  5
25A
100
AcDbEntity
  8
0
100
AcDbLine
 62
7
  6
BYLAYER
 10
17.9861700458
 20
52.2001481265
 11
18.673961532
 21
52.212419318
  0
LINE
  5
25B
100
AcDbEntity
  8
0
100
AcDbLine
 62
7
  6
BYLAYER
 10
64.8834099474
 20
70.0760635798
 11
64.6495675313
 21
69.8717884232
  0
ARC
  5
25C
100
AcDbEntity
  8
0
100
AcDbCircle
 62
7
  6
BYLAYER
 10
14.1649409048
 20
40.434795389
 40
4.2932950417
100
AcDbArc
 50
297.0374708786
 51
299.987581985
  0
ARC
  5
25D
100
AcDbEntity
  8
0
100
AcDbCircle
 62
7
  6
BYLAYER
 10
14.1904948338
 20
39.9011764073
 40
3.9941295281
100
AcDbArc
 50
299.9827044539
 51
304.1483583748
  0
SPLINE
  5
25E
100
AcDbEntity
  8
0
100
AcDbSpline
 62
7
  6
BYLAYER
 70
0
 71
3
 72
13
 73
9
 74
0
 42
0.0000001
 43
0.0000001
 44
0.0000000001
 40
0.0
 40
0.0
 40
0.0
 40
0.0
 40
0.2807950928
 40
0.5370334546
 40
0.6574908334
 40
0.7739848677
 40
0.8877107713
 40
1.0
 40
1.0
 40
1.0
 40
1.0
 10
9.362702923
 20
29.7028829253
 30
0.0
 10
9.2148835225
 20
29.8164096609
 30
0.0
 10
8.9480792097
 20
30.0558343242
 30
0.0
 10
8.6833862469
 20
30.4073991697
 30
0.0
 10
8.5355457479
 20
30.7003198275
 30
0.0
 10
8.4573260598
 20
30.9202650556
 30
0.0
 10
8.4100922183
 20
31.1433291812
 30
0.0
 10
8.3995016887
 20
31.2935563456
 30
0.0
 10
8.3995052937
 20
31.3680907154
 30
0.0
  0
SPLINE
  5
25F
100
AcDbEntity
  8
0
100
AcDbSpline
 62
7
  6
BYLAYER
 70
0
 71
3
 72
12
 73
8
 74
0
 42
0.0000001
 43
0.0000001
 44
0.0000000001
 40
0.0
 40
0.0
 40
0.0
 40
0.0
 40
0.1224792587
 40
0.2446459487
 40
0.4903864756
 40
0.740871982
 40
1.0
 40
1.0
 40
1.0
 40
1.0
 10
9.3058304459
 20
46.2100460354
 30
0.0
 10
9.3202496891
 20
46.3015735754
 30
0.0
 10
9.3618454125
 20
46.482649708
 30
0.0
 10
9.4932775931
 20
46.8305280267
 30
0.0
 10
9.7422107825
 20
47.2326675567
 30
0.0
 10
10.1468137059
 20
47.641528638
 30
0.0
 10
10.4664947745
 20
47.8610291093
 30
0.0
 10
10.6362637951
 20
47.9590447139
 30
0.0
  0
SPLINE
  5
260
100
AcDbEntity
  8
0
100
AcDbSpline
 62
7
  6
BYLAYER
 70
0
 71
3
 72
23
 73
19
 74
0
 42
0.0000001
 43
0.0000001
 44
0.0000000001
 40
0.0
 40
0.0
 40
0.0
 40
0.0
 40
0.0443869287
 40
0.0914978362
 40
0.1433366442
 40
0.2008735692
 40
0.2641853136
 40
0.332656918
 40
0.4051925428
 40
0.4803762773
 40
0.5566016818
 40
0.6321910245
 40
0.705510759
 40
0.7750879312
 40
0.8397361739
 40
0.8986979895
 40
0.9518921412
 40
1.0
 40
1.0
 40
1.0
 40
1.0
 10
62.2995920587
 20
73.9420896589
 30
0.0
 10
62.3714358194
 20
73.9836061751
 30
0.0
 10
62.5345419199
 20
74.0452776272
 30
0.0
 10
62.8052900227
 20
74.0612999924
 30
0.0
 10
63.0949281489
 20
74.0050620628
 30
0.0
 10
63.3945508547
 20
73.8802277593
 30
0.0
 10
63.6956020742
 20
73.6916368223
 30
0.0
 10
63.9890097228
 20
73.445455015
 30
0.0
 10
64.265609689
 20
73.14957131
 30
0.0
 10
64.5165621176
 20
72.8134813824
 30
0.0
 10
64.7337548119
 20
72.4480287162
 30
0.0
 10
64.9101733125
 20
72.0650537556
 30
0.0
 10
65.040131968
 20
71.6769355871
 30
0.0
 10
65.1194182611
 20
71.2961057019
 30
0.0
 10
65.1453660625
 20
70.934659958
 30
0.0
 10
65.1169088181
 20
70.60366706
 30
0.0
 10
65.0340969779
 20
70.3135600969
 30
0.0
 10
64.9390784678
 20
70.1466957469
 30
0.0
 10
64.8834099474
 20
70.0760635798
 30
0.0
  0
SPLINE
  5
261
100
AcDbEntity
  8
0
100
AcDbSpline
 62
7
  6
BYLAYER
 70
0
 71
3
 72
11
 73
7
 74
0
 42
0.0000001
 43
0.0000001
 44
0.0000000001
 40
0.0
 40
0.0
 40
0.0
 40
0.0
 40
0.2665223107
 40
0.524498674
 40
0.77014451
 40
1.0
 40
1.0
 40
1.0
 40
1.0
 10
30.5728721337
 20
52.2749010051
 30
0.0
 10
30.6606628522
 20
52.0890529437
 30
0.0
 10
30.8166047796
 20
51.7150548921
 30
0.0
 10
30.9907598127
 20
51.1461764845
 30
0.0
 10
31.0981999151
 20
50.5897060987
 30
0.0
 10
31.124604977
 20
50.2227359265
 30
0.0
 10
31.124604977
 20
50.0454730596
 30
0.0
  0
SPLINE
  5
262
100
AcDbEntity
  8
0
100
AcDbSpline
 62
7
  6
BYLAYER
 70
0
 71
3
 72
11
 73
7
 74
0
 42
0.0000001
 43
0.0000001
 44
0.0000000001
 40
0.0
 40
0.0
 40
0.0
 40
0.0
 40
0.239537029
 40
0.4834998269
 40
0.7358843226
 40
1.0
 40
1.0
 40
1.0
 40
1.0
 10
24.2955853416
 20
53.7903644739
 30
0.0
 10
24.2323963683
 20
53.7538831284
 30
0.0
 10
24.1108340509
 20
53.6692961729
 30
0.0
 10
23.9499854458
 20
53.511825528
 30
0.0
 10
23.8112551489
 20
53.325253438
 30
0.0
 10
23.7362796049
 20
53.1862815273
 30
0.0
 10
23.7026657154
 20
53.1131896757
 30
0.0
  0
SPLINE
  5
263
100
AcDbEntity
  8
0
100
AcDbSpline
 62
7
  6
BYLAYER
 70
0
 71
3
 72
17
 73
13
 74
0
 42
0.0000001
 43
0.0000001
 44
0.0000000001
 40
0.0
 40
0.0
 40
0.0
 40
0.0
 40
0.0461716299
 40
0.0930668917
 40
0.141354258
 40
0.1916024502
 40
0.2994855423
 40
0.4190003823
 40
0.5503979637
 40
0.6925508262
 40
0.8433459823
 40
1.0
 40
1.0
 40
1.0
 40
1.0
 10
26.4168968532
 20
55.0150969355
 30
0.0
 10
26.4750471444
 20
55.0486692623
 30
0.0
 10
26.5977262749
 20
55.1073318831
 30
0.0
 10
26.7952768682
 20
55.1667785694
 30
0.0
 10
27.0052222005
 20
55.1977370616
 30
0.0
 10
27.3061857091
 20
55.2008960848
 30
0.0
 10
27.7072291934
 20
55.1278697658
 30
0.0
 10
28.1938808748
 20
54.9323750371
 30
0.0
 10
28.6842599196
 20
54.6344348437
 30
0.0
 10
29.1638630775
 20
54.243421195
 30
0.0
 10
29.6183487066
 20
53.7714703931
 30
0.0
 10
29.892056023
 20
53.4166744994
 30
0.0
 10
30.0217923486
 20
53.2294077524
 30
0.0
  0
SPLINE
  5
264
100
AcDbEntity
  8
0
100
AcDbSpline
 62
7
  6
BYLAYER
 70
0
 71
3
 72
10
 73
6
 74
0
 42
0.0000001
 43
0.0000001
 44
0.0000000001
 40
0.0
 40
0.0
 40
0.0
 40
0.0
 40
0.5133221676
 40
0.7584970644
 40
1.0
 40
1.0
 40
1.0
 40
1.0
 10
27.4041792621
 20
46.854283854
 30
0.0
 10
27.5445843806
 20
46.8482736007
 30
0.0
 10
27.754984969
 20
46.8643434394
 30
0.0
 10
28.017568328
 20
46.9444536981
 30
0.0
 10
28.1382864429
 20
47.0023366885
 30
0.0
 10
28.195545733
 20
47.0353946072
 30
0.0
  0
SPLINE
  5
265
100
AcDbEntity
  8
0
100
AcDbSpline
 62
7
  6
BYLAYER
 70
0
 71
3
 72
22
 73
18
 74
0
 42
0.0000001
 43
0.0000001
 44
0.0000000001
 40
0.0
 40
0.0
 40
0.0
 40
0.0
 40
0.0509926787
 40
0.1024518643
 40
0.1552620081
 40
0.2100387532
 40
0.2674541886
 40
0.3278668163
 40
0.3913055045
 40
0.4574977843
 40
0.5259070079
 40
0.5958167508
 40
0.7366033112
 40
0.8058533704
 40
0.8732076652
 40
0.938106847
 40
1.0
 40
1.0
 40
1.0
 40
1.0
 10
8.7994997407
 20
38.51248697
 30
0.0
 10
8.7994997407
 20
38.3623255348
 30
0.0
 10
8.8364151082
 20
38.059393344
 30
0.0
 10
8.9977883365
 20
37.6276920814
 30
0.0
 10
9.2519643025
 20
37.2305596396
 30
0.0
 10
9.587159659
 20
36.8754915508
 30
0.0
 10
9.9914995595
 20
36.5645222379
 30
0.0
 10
10.4561985554
 20
36.2989806215
 30
0.0
 10
10.9725967356
 20
36.0803005387
 30
0.0
 10
11.5315046234
 20
35.9104464477
 30
0.0
 10
12.1227808998
 20
35.7913141395
 30
0.0
 10
12.9406345987
 20
35.702251046
 30
0.0
 10
13.7698546377
 20
35.7199885501
 30
0.0
 10
14.5779352123
 20
35.8449620773
 30
0.0
 10
15.1543614802
 20
35.9899218142
 30
0.0
 10
15.6928890226
 20
36.184739338
 30
0.0
 10
16.0286726641
 20
36.3504261101
 30
0.0
 10
16.1865153532
 20
36.4415560851
 30
0.0
  0
SPLINE
  5
266
100
AcDbEntity
  8
0
100
AcDbSpline
 62
7
  6
BYLAYER
 70
0
 71
3
 72
12
 73
8
 74
0
 42
0.0000001
 43
0.0000001
 44
0.0000000001
 40
0.0
 40
0.0
 40
0.0
 40
0.0
 40
0.2664373698
 40
0.5183862896
 40
0.7609664386
 40
0.8804708587
 40
1.0
 40
1.0
 40
1.0
 40
1.0
 10
16.4325502701
 20
36.5956873198
 30
0.0
 10
16.6039218315
 20
36.7121602531
 30
0.0
 10
16.9198921473
 20
36.9669254086
 30
0.0
 10
17.2977578669
 20
37.4285020217
 30
0.0
 10
17.5026738943
 20
37.8669117882
 30
0.0
 10
17.5855240323
 20
38.2333224949
 30
0.0
 10
17.5994997407
 20
38.419530392
 30
0.0
 10
17.5994997407
 20
38.51248697
 30
0.0
  0
SPLINE
  5
267
100
AcDbEntity
  8
0
100
AcDbSpline
 62
7
  6
BYLAYER
 70
0
 71
3
 72
11
 73
7
 74
0
 42
0.0000001
 43
0.0000001
 44
0.0000000001
 40
0.0
 40
0.0
 40
0.0
 40
0.0
 40
0.2725761461
 40
0.5267571394
 40
0.7671122882
 40
1.0
 40
1.0
 40
1.0
 40
1.0
 10
9.0253252514
 20
37.7169511998
 30
0.0
 10
8.9271309997
 20
37.6170913087
 30
0.0
 10
8.7508203047
 20
37.4099597403
 30
0.0
 10
8.5501017228
 20
37.0681443502
 30
0.0
 10
8.4272571096
 20
36.712381291
 30
0.0
 10
8.3995068626
 20
36.4684138172
 30
0.0
 10
8.3995004825
 20
36.3487554651
 30
0.0
  0
SPLINE
  5
268
100
AcDbEntity
  8
0
100
AcDbSpline
 62
7
  6
BYLAYER
 70
0
 71
3
 72
23
 73
19
 74
0
 42
0.0000001
 43
0.0000001
 44
0.0000000001
 40
0.0
 40
0.0
 40
0.0
 40
0.0
 40
0.0430119427
 40
0.0880073701
 40
0.1365532143
 40
0.1896033687
 40
0.247511731
 40
0.3101335937
 40
0.3769457525
 40
0.447147671
 40
0.5197416719
 40
0.5936022457
 40
0.6675400934
 40
0.7403654388
 40
0.8109433284
 40
0.878244205
 40
0.9414696245
 40
1.0
 40
1.0
 40
1.0
 40
1.0
 10
17.9994945322
 20
31.3680907259
 30
0.0
 10
17.9994875247
 20
31.2232063685
 30
0.0
 10
17.9582119243
 20
30.9253588527
 30
0.0
 10
17.7773325553
 20
30.4976361848
 30
0.0
 10
17.4850977125
 20
30.095093653
 30
0.0
 10
17.0906169826
 20
29.7263720765
 30
0.0
 10
16.6038837024
 20
29.3986724638
 30
0.0
 10
16.0364280367
 20
29.1188757986
 30
0.0
 10
15.4015474928
 20
28.8931528173
 30
0.0
 10
14.7141922918
 20
28.7267005155
 30
0.0
 10
13.9906647273
 20
28.6234588364
 30
0.0
 10
13.2482280835
 20
28.5858655346
 30
0.0
 10
12.5046279968
 20
28.6147854745
 30
0.0
 10
11.7776218254
 20
28.7095521395
 30
0.0
 10
11.0846103278
 20
28.8679517276
 30
0.0
 10
10.4418810543
 20
29.0861944772
 30
0.0
 10
9.864961216
 20
29.3592633282
 30
0.0
 10
9.5190670732
 20
29.582793739
 30
0.0
 10
9.362702923
 20
29.7028829253
 30
0.0
  0
SPLINE
  5
269
100
AcDbEntity
  8
0
100
AcDbSpline
 62
7
  6
BYLAYER
 70
0
 71
3
 72
11
 73
7
 74
0
 42
0.0000001
 43
0.0000001
 44
0.0000000001
 40
0.0
 40
0.0
 40
0.0
 40
0.0
 40
0.2326852918
 40
0.472896833
 40
0.7270849593
 40
1.0
 40
1.0
 40
1.0
 40
1.0
 10
17.9994993434
 20
36.3487554652
 30
0.0
 10
17.9995057651
 20
36.4691926136
 30
0.0
 10
17.9713211123
 20
36.7147834393
 30
0.0
 10
17.8469558553
 20
37.0727990526
 30
0.0
 10
17.6436022345
 20
37.4166132971
 30
0.0
 10
17.4650745475
 20
37.624738937
 30
0.0
 10
17.3656305047
 20
37.7250646653
 30
0.0
  0
SPLINE
  5
26A
100
AcDbEntity
  8
0
100
AcDbSpline
 62
7
  6
BYLAYER
 70
0
 71
3
 72
9
 73
5
 74
0
 42
0.0000001
 43
0.0000001
 44
0.0000000001
 40
0.0
 40
0.0
 40
0.0
 40
0.0
 40
0.5248900963
 40
1.0
 40
1.0
 40
1.0
 40
1.0
 10
31.124604977
 20
50.0454730596
 30
0.0
 10
31.124604977
 20
49.8659316655
 30
0.0
 10
31.0998068029
 20
49.52312886
 30
0.0
 10
31.012357686
 20
49.189500156
 30
0.0
 10
30.9528056054
 20
49.0382907275
 30
0.0
  0
SPLINE
  5
26B
100
AcDbEntity
  8
0
100
AcDbSpline
 62
7
  6
BYLAYER
 70
0
 71
3
 72
11
 73
7
 74
0
 42
0.0000001
 43
0.0000001
 44
0.0000000001
 40
0.0
 40
0.0
 40
0.0
 40
0.0
 40
0.2668329819
 40
0.5197535532
 40
0.7625630952
 40
1.0
 40
1.0
 40
1.0
 40
1.0
 10
30.9528056054
 20
49.0382907275
 30
0.0
 10
30.9194531676
 20
48.953605138
 30
0.0
 10
30.8433003436
 20
48.7926862885
 30
0.0
 10
30.6962519693
 20
48.5767553677
 30
0.0
 10
30.5214874064
 20
48.3960977025
 30
0.0
 10
30.3869967568
 20
48.3006212191
 30
0.0
 10
30.3168572446
 20
48.2601270689
 30
0.0
  0
SPLINE
  5
26C
100
AcDbEntity
  8
0
100
AcDbSpline
 62
7
  6
BYLAYER
 70
0
 71
3
 72
9
 73
5
 74
0
 42
0.0000001
 43
0.0000001
 44
0.0000000001
 40
0.0
 40
0.0
 40
0.0
 40
0.0
 40
0.4780488896
 40
1.0
 40
1.0
 40
1.0
 40
1.0
 10
9.362702923
 20
34.6835476698
 30
0.0
 10
9.548439901
 20
34.5408998664
 30
0.0
 10
9.9660553055
 20
34.2796851901
 30
0.0
 10
10.4172390312
 20
34.0846172111
 30
0.0
 10
10.6577941204
 20
33.9979208594
 30
0.0
  0
SPLINE
  5
26D
100
AcDbEntity
  8
0
100
AcDbSpline
 62
7
  6
BYLAYER
 70
0
 71
3
 72
21
 73
17
 74
0
 42
0.0000001
 43
0.0000001
 44
0.0000000001
 40
0.0
 40
0.0
 40
0.0
 40
0.0
 40
0.0681901227
 40
0.1389974592
 40
0.2852408807
 40
0.432156168
 40
0.5037771187
 40
0.5730704209
 40
0.6393397261
 40
0.7020233781
 40
0.7607280316
 40
0.8152901765
 40
0.8658350568
 40
0.9128316319
 40
0.9571441239
 40
1.0
 40
1.0
 40
1.0
 40
1.0
 10
10.6577941204
 20
33.9979208594
 30
0.0
 10
10.8424498074
 20
33.9313707215
 30
0.0
 10
11.2255792282
 20
33.8138035089
 30
0.0
 10
12.0290617324
 20
33.6411212595
 30
0.0
 10
13.0770056855
 20
33.5465567272
 30
0.0
 10
14.1294648015
 20
33.6103739017
 30
0.0
 10
14.9454128497
 20
33.7586126792
 30
0.0
 10
15.5219273861
 20
33.9142037262
 30
0.0
 10
16.0579493828
 20
34.1124025592
 30
0.0
 10
16.5442808042
 20
34.3497861475
 30
0.0
 10
16.9725065108
 20
34.6225075537
 30
0.0
 10
17.3352433018
 20
34.9261613495
 30
0.0
 10
17.6261004182
 20
35.2559973074
 30
0.0
 10
17.8392988351
 20
35.6071621312
 30
0.0
 10
17.9699409484
 20
35.9735955513
 30
0.0
 10
17.999492766
 20
36.225396848
 30
0.0
 10
17.9994993434
 20
36.3487554652
 30
0.0
  0
SPLINE
  5
26E
100
AcDbEntity
  8
0
100
AcDbSpline
 62
7
  6
BYLAYER
 70
0
 71
3
 72
9
 73
5
 74
0
 42
0.0000001
 43
0.0000001
 44
0.0000000001
 40
0.0
 40
0.0
 40
0.0
 40
0.0
 40
0.2439631478
 40
1.0
 40
1.0
 40
1.0
 40
1.0
 10
10.002169088
 20
35.7775847195
 30
0.0
 10
10.0255653055
 20
35.7596161972
 30
0.0
 10
10.1225531179
 20
35.6873847747
 30
0.0
 10
10.2236638864
 20
35.6207336069
 30
0.0
 10
10.3018225618
 20
35.5733118026
 30
0.0
  0
SPLINE
  5
26F
100
AcDbEntity
  8
0
100
AcDbSpline
 62
7
  6
BYLAYER
 70
0
 71
3
 72
9
 73
5
 74
0
 42
0.0000001
 43
0.0000001
 44
0.0000000001
 40
0.0
 40
0.0
 40
0.0
 40
0.0
 40
0.2435372644
 40
1.0
 40
1.0
 40
1.0
 40
1.0
 10
10.3018225618
 20
35.5733118026
 30
0.0
 10
10.3356552283
 20
35.5527842529
 30
0.0
 10
10.4759439887
 20
35.4707583298
 30
0.0
 10
10.621391932
 20
35.3976429013
 30
0.0
 10
10.7333984076
 20
35.3470084812
 30
0.0
  0
SPLINE
  5
270
100
AcDbEntity
  8
0
100
AcDbSpline
 62
7
  6
BYLAYER
 70
0
 71
3
 72
15
 73
11
 74
0
 42
0.0000001
 43
0.0000001
 44
0.0000000001
 40
0.0
 40
0.0
 40
0.0
 40
0.0
 40
0.1170613886
 40
0.2407036641
 40
0.3689685681
 40
0.4996355064
 40
0.6303545824
 40
0.7587642291
 40
0.8826326446
 40
1.0
 40
1.0
 40
1.0
 40
1.0
 10
10.7333984076
 20
35.3470084812
 30
0.0
 10
10.9126157701
 20
35.265990244
 30
0.0
 10
11.2923094528
 20
35.1234546161
 30
0.0
 10
11.8943709284
 20
34.9712838953
 30
0.0
 10
12.5313926663
 20
34.8777837437
 30
0.0
 10
13.1862509364
 20
34.8455147998
 30
0.0
 10
13.8414696658
 20
34.875288998
 30
0.0
 10
14.4795580521
 20
34.966358548
 30
0.0
 10
15.083357152
 20
35.1162544985
 30
0.0
 10
15.4645452057
 20
35.2573130369
 30
0.0
 10
15.6446441329
 20
35.3376228825
 30
0.0
  0
SPLINE
  5
271
100
AcDbEntity
  8
0
100
AcDbSpline
 62
7
  6
BYLAYER
 70
0
 71
3
 72
9
 73
5
 74
0
 42
0.0000001
 43
0.0000001
 44
0.0000000001
 40
0.0
 40
0.0
 40
0.0
 40
0.0
 40
0.2570136517
 40
1.0
 40
1.0
 40
1.0
 40
1.0
 10
15.6446441329
 20
35.3376228825
 30
0.0
 10
15.6858519893
 20
35.3559983201
 30
0.0
 10
15.8450984478
 20
35.4298873941
 30
0.0
 10
15.999857983
 20
35.5135979524
 30
0.0
 10
16.1110625303
 20
35.5817611284
 30
0.0
  0
SPLINE
  5
272
100
AcDbEntity
  8
0
100
AcDbSpline
 62
7
  6
BYLAYER
 70
0
 71
3
 72
14
 73
10
 74
0
 42
0.0000001
 43
0.0000001
 44
0.0000000001
 40
0.0
 40
0.0
 40
0.0
 40
0.0
 40
0.2892191113
 40
0.4218557852
 40
0.5470132456
 40
0.6657220096
 40
0.7794656567
 40
0.890157889
 40
1.0
 40
1.0
 40
1.0
 40
1.0
 10
16.1110625303
 20
35.5817611284
 30
0.0
 10
16.2881105503
 20
35.6902832674
 30
0.0
 10
16.5343239166
 20
35.8716087938
 30
0.0
 10
16.8056620753
 20
36.1566935532
 30
0.0
 10
16.9658225556
 20
36.3755469352
 30
0.0
 10
17.0865270272
 20
36.603281809
 30
0.0
 10
17.1661887411
 20
36.8376458152
 30
0.0
 10
17.2036103976
 20
37.0759214738
 30
0.0
 10
17.1999694896
 20
37.2352167794
 30
0.0
 10
17.1912177197
 20
37.3135969315
 30
0.0
  0
SPLINE
  5
273
100
AcDbEntity
  8
0
100
AcDbSpline
 62
7
  6
BYLAYER
 70
0
 71
3
 72
13
 73
9
 74
0
 42
0.0000001
 43
0.0000001
 44
0.0000000001
 40
0.0
 40
0.0
 40
0.0
 40
0.0
 40
0.1079346168
 40
0.218193152
 40
0.3324690798
 40
0.4521581745
 40
0.711283989
 40
1.0
 40
1.0
 40
1.0
 40
1.0
 10
27.8787764225
 20
47.2574625205
 30
0.0
 10
27.9344651836
 20
47.2922229707
 30
0.0
 10
28.0413740104
 20
47.3720486723
 30
0.0
 10
28.1821437539
 20
47.5183269262
 30
0.0
 10
28.3031896144
 20
47.6900873484
 30
0.0
 10
28.4402693465
 20
47.9577843461
 30
0.0
 10
28.5531290983
 20
48.3518207035
 30
0.0
 10
28.5790291022
 20
48.6859636591
 30
0.0
 10
28.5790291022
 20
48.8615638236
 30
0.0
  0
SPLINE
  5
274
100
AcDbEntity
  8
0
100
AcDbSpline
 62
7
  6
BYLAYER
 70
0
 71
3
 72
17
 73
13
 74
0
 42
0.0000001
 43
0.0000001
 44
0.0000000001
 40
0.0
 40
0.0
 40
0.0
 40
0.0
 40
0.0586743713
 40
0.1206095129
 40
0.2520728135
 40
0.3900300762
 40
0.5291094083
 40
0.6638241946
 40
0.7892219968
 40
0.8472928813
 40
0.9018389612
 40
1.0
 40
1.0
 40
1.0
 40
1.0
 10
15.4622510334
 20
35.8588874678
 30
0.0
 10
15.3671074801
 20
35.8039566396
 30
0.0
 10
15.165254812
 20
35.7016726525
 30
0.0
 10
14.7256250564
 20
35.5285007553
 30
0.0
 10
14.1209098642
 20
35.3771419173
 30
0.0
 10
13.3573148547
 20
35.3018774273
 30
0.0
 10
12.5844051982
 20
35.3337802486
 30
0.0
 10
11.847009968
 20
35.4709579096
 30
0.0
 10
11.2825429228
 20
35.671623892
 30
0.0
 10
10.8880961782
 20
35.880956924
 30
0.0
 10
10.5612585167
 20
36.1025729889
 30
0.0
 10
10.3530663787
 20
36.3058647694
 30
0.0
 10
10.2455140421
 20
36.4549080171
 30
0.0
  0
SPLINE
  5
275
100
AcDbEntity
  8
0
100
AcDbSpline
 62
7
  6
BYLAYER
 70
0
 71
3
 72
23
 73
19
 74
0
 42
0.0000001
 43
0.0000001
 44
0.0000000001
 40
0.0
 40
0.0
 40
0.0
 40
0.0
 40
0.043100399
 40
0.0870076248
 40
0.1335241472
 40
0.1839602374
 40
0.2390268016
 40
0.2988923266
 40
0.3632962209
 40
0.4316441566
 40
0.5030997794
 40
0.5766623861
 40
0.6512222902
 40
0.7256263956
 40
0.7987236066
 40
0.869420507
 40
0.936799695
 40
1.0
 40
1.0
 40
1.0
 40
1.0
 10
9.3058317568
 20
46.2100459666
 30
0.0
 10
9.2879478586
 20
46.096465238
 30
0.0
 10
9.2819662824
 20
45.8611664282
 30
0.0
 10
9.3685603222
 20
45.5117159268
 30
0.0
 10
9.5462253586
 20
45.1768503372
 30
0.0
 10
9.8085956676
 20
44.8643565159
 30
0.0
 10
10.1484644361
 20
44.5801357751
 30
0.0
 10
10.5578112297
 20
44.3296885484
 30
0.0
 10
11.0274292638
 20
44.1182272186
 30
0.0
 10
11.5467201991
 20
43.9503324942
 30
0.0
 10
12.1038765464
 20
43.8296855609
 30
0.0
 10
12.6861814809
 20
43.7590608169
 30
0.0
 10
13.2802844738
 20
43.7400933521
 30
0.0
 10
13.8725315923
 20
43.7731807301
 30
0.0
 10
14.4492896088
 20
43.8575560239
 30
0.0
 10
14.9974771212
 20
43.9913294125
 30
0.0
 10
15.5043029086
 20
44.1715058802
 30
0.0
 10
15.8181030658
 20
44.3251663171
 30
0.0
 10
15.9641161314
 20
44.4094664967
 30
0.0
  0
SPLINE
  5
276
100
AcDbEntity
  8
0
100
AcDbSpline
 62
7
  6
BYLAYER
 70
0
 71
3
 72
23
 73
19
 74
0
 42
0.0000001
 43
0.0000001
 44
0.0000000001
 40
0.0
 40
0.0
 40
0.0
 40
0.0
 40
0.0640294863
 40
0.131653238
 40
0.2021431328
 40
0.2746526517
 40
0.3482146203
 40
0.4218271688
 40
0.4944889072
 40
0.5652343984
 40
0.6331831309
 40
0.6975887757
 40
0.7578876364
 40
0.8137683792
 40
0.865251447
 40
0.9127665959
 40
0.9572233969
 40
1.0
 40
1.0
 40
1.0
 40
1.0
 10
16.1165573933
 20
36.6107170168
 30
0.0
 10
15.953949096
 20
36.5276045638
 30
0.0
 10
15.609164441
 20
36.3766350543
 30
0.0
 10
15.0592372557
 20
36.2007071613
 30
0.0
 10
14.47169652
 20
36.0716762904
 30
0.0
 10
13.8584490428
 20
35.992073388
 30
0.0
 10
13.2318198641
 20
35.9636089356
 30
0.0
 10
12.6045446668
 20
35.986800215
 30
0.0
 10
11.9893210967
 20
36.0611552051
 30
0.0
 10
11.3986037554
 20
36.1852355901
 30
0.0
 10
10.8443063124
 20
36.3565263189
 30
0.0
 10
10.337537648
 20
36.571606741
 30
0.0
 10
9.8884297388
 20
36.8263664273
 30
0.0
 10
9.5059384877
 20
37.1160558589
 30
0.0
 10
9.1977955711
 20
37.4354446814
 30
0.0
 10
8.9708272704
 20
37.7791683022
 30
0.0
 10
8.8312445597
 20
38.140680104
 30
0.0
 10
8.7994968044
 20
38.3904845114
 30
0.0
 10
8.7995103438
 20
38.5124869696
 30
0.0
  0
SPLINE
  5
277
100
AcDbEntity
  8
0
100
AcDbSpline
 62
7
  6
BYLAYER
 70
0
 71
3
 72
23
 73
19
 74
0
 42
0.0000001
 43
0.0000001
 44
0.0000000001
 40
0.0
 40
0.0
 40
0.0
 40
0.0
 40
0.0428134976
 40
0.0873943971
 40
0.1351770705
 40
0.1870867922
 40
0.2435327603
 40
0.3044900688
 40
0.369589261
 40
0.4381975565
 40
0.5094955148
 40
0.5825324306
 40
0.656275412
 40
0.7296655482
 40
0.8016545526
 40
0.8712500667
 40
0.9376215115
 40
1.0
 40
1.0
 40
1.0
 40
1.0
 10
8.7995103438
 20
42.8807749013
 30
0.0
 10
8.7994964433
 20
42.7555189588
 30
0.0
 10
8.8330285261
 20
42.4987516188
 30
0.0
 10
8.9802485772
 20
42.1279851746
 30
0.0
 10
9.2192138267
 20
41.7765096397
 30
0.0
 10
9.5431048049
 20
41.4512899
 30
0.0
 10
9.9444213259
 20
41.158028211
 30
0.0
 10
10.41464526
 20
40.9022612981
 30
0.0
 10
10.9439413192
 20
40.6890502266
 30
0.0
 10
11.5211648537
 20
40.5226963666
 30
0.0
 10
12.1341194453
 20
40.4066690514
 30
0.0
 10
12.769789297
 20
40.343467669
 30
0.0
 10
13.4146265433
 20
40.3344003361
 30
0.0
 10
14.0548787286
 20
40.3796543371
 30
0.0
 10
14.6768583198
 20
40.4782851711
 30
0.0
 10
15.267466858
 20
40.6281906683
 30
0.0
 10
15.8139261721
 20
40.8262645114
 30
0.0
 10
16.1527364398
 20
40.9932681729
 30
0.0
 10
16.3107825313
 20
41.0845155818
 30
0.0
  0
SPLINE
  5
278
100
AcDbEntity
  8
0
100
AcDbSpline
 62
7
  6
BYLAYER
 70
0
 71
3
 72
14
 73
10
 74
0
 42
0.0000001
 43
0.0000001
 44
0.0000000001
 40
0.0
 40
0.0
 40
0.0
 40
0.0
 40
0.1080471741
 40
0.2181331536
 40
0.3321126824
 40
0.4514946816
 40
0.5774390732
 40
0.710737758
 40
1.0
 40
1.0
 40
1.0
 40
1.0
 10
17.5994891375
 20
38.5124869704
 30
0.0
 10
17.5994798934
 20
38.4291897984
 30
0.0
 10
17.5850240619
 20
38.260686451
 30
0.0
 10
17.5204590645
 20
38.0117933614
 30
0.0
 10
17.4138526701
 20
37.7682907541
 30
0.0
 10
17.2666771797
 20
37.5325911965
 30
0.0
 10
17.0804108554
 20
37.3068408582
 30
0.0
 10
16.7743931886
 20
37.0139678583
 30
0.0
 10
16.503908144
 20
36.827728109
 30
0.0
 10
16.3107825313
 20
36.7162276501
 30
0.0
  0
SPLINE
  5
279
100
AcDbEntity
  8
0
100
AcDbSpline
 62
7
  6
BYLAYER
 70
0
 71
3
 72
9
 73
5
 74
0
 42
0.0000001
 43
0.0000001
 44
0.0000000001
 40
0.0
 40
0.0
 40
0.0
 40
0.0
 40
0.2456444794
 40
1.0
 40
1.0
 40
1.0
 40
1.0
 10
16.1720040233
 20
36.4811104547
 30
0.0
 10
16.1636073616
 20
36.4689506703
 30
0.0
 10
16.1287110031
 20
36.4199446353
 30
0.0
 10
16.0910363495
 20
36.3729289875
 30
0.0
 10
16.0613193114
 20
36.3386332414
 30
0.0
  0
SPLINE
  5
27A
100
AcDbEntity
  8
0
100
AcDbSpline
 62
7
  6
BYLAYER
 70
0
 71
3
 72
9
 73
5
 74
0
 42
0.0000001
 43
0.0000001
 44
0.0000000001
 40
0.0
 40
0.0
 40
0.0
 40
0.0
 40
0.4776583047
 40
1.0
 40
1.0
 40
1.0
 40
1.0
 10
16.0613193114
 20
36.3386332414
 30
0.0
 10
15.9810223259
 20
36.2459643484
 30
0.0
 10
15.7925664428
 20
36.0692382341
 30
0.0
 10
15.5783750981
 20
35.9259313276
 30
0.0
 10
15.4622510334
 20
35.8588874678
 30
0.0
  0
SPLINE
  5
27B
100
AcDbEntity
  8
0
100
AcDbSpline
 62
7
  6
BYLAYER
 70
0
 71
3
 72
9
 73
5
 74
0
 42
0.0000001
 43
0.0000001
 44
0.0000000001
 40
0.0
 40
0.0
 40
0.0
 40
0.0
 40
0.2406104652
 40
1.0
 40
1.0
 40
1.0
 40
1.0
 10
16.8354277659
 20
40.9602731295
 30
0.0
 10
16.796262872
 20
40.9270943626
 30
0.0
 10
16.6300319329
 20
40.7932985656
 30
0.0
 10
16.4510795902
 20
40.6756141927
 30
0.0
 10
16.3107825313
 20
40.5946141315
 30
0.0
  0
SPLINE
  5
27C
100
AcDbEntity
  8
0
100
AcDbSpline
 62
7
  6
BYLAYER
 70
0
 71
3
 72
12
 73
8
 74
0
 42
0.0000001
 43
0.0000001
 44
0.0000000001
 40
0.0
 40
0.0
 40
0.0
 40
0.0
 40
0.1169287142
 40
0.2336654885
 40
0.4716539734
 40
0.7246355244
 40
1.0
 40
1.0
 40
1.0
 40
1.0
 10
9.2154178082
 20
37.3709376551
 30
0.0
 10
9.2061553839
 20
37.3111405011
 30
0.0
 10
9.1956029716
 20
37.1902279143
 30
0.0
 10
9.2077007361
 20
36.9458171262
 30
0.0
 10
9.2879971728
 20
36.6376057222
 30
0.0
 10
9.4816344167
 20
36.2876830356
 30
0.0
 10
9.6628553603
 20
36.0802756908
 30
0.0
 10
9.7653029196
 20
35.9812260356
 30
0.0
  0
SPLINE
  5
27D
100
AcDbEntity
  8
0
100
AcDbSpline
 62
7
  6
BYLAYER
 70
0
 71
3
 72
9
 73
5
 74
0
 42
0.0000001
 43
0.0000001
 44
0.0000000001
 40
0.0
 40
0.0
 40
0.0
 40
0.0
 40
0.2445739686
 40
1.0
 40
1.0
 40
1.0
 40
1.0
 10
9.7653029196
 20
35.9812260356
 30
0.0
 10
9.7836166952
 20
35.9635196777
 30
0.0
 10
9.8595914199
 20
35.8922597712
 30
0.0
 10
9.9397672741
 20
35.8255099188
 30
0.0
 10
10.002169088
 20
35.7775847195
 30
0.0
  0
SPLINE
  5
27E
100
AcDbEntity
  8
0
100
AcDbSpline
 62
7
  6
BYLAYER
 70
0
 71
3
 72
13
 73
9
 74
0
 42
0.0000001
 43
0.0000001
 44
0.0000000001
 40
0.0
 40
0.0
 40
0.0
 40
0.0
 40
0.1122903392
 40
0.2260162363
 40
0.3425098602
 40
0.4629667253
 40
0.7192045196
 40
1.0
 40
1.0
 40
1.0
 40
1.0
 10
8.3995004825
 20
36.3487554651
 30
0.0
 10
8.3994965083
 20
36.2742202785
 30
0.0
 10
8.4100868529
 20
36.1239921064
 30
0.0
 10
8.4573230309
 20
35.9009277112
 30
0.0
 10
8.5355439878
 20
35.6809833919
 30
0.0
 10
8.6833849648
 20
35.388063714
 30
0.0
 10
8.9480785826
 20
35.0364994027
 30
0.0
 10
9.2148831602
 20
34.7970746836
 30
0.0
 10
9.362702923
 20
34.6835476698
 30
0.0
  0
SPLINE
  5
27F
100
AcDbEntity
  8
0
100
AcDbSpline
 62
7
  6
BYLAYER
 70
0
 71
3
 72
22
 73
18
 74
0
 42
0.0000001
 43
0.0000001
 44
0.0000000001
 40
0.0
 40
0.0
 40
0.0
 40
0.0
 40
0.062192941
 40
0.1283548054
 40
0.1977107762
 40
0.2694541992
 40
0.4160491781
 40
0.4889616513
 40
0.5602144971
 40
0.6288679213
 40
0.6941039402
 40
0.7552905641
 40
0.8120363739
 40
0.8642776751
 40
0.9123711678
 40
0.9571618356
 40
1.0
 40
1.0
 40
1.0
 40
1.0
 10
28.5790291022
 20
48.8615638236
 30
0.0
 10
28.5790291022
 20
49.0075049619
 30
0.0
 10
28.559371744
 20
49.3088964888
 30
0.0
 10
28.4787245301
 20
49.7665415564
 30
0.0
 10
28.3473936824
 20
50.2356402857
 30
0.0
 10
28.1069219203
 20
50.8671685185
 30
0.0
 10
27.7819233668
 20
51.4728646773
 30
0.0
 10
27.3862526946
 20
52.0294560588
 30
0.0
 10
27.0621904864
 20
52.4103609696
 30
0.0
 10
26.7172682815
 20
52.7472045285
 30
0.0
 10
26.3585697733
 20
53.0329903116
 30
0.0
 10
25.9934959008
 20
53.2618166863
 30
0.0
 10
25.6293111175
 20
53.4287961488
 30
0.0
 10
25.2731829486
 20
53.5301742453
 30
0.0
 10
24.931989101
 20
53.5631491594
 30
0.0
 10
24.6130582764
 20
53.5256304887
 30
0.0
 10
24.4182502222
 20
53.4522341498
 30
0.0
 10
24.3295154278
 20
53.404999575
 30
0.0
  0
SPLINE
  5
280
100
AcDbEntity
  8
0
100
AcDbSpline
 62
7
  6
BYLAYER
 70
0
 71
3
 72
22
 73
18
 74
0
 42
0.0000001
 43
0.0000001
 44
0.0000000001
 40
0.0
 40
0.0
 40
0.0
 40
0.0
 40
0.0623808856
 40
0.128768814
 40
0.1983737924
 40
0.2703700253
 40
0.417389564
 40
0.490434784
 40
0.5617420842
 40
0.6303602841
 40
0.6954659704
 40
0.7564320148
 40
0.8128870017
 40
0.8648020494
 40
0.9125919062
 40
0.9571803473
 40
1.0
 40
1.0
 40
1.0
 40
1.0
 10
29.0032934654
 20
48.8207405979
 30
0.0
 10
29.0032934654
 20
48.982482647
 30
0.0
 10
28.9813152975
 20
49.3165759594
 30
0.0
 10
28.8912083946
 20
49.823825452
 30
0.0
 10
28.7445262574
 20
50.3436811326
 30
0.0
 10
28.4761161579
 20
51.0430241454
 30
0.0
 10
28.1136259553
 20
51.7129301365
 30
0.0
 10
27.6726113293
 20
52.3271620376
 30
0.0
 10
27.3118818531
 20
52.7463000307
 30
0.0
 10
26.9283898796
 20
53.1156577715
 30
0.0
 10
26.5301184022
 20
53.4274190535
 30
0.0
 10
26.1254097008
 20
53.675036026
 30
0.0
 10
25.722445152
 20
53.8531441265
 30
0.0
 10
25.3292417248
 20
53.9575767844
 30
0.0
 10
24.9535460971
 20
53.9852589685
 30
0.0
 10
24.6036732099
 20
53.9339874137
 30
0.0
 10
24.391734975
 20
53.8458752349
 30
0.0
 10
24.2955853416
 20
53.7903644739
 30
0.0
  0
SPLINE
  5
281
100
AcDbEntity
  8
0
100
AcDbSpline
 62
7
  6
BYLAYER
 70
0
 71
3
 72
26
 73
22
 74
0
 42
0.0000001
 43
0.0000001
 44
0.0000000001
 40
0.0
 40
0.0
 40
0.0
 40
0.0
 40
0.0603407048
 40
0.1143474953
 40
0.1392525959
 40
0.1630290592
 40
0.1859978256
 40
0.208539942
 40
0.2310816477
 40
0.2540475805
 40
0.3026082048
 40
0.3565986296
 40
0.416949961
 40
0.4835045468
 40
0.5553170986
 40
0.6309083048
 40
0.7084664423
 40
0.7860295384
 40
0.8616159562
 40
0.9334524744
 40
1.0
 40
1.0
 40
1.0
 40
1.0
 10
11.1362615566
 20
47.9095204349
 30
0.0
 10
11.0082107702
 20
47.8355907202
 30
0.0
 10
10.7759770859
 20
47.6757538748
 30
0.0
 10
10.5384690049
 20
47.4259098528
 30
0.0
 10
10.404726127
 20
47.2118506482
 30
0.0
 10
10.3341193883
 20
47.0503522219
 30
0.0
 10
10.2912545029
 20
46.8852864123
 30
0.0
 10
10.2769132689
 20
46.7183323161
 30
0.0
 10
10.2912894262
 20
46.5513829222
 30
0.0
 10
10.34930424
 20
46.32729568
 30
0.0
 10
10.4983264248
 20
46.0526402545
 30
0.0
 10
10.7759591493
 20
45.7610685494
 30
0.0
 10
11.143118329
 20
45.5081761354
 30
0.0
 10
11.5862604682
 20
45.3018643037
 30
0.0
 10
12.0893161177
 20
45.1489132589
 30
0.0
 10
12.633794308
 20
45.0548323329
 30
0.0
 10
13.1994539083
 20
45.0230692673
 30
0.0
 10
13.7650838117
 20
45.0548508136
 30
0.0
 10
14.3096701945
 20
45.1488905216
 30
0.0
 10
14.8126215461
 20
45.3018161856
 30
0.0
 10
15.1215154611
 20
45.4456177487
 30
0.0
 10
15.2627379247
 20
45.5271520894
 30
0.0
  0
SPLINE
  5
282
100
AcDbEntity
  8
0
100
AcDbSpline
 62
7
  6
BYLAYER
 70
0
 71
3
 72
13
 73
9
 74
0
 42
0.0000001
 43
0.0000001
 44
0.0000000001
 40
0.0
 40
0.0
 40
0.0
 40
0.0
 40
0.1188745097
 40
0.2449137563
 40
0.5074051026
 40
0.7659071962
 40
0.8872256178
 40
1.0
 40
1.0
 40
1.0
 40
1.0
 10
15.9641161314
 20
44.4094664967
 30
0.0
 10
15.9585239772
 20
44.4631020333
 30
0.0
 10
15.9390734375
 20
44.5728699425
 30
0.0
 10
15.8720901716
 20
44.7935184592
 30
0.0
 10
15.7409668478
 20
45.0586210131
 30
0.0
 10
15.5608771274
 20
45.2907744304
 30
0.0
 10
15.3947819651
 20
45.4409667829
 30
0.0
 10
15.3070431773
 20
45.5015730186
 30
0.0
 10
15.2627379247
 20
45.5271520894
 30
0.0
  0
SPLINE
  5
283
100
AcDbEntity
  8
0
100
AcDbSpline
 62
7
  6
BYLAYER
 70
0
 71
3
 72
11
 73
7
 74
0
 42
0.0000001
 43
0.0000001
 44
0.0000000001
 40
0.0
 40
0.0
 40
0.0
 40
0.0
 40
0.2896221785
 40
0.549093904
 40
0.782222355
 40
1.0
 40
1.0
 40
1.0
 40
1.0
 10
11.1362615566
 20
47.9095204349
 30
0.0
 10
11.0923948998
 20
47.9348462881
 30
0.0
 10
11.0050964211
 20
47.9763532757
 30
0.0
 10
10.8709443603
 20
48.0087819052
 30
0.0
 10
10.7450287516
 20
48.0056228298
 30
0.0
 10
10.6692696532
 20
47.9780519554
 30
0.0
 10
10.6362756338
 20
47.9590242009
 30
0.0
  0
SPLINE
  5
284
100
AcDbEntity
  8
0
100
AcDbSpline
 62
7
  6
BYLAYER
 70
0
 71
3
 72
15
 73
11
 74
0
 42
0.0000001
 43
0.0000001
 44
0.0000000001
 40
0.0
 40
0.0
 40
0.0
 40
0.0
 40
0.2385410352
 40
0.4258366408
 40
0.5707154364
 40
0.6839430507
 40
0.7755124113
 40
0.853598325
 40
0.9261945719
 40
1.0
 40
1.0
 40
1.0
 40
1.0
 10
17.3913312143
 20
38.9838495835
 30
0.0
 10
17.3938247059
 20
38.9643756135
 30
0.0
 10
17.4001020653
 20
38.9297740723
 30
0.0
 10
17.41503416
 20
38.885052965
 30
0.0
 10
17.4325876861
 20
38.8525859474
 30
0.0
 10
17.4517402271
 20
38.8307572448
 30
0.0
 10
17.4711836927
 20
38.8174208418
 30
0.0
 10
17.4906568377
 20
38.8116167283
 30
0.0
 10
17.5094552381
 20
38.8127890432
 30
0.0
 10
17.5207886781
 20
38.8174720537
 30
0.0
 10
17.5260461295
 20
38.8205148847
 30
0.0
  0
SPLINE
  5
285
100
AcDbEntity
  8
0
100
AcDbSpline
 62
7
  6
BYLAYER
 70
0
 71
3
 72
14
 73
10
 74
0
 42
0.0000001
 43
0.0000001
 44
0.0000000001
 40
0.0
 40
0.0
 40
0.0
 40
0.0
 40
0.1080479674
 40
0.2181389511
 40
0.3321128803
 40
0.4514887342
 40
0.5774363019
 40
0.7107571578
 40
1.0
 40
1.0
 40
1.0
 40
1.0
 10
28.195545733
 20
47.0353946072
 30
0.0
 10
28.2594887967
 20
47.0723113172
 30
0.0
 10
28.382458182
 20
47.1580644617
 30
0.0
 10
28.5448509613
 20
47.3179878823
 30
0.0
 10
28.6845759217
 20
47.5076968156
 30
0.0
 10
28.8002525245
 20
47.7251475793
 30
0.0
 10
28.8910203519
 20
47.9681878711
 30
0.0
 10
28.9801823164
 20
48.332913428
 30
0.0
 10
29.0032934654
 20
48.6230862498
 30
0.0
 10
29.0032934654
 20
48.8207405979
 30
0.0
  0
ELLIPSE
  5
286
100
AcDbEntity
  8
0
100
AcDbEllipse
 62
7
  6
BYLAYER
 10
29.3214672292
 20
52.1887416099
 30
0.0
 11
-1.9154195474
 21
2.9917354404
 31
0.0
 40
0.6056037601
 41
-0.8131900504
 42
-0.0278005283
  0
ELLIPSE
  5
287
100
AcDbEntity
  8
0
100
AcDbEllipse
 62
7
  6
BYLAYER
 10
29.3214672292
 20
52.1887416099
 30
0.0
 11
-1.6418495548
 21
3.1501249284
 31
0.0
 40
0.5463855642
 41
3.1651694293
 42
5.5213725609
  0
ELLIPSE
  5
288
100
AcDbEntity
  8
0
100
AcDbEllipse
 62
7
  6
BYLAYER
 10
24.1722462736
 20
43.8124081243
 30
0.0
 11
1.3869583476
 21
1.8773320553
 31
0.0
 40
0.1689749942
 41
-3.4296353965
 42
-2.7716376321
  0
ELLIPSE
  5
289
100
AcDbEntity
  8
0
100
AcDbEllipse
 62
7
  6
BYLAYER
 10
13.1994997407
 20
14.8360615638
 30
0.0
 11
3.3560208009
 21
26.3073405475
 31
0.0
 40
0.1081654244
 41
-0.105063284
 42
0.082124758
  0
ELLIPSE
  5
28A
100
AcDbEntity
  8
0
100
AcDbEllipse
 62
7
  6
BYLAYER
 10
13.1994997407
 20
14.8360615638
 30
0.0
 11
3.3560208009
 21
26.3073405475
 31
0.0
 40
0.1081654244
 41
-0.3944363951
 42
-0.2817882588
  0
ELLIPSE
  5
28B
100
AcDbEntity
  8
0
100
AcDbEllipse
 62
7
  6
BYLAYER
 10
20.0457699055
 20
52.2368943566
 30
0.0
 11
2.2351998166
 21
0.2724096143
 31
0.0
 40
0.2277308056
 41
2.7139050378
 42
3.4355986835
  0
ELLIPSE
  5
28C
100
AcDbEntity
  8
0
100
AcDbEllipse
 62
7
  6
BYLAYER
 10
24.1722462736
 20
49.854526011
 30
0.0
 11
2.2351998166
 21
0.2724096143
 31
0.0
 40
0.2277308056
 41
-2.8475866237
 42
-2.125892978
  0
ELLIPSE
  5
28D
100
AcDbEntity
  8
0
100
AcDbEllipse
 62
7
  6
BYLAYER
 10
24.1722462736
 20
49.854526011
 30
0.0
 11
1.3339846751
 21
1.7093792705
 31
0.0
 40
0.2894270446
 41
-4.1552425939
 42
-3.4335489482
  0
ENDSEC
  0
SECTION
  2
OBJECTS
  0
DICTIONARY
  5
C
100
AcDbDictionary
280
0
281
1
  3
ACAD_GROUP
350
D
  3
ACAD_MLINESTYLE
350
17
  3
ACAD_LAYOUT
350
1A
  3
ACAD_PLOTSETTINGS
350
19
  3
ACAD_PLOTSTYLENAME
350
E
  0
DICTIONARY
  5
D
102
{ACAD_REACTORS
330
C
102
}
100
AcDbDictionary
280
0
281
1
  0
ACDBDICTIONARYWDFLT
  5
E
102
{ACAD_REACTORS
330
C
102
}
100
AcDbDictionary
281
1
  3
Normal
350
F
100
AcDbDictionaryWithDefault
340
F
  0
DICTIONARY
  5
17
102
{ACAD_REACTORS
330
C
102
}
100
AcDbDictionary
280
0
281
1
  3
Standard
350
18
  0
DICTIONARY
  5
19
102
{ACAD_REACTORS
330
C
102
}
100
AcDbDictionary
281
1
  0
DICTIONARY
  5
1A
102
{ACAD_REACTORS
330
C
102
}
100
AcDbDictionary
281
1
  3
Model
350
28E
  3
Layout1
350
28F
  0
ACDBPLACEHOLDER
  5
F
102
{ACAD_REACTORS
330
E
102
}
  0
MLINESTYLE
  5
18
102
{ACAD_REACTORS
330
17
102
}
100
AcDbMlineStyle
  2
STANDARD
 70
0
  3

 62
256
 51
90.0
 52
90.0
 71
2
 49
0.5
 62
256
  6
BYLAYER
 49
-0.5
 62
256
  6
BYLAYER
  0
LAYOUT
  5
28E
102
{ACAD_REACTORS
330
1A
102
}
100
AcDbPlotSettings
  1

  2
none_device
  4

  6

 40
0.0
 41
0.0
 42
0.0
 43
0.0
 44
210.0
 45
297.0
 46
0.0
 47
0.0
 48
0.0
 49
0.0
140
0.0
141
0.0
142
1.0
143
1.0
 70
1024
 72
1
 73
0
 74
0
  7

 75
0
147
1.0
148
0.0
149
0.0
100
AcDbLayout
  1
Model
 70
0
 71
0
 10
0.0
 20
0.0
 11
210.0
 21
297.0
 12
0.0
 22
0.0
 32
0.0
 14
0.0
 24
0.0
 34
0.0
 15
0.0
 25
0.0
 35
0.0
146
0.0
 13
0.0
 23
0.0
 33
0.0
 16
1.0
 26
0.0
 36
0.0
 17
0.0
 27
1.0
 37
0.0
 76
0
330
210
345
0
346
0
  0
LAYOUT
  5
28F
102
{ACAD_REACTORS
330
1A
102
}
100
AcDbPlotSettings
  1

  2
none_device
  4

  6

 40
0.0
 41
0.0
 42
0.0
 43
0.0
 44
210.0
 45
297.0
 46
0.0
 47
0.0
 48
0.0
 49
0.0
140
0.0
141
0.0
142
1.0
143
1.0
 70
0
 72
1
 73
0
 74
0
  7

 75
0
147
1.0
148
0.0
149
0.0
100
AcDbLayout
  1
Layout1
 70
0
 71
1
 10
0.0
 20
0.0
 11
210.0
 21
297.0
 12
0.0
 22
0.0
 32
0.0
 14
0.0
 24
0.0
 34
0.0
 15
0.0
 25
0.0
 35
0.0
146
0.0
 13
0.0
 23
0.0
 33
0.0
 16
1.0
 26
0.0
 36
0.0
 17
0.0
 27
1.0
 37
0.0
 76
0
330
211
345
0
346
0
  0
ENDSEC
  0
EOF
