999
DXF file: C:\Users\sesa63760\Dev\_Creo\CAD\MCADID0004760_3D-CAD\drw0001_5.dxf
999
Pro/ENGINEER 2019471 by Parametric Technology Corporation
  0
SECTION
  2
HEADER
  9
$ACADVER
  1
AC1024
  9
$DWGCODEPAGE
  3
ANSI_1252
  9
$EXTMAX
 10
67.9902901565
 20
96.1576960784
 30
0.0
  9
$EXTMIN
 10
0.0
 20
0.0
 30
0.0
  9
$LIMMIN
 10
0.0
 20
0.0
  9
$LIMMAX
 10
67.9902901565
 20
96.1576960784
  9
$VIEWCTR
 10
33.9951450782
 20
48.0788480392
  9
$VIEWSIZE
 40
96.1576960784
  9
$CLAYER
  8
0
  9
$LTSCALE
 40
6.2680572259
  9
$CELTYPE
  6
BYLAYER
  9
$DIMSCALE
 40
1.0
  9
$DIMASZ
 40
0.8094082161
  9
$DIMEXO
 40
1.0
  9
$DIMDLI
 40
4.3306577197
  9
$DIMEXE
 40
1.0
  9
$DIMCEN
 40
1.0256820915
  9
$DIMLFAC
 40
1.0
  9
$DIMBLK
  1
_FILLED
  9
$DIMALT
 70
0
  9
$DIMALTF
 40
0.0393700787
  9
$DIMTXT
 40
1.1331715026
  9
$DIMTOL
 70
1
  9
$DIMLIM
 70
0
  9
$DIMTFAC
 40
1.0
  9
$DIMTP
 40
0.01
  9
$DIMTM
 40
0.01
  9
$DIMGAP
 40
0.625
  9
$DIMDSEP
 70
46
  9
$AUNITS
 70
0
  9
$PDMODE
 70
3
  9
$PDSIZE
 40
0.3125
  9
$HANDSEED
  5
2D3
  9
$TILEMODE
 70
1
  9
$MEASUREMENT
 70
1
  9
$INSUNITS
 70
4
  0
ENDSEC
  0
SECTION
  2
CLASSES
  0
CLASS
  1
ACDBDICTIONARYWDFLT
  2
AcDbDictionaryWithDefault
  3
AutoCAD 2000
 90
0
 91
1
280
0
281
0
  0
CLASS
  1
ACDBPLACEHOLDER
  2
AcDbPlaceHolder
  3
AutoCAD 2000
 90
0
 91
1
280
0
281
0
  0
CLASS
  1
LAYOUT
  2
AcDbLayout
  3
AutoCAD 2000
 90
0
 91
0
280
0
281
0
  0
ENDSEC
  0
SECTION
  2
TABLES
  0
TABLE
  2
VPORT
  5
8
100
AcDbSymbolTable
 70
2
  0
VPORT
  5
1F4
100
AcDbSymbolTableRecord
100
AcDbViewportTableRecord
  2
*ACTIVE
 70
0
 10
0.0
 20
0.0
 11
1.0
 21
1.0
 12
33.9951450782
 22
48.0788480392
 13
0.0
 23
0.0
 14
1.0
 24
1.0
 15
0.0
 25
0.0
 16
0.0
 26
0.0
 36
1.0
 17
0.0
 27
0.0
 37
0.0
 40
96.1576960784
 41
0.7070707071
 42
50.0
 43
0.0
 44
0.0
 50
0.0
 51
0.0
 71
0
 72
100
 73
1
 74
1
 75
0
 76
0
 77
0
 78
0
  0
ENDTAB
  0
TABLE
  2
LTYPE
  5
5
100
AcDbSymbolTable
 70
6
  0
LTYPE
  5
14
100
AcDbSymbolTableRecord
100
AcDbLinetypeTableRecord
  2
BYBLOCK
 70
0
  3

 72
65
 73
0
 40
0.0
  0
LTYPE
  5
15
100
AcDbSymbolTableRecord
100
AcDbLinetypeTableRecord
  2
BYLAYER
 70
0
  3

 72
65
 73
0
 40
0.0
  0
LTYPE
  5
16
100
AcDbSymbolTableRecord
100
AcDbLinetypeTableRecord
  2
CONTINUOUS
 70
64
  3
Solid line
 72
65
 73
0
 40
0.0
  0
LTYPE
  5
1F5
100
AcDbSymbolTableRecord
100
AcDbLinetypeTableRecord
  2
CENTER
 70
64
  3
____ _ ____ _ ____ _ ____ _ ____ _ ____ _ ____
 72
65
 73
4
 40
0.6
 49
0.375
 74
0
 49
-0.075
 74
0
 49
0.075
 74
0
 49
-0.075
 74
0
  0
LTYPE
  5
1F6
100
AcDbSymbolTableRecord
100
AcDbLinetypeTableRecord
  2
HIDDEN
 70
64
  3
- - - - - - - - - - - - - - - - - - - -
 72
65
 73
2
 40
0.2
 49
0.1
 74
0
 49
-0.1
 74
0
  0
LTYPE
  5
1F7
100
AcDbSymbolTableRecord
100
AcDbLinetypeTableRecord
  2
PHANTOM
 70
64
  3
_____ _ _ _____ _ _ _____ _ _ _____
 72
65
 73
6
 40
0.8
 49
0.45
 74
0
 49
-0.05
 74
0
 49
0.1
 74
0
 49
-0.05
 74
0
 49
0.1
 74
0
 49
-0.05
 74
0
  0
LTYPE
  5
1F8
100
AcDbSymbolTableRecord
100
AcDbLinetypeTableRecord
  2
DOT
 70
64
  3
. . . . . . . . . . . . . . . . . . . .
 72
65
 73
2
 40
0.2
 49
0.1
 74
0
 49
-0.1
 74
0
  0
LTYPE
  5
1F9
100
AcDbSymbolTableRecord
100
AcDbLinetypeTableRecord
  2
DASHED
 70
64
  3
- - - - - - - - - - - - - - - - - - - -
 72
65
 73
2
 40
0.2
 49
0.1
 74
0
 49
-0.1
 74
0
  0
ENDTAB
  0
TABLE
  2
LAYER
  5
2
100
AcDbSymbolTable
 70
36
  0
LAYER
  5
10
100
AcDbSymbolTableRecord
100
AcDbLayerTableRecord
  2
0
 70
0
 62
7
  6
CONTINUOUS
370
-3
390
F
  0
LAYER
  5
1FA
100
AcDbSymbolTableRecord
100
AcDbLayerTableRecord
  2
DEFAULT_1
 70
0
 62
7
  6
CENTER
370
-3
390
F
  0
LAYER
  5
1FB
100
AcDbSymbolTableRecord
100
AcDbLayerTableRecord
  2
DEFAULT_2
 70
0
 62
7
  6
HIDDEN
370
-3
390
F
  0
LAYER
  5
1FC
100
AcDbSymbolTableRecord
100
AcDbLayerTableRecord
  2
DEFAULT_3
 70
0
 62
7
  6
PHANTOM
370
-3
390
F
  0
LAYER
  5
1FD
100
AcDbSymbolTableRecord
100
AcDbLayerTableRecord
  2
00_COMPONENTS
 70
0
 62
7
  6
CONTINUOUS
370
-3
390
F
  0
LAYER
  5
1FE
100
AcDbSymbolTableRecord
100
AcDbLayerTableRecord
  2
01_1_DEFAULT_DATUMS
 70
0
 62
7
  6
CONTINUOUS
370
-3
390
F
  0
LAYER
  5
1FF
100
AcDbSymbolTableRecord
100
AcDbLayerTableRecord
  2
01_PLANES
 70
0
 62
7
  6
CONTINUOUS
370
-3
390
F
  0
LAYER
  5
200
100
AcDbSymbolTableRecord
100
AcDbLayerTableRecord
  2
02_COORD_SYS
 70
0
 62
7
  6
CONTINUOUS
370
-3
390
F
  0
LAYER
  5
201
100
AcDbSymbolTableRecord
100
AcDbLayerTableRecord
  2
03_AXES
 70
0
 62
7
  6
CONTINUOUS
370
-3
390
F
  0
LAYER
  5
202
100
AcDbSymbolTableRecord
100
AcDbLayerTableRecord
  2
04_POINTS
 70
0
 62
7
  6
CONTINUOUS
370
-3
390
F
  0
LAYER
  5
203
100
AcDbSymbolTableRecord
100
AcDbLayerTableRecord
  2
05_CURVES
 70
0
 62
7
  6
CONTINUOUS
370
-3
390
F
  0
LAYER
  5
204
100
AcDbSymbolTableRecord
100
AcDbLayerTableRecord
  2
06_SURFS
 70
0
 62
7
  6
CONTINUOUS
370
-3
390
F
  0
LAYER
  5
205
100
AcDbSymbolTableRecord
100
AcDbLayerTableRecord
  2
07_COSMETICS
 70
0
 62
7
  6
CONTINUOUS
370
-3
390
F
  0
LAYER
  5
206
100
AcDbSymbolTableRecord
100
AcDbLayerTableRecord
  2
10_NOTES
 70
0
 62
7
  6
CONTINUOUS
370
-3
390
F
  0
LAYER
  5
207
100
AcDbSymbolTableRecord
100
AcDbLayerTableRecord
  2
11_NOTES_PUB
 70
0
 62
7
  6
CONTINUOUS
370
-3
390
F
  0
LAYER
  5
208
100
AcDbSymbolTableRecord
100
AcDbLayerTableRecord
  2
13_REF_GTOL
 70
0
 62
7
  6
CONTINUOUS
370
-3
390
F
  0
LAYER
  5
209
100
AcDbSymbolTableRecord
100
AcDbLayerTableRecord
  2
16_MISC
 70
0
 62
7
  6
CONTINUOUS
370
-3
390
F
  0
LAYER
  5
20A
100
AcDbSymbolTableRecord
100
AcDbLayerTableRecord
  2
17_NO_PRINT
 70
0
 62
7
  6
CONTINUOUS
370
-3
390
F
  0
LAYER
  5
20B
100
AcDbSymbolTableRecord
100
AcDbLayerTableRecord
  2
18_DATUM_CAMS_JOINTS
 70
0
 62
7
  6
CONTINUOUS
370
-3
390
F
  0
LAYER
  5
20C
100
AcDbSymbolTableRecord
100
AcDbLayerTableRecord
  2
19_DATUM_FUNCTIONAL
 70
0
 62
7
  6
CONTINUOUS
370
-3
390
F
  0
LAYER
  5
20D
100
AcDbSymbolTableRecord
100
AcDbLayerTableRecord
  2
20_DATUM_KINEMATIC_SCHEME
 70
0
 62
7
  6
CONTINUOUS
370
-3
390
F
  0
ENDTAB
  0
TABLE
  2
STYLE
  5
3
100
AcDbSymbolTable
 70
1
  0
STYLE
  5
11
100
AcDbSymbolTableRecord
100
AcDbTextStyleTableRecord
  2
STANDARD
 70
0
 40
0.0
 41
1.0
 50
0.0
 71
0
 42
0.2
  3
ARIAL.TTF
  4

  0
STYLE
  5
20E
100
AcDbSymbolTableRecord
100
AcDbTextStyleTableRecord
  2
TEXTSTYLE_1
 70
0
 40
0.0
 41
0.8
 50
0.0
 71
0
 42
0.2
  3
gdt
  4

  0
ENDTAB
  0
TABLE
  2
VIEW
  5
6
100
AcDbSymbolTable
 70
0
  0
ENDTAB
  0
TABLE
  2
UCS
  5
7
100
AcDbSymbolTable
 70
0
  0
ENDTAB
  0
TABLE
  2
APPID
  5
9
100
AcDbSymbolTable
 70
1
  0
APPID
  5
20F
100
AcDbSymbolTableRecord
100
AcDbRegAppTableRecord
  2
ACAD
 70
0
  0
ENDTAB
  0
TABLE
  2
BLOCK_RECORD
  5
1
100
AcDbSymbolTable
 70
0
  0
BLOCK_RECORD
  5
210
100
AcDbSymbolTableRecord
100
AcDbBlockTableRecord
  2
*Model_Space
  0
BLOCK_RECORD
  5
211
100
AcDbSymbolTableRecord
100
AcDbBlockTableRecord
  2
*Paper_Space
  0
BLOCK_RECORD
  5
212
100
AcDbSymbolTableRecord
100
AcDbBlockTableRecord
  2
_FILLED
  0
ENDTAB
  0
TABLE
  2
DIMSTYLE
  5
A
100
AcDbSymbolTable
 70
1
100
AcDbDimStyleTable
 71
0
  0
DIMSTYLE
105
213
100
AcDbSymbolTableRecord
100
AcDbDimStyleTableRecord
  2
STANDARD
 70
0
  3

  4

 40
1.0
 41
0.8094082161
 42
1.0
 43
0.38
 44
1.0
 45
0.0
 46
0.0
 47
0.01
 48
0.01
140
1.1331715026
141
0.09
142
0.0
143
25.4
144
1.0
145
0.0
146
1.0
147
0.625
 71
1
 72
0
 73
0
 74
0
 75
0
 76
0
 77
1
 78
8
 79
2
170
0
171
1
172
0
173
0
174
0
175
0
176
0
177
0
178
0
270
2
179
2
271
2
272
2
273
2
274
2
275
0
280
0
281
0
282
0
283
1
284
8
285
0
286
0
287
3
288
0
340
11
278
46
341
212
342
212
343
212
344
212
  0
ENDTAB
  0
ENDSEC
  0
SECTION
  2
BLOCKS
  0
BLOCK
  5
20
100
AcDbEntity
  8
0
100
AcDbBlockBegin
  2
*Model_Space
 70
0
 10
0.0
 20
0.0
 30
0.0
  3
*Model_Space
  1

  0
ENDBLK
  5
21
100
AcDbEntity
  8
0
100
AcDbBlockEnd
  0
BLOCK
  5
1C
100
AcDbEntity
  8
0
100
AcDbBlockBegin
  2
*Paper_Space
 70
0
 10
0.0
 20
0.0
 30
0.0
  3
*Paper_Space
  1

  0
ENDBLK
  5
1D
100
AcDbEntity
  8
0
100
AcDbBlockEnd
  0
BLOCK
  5
214
100
AcDbEntity
  8
0
100
AcDbBlockBegin
  2
_FILLED
 70
64
 10
0.0
 20
0.0
  3
_FILLED
  1

  0
SOLID
  5
215
100
AcDbEntity
  8
0
  6
BYBLOCK
 62
0
100
AcDbTrace
 10
0.0
 20
0.0
 11
-1.0
 21
0.25
 12
-1.0
 22
-0.25
 13
-1.0
 23
-0.25
  0
ENDBLK
  5
216
100
AcDbEntity
  8
0
  6
BYBLOCK
 62
0
100
AcDbBlockEnd
  0
ENDSEC
  0
SECTION
  2
ENTITIES
  0
LINE
  5
217
100
AcDbEntity
  8
0
100
AcDbLine
 62
7
  6
BYLAYER
 10
7.9254637057
 20
41.8196192186
 11
7.9254637057
 21
54.5734690229
  0
LINE
  5
218
100
AcDbEntity
  8
0
100
AcDbLine
 62
7
  6
BYLAYER
 10
8.3386396169
 20
41.4688963828
 11
8.3386396169
 21
42.8831099452
  0
LINE
  5
219
100
AcDbEntity
  8
0
100
AcDbLine
 62
7
  6
BYLAYER
 10
8.3386396169
 20
44.7398193921
 11
8.3386396169
 21
51.6532688432
  0
LINE
  5
21A
100
AcDbEntity
  8
0
100
AcDbLine
 62
7
  6
BYLAYER
 10
8.3386396169
 20
53.5099782901
 11
8.3386396169
 21
54.9241918525
  0
LINE
  5
21B
100
AcDbEntity
  8
0
100
AcDbLine
 62
7
  6
BYLAYER
 10
10.8622877945
 20
51.9721088204
 11
10.8622877945
 21
44.4209794149
  0
LINE
  5
21C
100
AcDbEntity
  8
0
100
AcDbLine
 62
7
  6
BYLAYER
 10
11.2754637057
 20
39.0512954358
 11
11.2754637057
 21
57.3417871658
  0
LINE
  5
21D
100
AcDbEntity
  8
0
100
AcDbLine
 62
7
  6
BYLAYER
 10
11.5254637057
 20
38.6182319541
 11
11.5254637057
 21
54.6066459482
  0
LINE
  5
21E
100
AcDbEntity
  8
0
100
AcDbLine
 62
7
  6
BYLAYER
 10
11.5254637057
 20
55.3137527294
 11
11.5254637057
 21
57.7748562812
  0
LINE
  5
21F
100
AcDbEntity
  8
0
100
AcDbLine
 62
7
  6
BYLAYER
 10
12.5076010425
 20
58.341690769
 11
12.5076010425
 21
55.7152253801
  0
LINE
  5
220
100
AcDbEntity
  8
0
100
AcDbLine
 62
7
  6
BYLAYER
 10
12.5076010425
 20
55.0081185989
 11
12.5076010425
 21
38.0511946984
  0
LINE
  5
221
100
AcDbEntity
  8
0
100
AcDbLine
 62
7
  6
BYLAYER
 10
12.7488748392
 20
37.9842835527
 11
12.7488748392
 21
55.05548911
  0
LINE
  5
222
100
AcDbEntity
  8
0
100
AcDbLine
 62
7
  6
BYLAYER
 10
12.7488748392
 20
55.7625958911
 11
12.7488748392
 21
58.4086005774
  0
LINE
  5
223
100
AcDbEntity
  8
0
100
AcDbLine
 62
7
  6
BYLAYER
 10
13.2754637057
 20
59.4965441176
 11
13.4754637057
 21
59.6965441176
  0
LINE
  5
224
100
AcDbEntity
  8
0
100
AcDbLine
 62
7
  6
BYLAYER
 10
13.2754637057
 20
36.8965441176
 11
13.4754637057
 21
36.6965441176
  0
LINE
  5
225
100
AcDbEntity
  8
0
100
AcDbLine
 62
7
  6
BYLAYER
 10
13.2754637057
 20
36.8965441176
 11
13.2754637057
 21
39.4965441176
  0
LINE
  5
226
100
AcDbEntity
  8
0
100
AcDbLine
 62
7
  6
BYLAYER
 10
13.2754637057
 20
56.8965441176
 11
13.2754637057
 21
59.4965441176
  0
LINE
  5
227
100
AcDbEntity
  8
0
100
AcDbLine
 62
7
  6
BYLAYER
 10
13.4754637057
 20
36.6965441176
 11
13.4754637057
 21
39.6965441176
  0
LINE
  5
228
100
AcDbEntity
  8
0
100
AcDbLine
 62
7
  6
BYLAYER
 10
13.4754637057
 20
56.6965441176
 11
13.4754637057
 21
59.6965441176
  0
LINE
  5
229
100
AcDbEntity
  8
0
100
AcDbLine
 62
7
  6
BYLAYER
 10
11.5254637057
 20
57.7748562812
 11
12.5076010425
 21
58.3418935369
  0
LINE
  5
22A
100
AcDbEntity
  8
0
100
AcDbLine
 62
7
  6
BYLAYER
 10
12.5076010425
 20
38.0511946984
 11
11.5254637057
 21
38.6182319541
  0
LINE
  5
22B
100
AcDbEntity
  8
0
100
AcDbLine
 62
7
  6
BYLAYER
 10
17.7754637057
 20
39.6965441176
 11
17.7754637057
 21
55.1176041188
  0
LINE
  5
22C
100
AcDbEntity
  8
0
100
AcDbLine
 62
7
  6
BYLAYER
 10
17.7754637057
 20
55.8247109
 11
17.7754637057
 21
56.6965441176
  0
LINE
  5
22D
100
AcDbEntity
  8
0
100
AcDbLine
 62
7
  6
BYLAYER
 10
18.1754637057
 20
36.196589327
 11
18.1754637057
 21
36.6965441176
  0
LINE
  5
22E
100
AcDbEntity
  8
0
100
AcDbLine
 62
7
  6
BYLAYER
 10
18.1754637057
 20
37.4158631433
 11
18.1754637057
 21
42.6641226611
  0
LINE
  5
22F
100
AcDbEntity
  8
0
100
AcDbLine
 62
7
  6
BYLAYER
 10
18.1754637057
 20
53.7289655742
 11
18.1754637057
 21
58.977225092
  0
LINE
  5
230
100
AcDbEntity
  8
0
100
AcDbLine
 62
7
  6
BYLAYER
 10
18.1754637057
 20
59.6965441176
 11
18.1754637057
 21
60.1964989083
  0
LINE
  5
231
100
AcDbEntity
  8
0
100
AcDbLine
 62
7
  6
BYLAYER
 10
18.2754637057
 20
59.6965441176
 11
18.2754637057
 21
58.977225092
  0
LINE
  5
232
100
AcDbEntity
  8
0
100
AcDbLine
 62
7
  6
BYLAYER
 10
18.2754637057
 20
37.4158631433
 11
18.2754637057
 21
36.6965441176
  0
LINE
  5
233
100
AcDbEntity
  8
0
100
AcDbLine
 62
7
  6
BYLAYER
 10
18.4754637057
 20
36.8965441176
 11
18.4754637057
 21
37.4158631433
  0
LINE
  5
234
100
AcDbEntity
  8
0
100
AcDbLine
 62
7
  6
BYLAYER
 10
18.4754637057
 20
58.977225092
 11
18.4754637057
 21
59.4965441176
  0
LINE
  5
235
100
AcDbEntity
  8
0
100
AcDbLine
 62
7
  6
BYLAYER
 10
18.7754637057
 20
34.8100020397
 11
18.7754637057
 21
61.5830861956
  0
LINE
  5
236
100
AcDbEntity
  8
0
100
AcDbLine
 62
7
  6
BYLAYER
 10
20.7754637057
 20
34.7750919098
 11
20.7754637057
 21
35.8357520816
  0
LINE
  5
237
100
AcDbEntity
  8
0
100
AcDbLine
 62
7
  6
BYLAYER
 10
20.7754637057
 20
60.5573361537
 11
20.7754637057
 21
61.6179963255
  0
LINE
  5
238
100
AcDbEntity
  8
0
100
AcDbLine
 62
7
  6
BYLAYER
 10
12.5076010425
 20
38.0511946984
 11
12.7488748392
 21
37.9842835527
  0
LINE
  5
239
100
AcDbEntity
  8
0
100
AcDbLine
 62
7
  6
BYLAYER
 10
27.2754637057
 20
35.1965441176
 11
29.0016104285
 21
35.3475623875
  0
LINE
  5
23A
100
AcDbEntity
  8
0
100
AcDbLine
 62
7
  6
BYLAYER
 10
25.2754637057
 20
34.7465441176
 11
28.2754637057
 21
34.7465441176
  0
LINE
  5
23B
100
AcDbEntity
  8
0
100
AcDbLine
 62
7
  6
BYLAYER
 10
27.2754637057
 20
35.4465441176
 11
25.2754637057
 21
35.4465441176
  0
LINE
  5
23C
100
AcDbEntity
  8
0
100
AcDbLine
 62
7
  6
BYLAYER
 10
18.1754637057
 20
36.1965441176
 11
18.7754637057
 21
36.1965441176
  0
LINE
  5
23D
100
AcDbEntity
  8
0
100
AcDbLine
 62
7
  6
BYLAYER
 10
29.2754637057
 20
36.1965441176
 11
33.7754637057
 21
36.1965441176
  0
LINE
  5
23E
100
AcDbEntity
  8
0
100
AcDbLine
 62
7
  6
BYLAYER
 10
18.7754637057
 20
36.3552029715
 11
18.1754637057
 21
36.3552029715
  0
LINE
  5
23F
100
AcDbEntity
  8
0
100
AcDbLine
 62
7
  6
BYLAYER
 10
25.2754637057
 20
34.6965441176
 11
18.7754637057
 21
34.8100020397
  0
LINE
  5
240
100
AcDbEntity
  8
0
100
AcDbLine
 62
7
  6
BYLAYER
 10
20.7754637057
 20
35.4749852964
 11
25.2754637057
 21
35.3964375043
  0
LINE
  5
241
100
AcDbEntity
  8
0
100
AcDbLine
 62
7
  6
BYLAYER
 10
20.7754637057
 20
35.8357520816
 11
18.7754637057
 21
35.8706622115
  0
LINE
  5
242
100
AcDbEntity
  8
0
100
AcDbLine
 62
7
  6
BYLAYER
 10
40.4636922733
 20
37.9886495611
 11
33.7754637057
 21
36.1965441176
  0
LINE
  5
243
100
AcDbEntity
  8
0
100
AcDbLine
 62
7
  6
BYLAYER
 10
18.1754637057
 20
36.5499424827
 11
18.7754637828
 21
36.5581497187
  0
LINE
  5
244
100
AcDbEntity
  8
0
100
AcDbLine
 62
7
  6
BYLAYER
 10
13.4754637057
 20
36.6965441176
 11
18.2754637057
 21
36.6965441176
  0
LINE
  5
245
100
AcDbEntity
  8
0
100
AcDbLine
 62
7
  6
BYLAYER
 10
18.4754637057
 20
36.8965441176
 11
18.7754637057
 21
36.8965441176
  0
LINE
  5
246
100
AcDbEntity
  8
0
100
AcDbLine
 62
7
  6
BYLAYER
 10
18.1754637057
 20
37.4158631433
 11
18.7754637057
 21
37.4158631433
  0
LINE
  5
247
100
AcDbEntity
  8
0
100
AcDbLine
 62
7
  6
BYLAYER
 10
33.7754637057
 20
37.8042392722
 11
29.2754637057
 21
37.8042392722
  0
LINE
  5
248
100
AcDbEntity
  8
0
100
AcDbLine
 62
7
  6
BYLAYER
 10
29.2754637057
 20
38.1965441176
 11
35.0372559404
 21
38.1965441176
  0
LINE
  5
249
100
AcDbEntity
  8
0
100
AcDbLine
 62
7
  6
BYLAYER
 10
13.2754637057
 20
37.9750919098
 11
12.7488748392
 21
37.9842835527
  0
LINE
  5
24A
100
AcDbEntity
  8
0
100
AcDbLine
 62
7
  6
BYLAYER
 10
25.2754637057
 20
34.6965441176
 11
25.2754637057
 21
61.6965441176
  0
LINE
  5
24B
100
AcDbEntity
  8
0
100
AcDbLine
 62
7
  6
BYLAYER
 10
13.2754637057
 20
39.4965441176
 11
13.4754637057
 21
39.6965441176
  0
LINE
  5
24C
100
AcDbEntity
  8
0
100
AcDbLine
 62
7
  6
BYLAYER
 10
18.7754637057
 20
38.7141822079
 11
18.1754637057
 21
38.7141822079
  0
LINE
  5
24D
100
AcDbEntity
  8
0
100
AcDbLine
 62
7
  6
BYLAYER
 10
13.4754637057
 20
39.6965441176
 11
18.1754637057
 21
39.6965441176
  0
LINE
  5
24E
100
AcDbEntity
  8
0
100
AcDbLine
 62
7
  6
BYLAYER
 10
41.5754637057
 20
40.1965441176
 11
43.0754637057
 21
40.1965441176
  0
LINE
  5
24F
100
AcDbEntity
  8
0
100
AcDbLine
 62
7
  6
BYLAYER
 10
13.2754637057
 20
56.8965441176
 11
13.4754637057
 21
56.6965441176
  0
LINE
  5
250
100
AcDbEntity
  8
0
100
AcDbLine
 62
7
  6
BYLAYER
 10
27.2754637057
 20
34.7465441176
 11
27.2754637057
 21
41.9965441176
  0
LINE
  5
251
100
AcDbEntity
  8
0
100
AcDbLine
 62
7
  6
BYLAYER
 10
27.2754637057
 20
54.3965441176
 11
27.2754637057
 21
61.6465441176
  0
LINE
  5
252
100
AcDbEntity
  8
0
100
AcDbLine
 62
7
  6
BYLAYER
 10
27.4754637057
 20
34.7465441176
 11
27.4754637057
 21
35.2140418504
  0
LINE
  5
253
100
AcDbEntity
  8
0
100
AcDbLine
 62
7
  6
BYLAYER
 10
27.4754637057
 20
41.1790463849
 11
27.4754637057
 21
42.1965441176
  0
LINE
  5
254
100
AcDbEntity
  8
0
100
AcDbLine
 62
7
  6
BYLAYER
 10
27.4754637057
 20
54.1965441176
 11
27.4754637057
 21
55.2140418504
  0
LINE
  5
255
100
AcDbEntity
  8
0
100
AcDbLine
 62
7
  6
BYLAYER
 10
27.4754637057
 20
61.1790463849
 11
27.4754637057
 21
61.6465441176
  0
LINE
  5
256
100
AcDbEntity
  8
0
100
AcDbLine
 62
7
  6
BYLAYER
 10
28.2754637057
 20
54.1965441176
 11
28.2754637057
 21
42.1965441176
  0
LINE
  5
257
100
AcDbEntity
  8
0
100
AcDbLine
 62
7
  6
BYLAYER
 10
28.4754637057
 20
56.473122921
 11
28.4754637057
 21
55.8704050107
  0
LINE
  5
258
100
AcDbEntity
  8
0
100
AcDbLine
 62
7
  6
BYLAYER
 10
28.4754637057
 20
36.473122921
 11
28.4754637057
 21
35.8704050107
  0
LINE
  5
259
100
AcDbEntity
  8
0
100
AcDbLine
 62
7
  6
BYLAYER
 10
28.7754637057
 20
35.3277771129
 11
28.7754637057
 21
35.2465441176
  0
LINE
  5
25A
100
AcDbEntity
  8
0
100
AcDbLine
 62
7
  6
BYLAYER
 10
28.7754637057
 20
42.1965441176
 11
28.7754637057
 21
54.1965441176
  0
LINE
  5
25B
100
AcDbEntity
  8
0
100
AcDbLine
 62
7
  6
BYLAYER
 10
28.7754637057
 20
61.0653111224
 11
28.7754637057
 21
61.1465441176
  0
LINE
  5
25C
100
AcDbEntity
  8
0
100
AcDbLine
 62
7
  6
BYLAYER
 10
28.9754637057
 20
42.1965441176
 11
28.9754637057
 21
54.1965441176
  0
LINE
  5
25D
100
AcDbEntity
  8
0
100
AcDbLine
 62
7
  6
BYLAYER
 10
29.0016104285
 20
61.0455258478
 11
29.0016104285
 21
56.5172774067
  0
LINE
  5
25E
100
AcDbEntity
  8
0
100
AcDbLine
 62
7
  6
BYLAYER
 10
29.0016104285
 20
55.8950749755
 11
29.0016104285
 21
55.3475623875
  0
LINE
  5
25F
100
AcDbEntity
  8
0
100
AcDbLine
 62
7
  6
BYLAYER
 10
29.0016104285
 20
41.0455258478
 11
29.0016104285
 21
36.5172774067
  0
LINE
  5
260
100
AcDbEntity
  8
0
100
AcDbLine
 62
7
  6
BYLAYER
 10
29.0016104285
 20
35.8950749755
 11
29.0016104285
 21
35.3475623875
  0
LINE
  5
261
100
AcDbEntity
  8
0
100
AcDbLine
 62
7
  6
BYLAYER
 10
43.0754637057
 20
40.4908643942
 11
52.8754637057
 21
40.4908643942
  0
LINE
  5
262
100
AcDbEntity
  8
0
100
AcDbLine
 62
7
  6
BYLAYER
 10
27.4754637057
 20
42.1965441176
 11
35.0372559404
 21
42.1965441176
  0
LINE
  5
263
100
AcDbEntity
  8
0
100
AcDbLine
 62
7
  6
BYLAYER
 10
27.2754637057
 20
41.1965441176
 11
29.0016104285
 21
41.0455258478
  0
LINE
  5
264
100
AcDbEntity
  8
0
100
AcDbLine
 62
7
  6
BYLAYER
 10
29.2754637057
 20
60.7466674384
 11
29.2754637057
 21
55.6464207969
  0
LINE
  5
265
100
AcDbEntity
  8
0
100
AcDbLine
 62
7
  6
BYLAYER
 10
29.2754637057
 20
40.7466674384
 11
29.2754637057
 21
35.6464207969
  0
LINE
  5
266
100
AcDbEntity
  8
0
100
AcDbLine
 62
7
  6
BYLAYER
 10
18.1754637057
 20
42.6641226611
 11
18.7754637057
 21
42.6641226611
  0
LINE
  5
267
100
AcDbEntity
  8
0
100
AcDbLine
 62
7
  6
BYLAYER
 10
53.0754637057
 20
43.9161703022
 11
58.0887586009
 21
43.9161703022
  0
LINE
  5
268
100
AcDbEntity
  8
0
100
AcDbLine
 62
7
  6
BYLAYER
 10
18.2754637057
 20
36.6965441176
 11
18.4754637057
 21
36.8965441176
  0
LINE
  5
269
100
AcDbEntity
  8
0
100
AcDbLine
 62
7
  6
BYLAYER
 10
18.2754637057
 20
59.6965441176
 11
18.4754637057
 21
59.4965441176
  0
LINE
  5
26A
100
AcDbEntity
  8
0
100
AcDbLine
 62
7
  6
BYLAYER
 10
33.7754637057
 20
60.1965441176
 11
33.7754637057
 21
58.5888489631
  0
LINE
  5
26B
100
AcDbEntity
  8
0
100
AcDbLine
 62
7
  6
BYLAYER
 10
33.7754637057
 20
54.1965441176
 11
33.7754637057
 21
42.1965441176
  0
LINE
  5
26C
100
AcDbEntity
  8
0
100
AcDbLine
 62
7
  6
BYLAYER
 10
33.7754637057
 20
37.8042392722
 11
33.7754637057
 21
36.1965441176
  0
LINE
  5
26D
100
AcDbEntity
  8
0
100
AcDbLine
 62
7
  6
BYLAYER
 10
58.0887586009
 20
52.4769179331
 11
53.0754637057
 21
52.4769179331
  0
LINE
  5
26E
100
AcDbEntity
  8
0
100
AcDbLine
 62
7
  6
BYLAYER
 10
40.4636922733
 20
58.4044386742
 11
40.4636922733
 21
55.8353117987
  0
LINE
  5
26F
100
AcDbEntity
  8
0
100
AcDbLine
 62
7
  6
BYLAYER
 10
40.4636922733
 20
54.9678320004
 11
40.4636922733
 21
41.4252562349
  0
LINE
  5
270
100
AcDbEntity
  8
0
100
AcDbLine
 62
7
  6
BYLAYER
 10
40.4636922733
 20
40.5577764365
 11
40.4636922733
 21
37.9886495611
  0
LINE
  5
271
100
AcDbEntity
  8
0
100
AcDbLine
 62
7
  6
BYLAYER
 10
18.7754637057
 20
53.7289655742
 11
18.1754637057
 21
53.7289655742
  0
LINE
  5
272
100
AcDbEntity
  8
0
100
AcDbLine
 62
7
  6
BYLAYER
 10
27.4754637057
 20
54.1965441176
 11
35.0372559404
 21
54.1965441176
  0
LINE
  5
273
100
AcDbEntity
  8
0
100
AcDbLine
 62
7
  6
BYLAYER
 10
41.5754637057
 20
56.9555351478
 11
41.5754637057
 21
39.4375500806
  0
LINE
  5
274
100
AcDbEntity
  8
0
100
AcDbLine
 62
7
  6
BYLAYER
 10
43.0754637057
 20
56.1965416121
 11
43.0754637057
 21
55.9022238411
  0
LINE
  5
275
100
AcDbEntity
  8
0
100
AcDbLine
 62
7
  6
BYLAYER
 10
43.0754637057
 20
40.4908643942
 11
43.0754637057
 21
40.1965466232
  0
LINE
  5
276
100
AcDbEntity
  8
0
100
AcDbLine
 62
7
  6
BYLAYER
 10
27.2754637057
 20
55.1965441176
 11
29.0016104285
 21
55.3475623875
  0
LINE
  5
277
100
AcDbEntity
  8
0
100
AcDbLine
 62
7
  6
BYLAYER
 10
12.7488748392
 20
55.05548911
 11
17.7754637057
 21
55.1176041188
  0
LINE
  5
278
100
AcDbEntity
  8
0
100
AcDbLine
 62
7
  6
BYLAYER
 10
17.7754637057
 20
55.8247109
 11
12.7488748392
 21
55.7625958911
  0
LINE
  5
279
100
AcDbEntity
  8
0
100
AcDbLine
 62
7
  6
BYLAYER
 10
18.1754637057
 20
55.1176041188
 11
17.7754637057
 21
55.1176041188
  0
LINE
  5
27A
100
AcDbEntity
  8
0
100
AcDbLine
 62
7
  6
BYLAYER
 10
18.1754637057
 20
55.2590254751
 11
11.4240933802
 21
55.2590254751
  0
LINE
  5
27B
100
AcDbEntity
  8
0
100
AcDbLine
 62
7
  6
BYLAYER
 10
17.7754637057
 20
55.8247109
 11
18.1754637057
 21
55.8247109
  0
LINE
  5
27C
100
AcDbEntity
  8
0
100
AcDbLine
 62
7
  6
BYLAYER
 10
52.8754637057
 20
55.9022238411
 11
43.0754637057
 21
55.9022238411
  0
LINE
  5
27D
100
AcDbEntity
  8
0
100
AcDbLine
 62
7
  6
BYLAYER
 10
41.5754637057
 20
56.1965441176
 11
43.0754637057
 21
56.1965441176
  0
LINE
  5
27E
100
AcDbEntity
  8
0
100
AcDbLine
 62
7
  6
BYLAYER
 10
13.4754637057
 20
56.6965441176
 11
18.1754637057
 21
56.6965441176
  0
LINE
  5
27F
100
AcDbEntity
  8
0
100
AcDbLine
 62
7
  6
BYLAYER
 10
18.1754637057
 20
57.6789060274
 11
18.7754637057
 21
57.6789060274
  0
LINE
  5
280
100
AcDbEntity
  8
0
100
AcDbLine
 62
7
  6
BYLAYER
 10
35.0372559404
 20
58.1965441176
 11
29.2754637057
 21
58.1965441176
  0
LINE
  5
281
100
AcDbEntity
  8
0
100
AcDbLine
 62
7
  6
BYLAYER
 10
12.7488748392
 20
58.4088046826
 11
13.2754637057
 21
58.4179963255
  0
LINE
  5
282
100
AcDbEntity
  8
0
100
AcDbLine
 62
7
  6
BYLAYER
 10
29.2754637057
 20
58.5888489631
 11
33.7754637057
 21
58.5888489631
  0
LINE
  5
283
100
AcDbEntity
  8
0
100
AcDbLine
 62
7
  6
BYLAYER
 10
18.7754637057
 20
58.977225092
 11
18.1754637057
 21
58.977225092
  0
LINE
  5
284
100
AcDbEntity
  8
0
100
AcDbLine
 62
7
  6
BYLAYER
 10
18.4754637057
 20
59.4965441176
 11
18.7754637057
 21
59.4965441176
  0
LINE
  5
285
100
AcDbEntity
  8
0
100
AcDbLine
 62
7
  6
BYLAYER
 10
13.4754637057
 20
59.6965441176
 11
18.2754637057
 21
59.6965441176
  0
LINE
  5
286
100
AcDbEntity
  8
0
100
AcDbLine
 62
7
  6
BYLAYER
 10
18.1754637057
 20
60.0378852637
 11
18.7754637057
 21
60.0378852637
  0
LINE
  5
287
100
AcDbEntity
  8
0
100
AcDbLine
 62
7
  6
BYLAYER
 10
18.1754637057
 20
60.1965441176
 11
18.7754637057
 21
60.1965441176
  0
LINE
  5
288
100
AcDbEntity
  8
0
100
AcDbLine
 62
7
  6
BYLAYER
 10
29.2754637057
 20
60.1965441176
 11
33.7754637057
 21
60.1965441176
  0
LINE
  5
289
100
AcDbEntity
  8
0
100
AcDbLine
 62
7
  6
BYLAYER
 10
18.7754637057
 20
59.8349356996
 11
18.1754637057
 21
59.8431457526
  0
LINE
  5
28A
100
AcDbEntity
  8
0
100
AcDbLine
 62
7
  6
BYLAYER
 10
27.2754637057
 20
61.1965441176
 11
29.0016104285
 21
61.0455258478
  0
LINE
  5
28B
100
AcDbEntity
  8
0
100
AcDbLine
 62
7
  6
BYLAYER
 10
40.4636922733
 20
58.4044386742
 11
33.7754637057
 21
60.1965441176
  0
LINE
  5
28C
100
AcDbEntity
  8
0
100
AcDbLine
 62
7
  6
BYLAYER
 10
20.7754637057
 20
60.5573361537
 11
18.7754637057
 21
60.5224260238
  0
LINE
  5
28D
100
AcDbEntity
  8
0
100
AcDbLine
 62
7
  6
BYLAYER
 10
25.2754637057
 20
60.996650731
 11
20.7754637057
 21
60.9181029389
  0
LINE
  5
28E
100
AcDbEntity
  8
0
100
AcDbLine
 62
7
  6
BYLAYER
 10
18.7754637057
 20
61.5830861956
 11
25.2754637057
 21
61.6965441176
  0
LINE
  5
28F
100
AcDbEntity
  8
0
100
AcDbLine
 62
7
  6
BYLAYER
 10
25.2754637057
 20
60.9465441176
 11
27.2754637057
 21
60.9465441176
  0
LINE
  5
290
100
AcDbEntity
  8
0
100
AcDbLine
 62
7
  6
BYLAYER
 10
25.2754637057
 20
61.6465441176
 11
28.2754637057
 21
61.6465441176
  0
LINE
  5
291
100
AcDbEntity
  8
0
100
AcDbLine
 62
7
  6
BYLAYER
 10
12.5076010425
 20
58.3418935369
 11
12.7488748392
 21
58.4088046826
  0
LINE
  5
292
100
AcDbEntity
  8
0
100
AcDbLine
 62
7
  6
BYLAYER
 10
52.8754637057
 20
55.9022238411
 11
52.8754637057
 21
40.4908643942
  0
LINE
  5
293
100
AcDbEntity
  8
0
100
AcDbLine
 62
7
  6
BYLAYER
 10
53.0754637057
 20
55.6943691461
 11
53.0754637057
 21
40.6987144497
  0
LINE
  5
294
100
AcDbEntity
  8
0
100
AcDbLine
 62
7
  6
BYLAYER
 10
58.0887586009
 20
52.4769179331
 11
58.0887586009
 21
48.7071387197
  0
LINE
  5
295
100
AcDbEntity
  8
0
100
AcDbLine
 62
7
  6
BYLAYER
 10
58.0887586009
 20
47.6859495156
 11
58.0887586009
 21
43.9161703022
  0
ARC
  5
296
100
AcDbEntity
  8
0
100
AcDbCircle
 62
7
  6
BYLAYER
 10
-105.339462677
 20
-391.0796862974
 40
470.696031793
100
AcDbArc
 50
72.648543439
 51
72.8093882984
  0
ARC
  5
297
100
AcDbEntity
  8
0
100
AcDbCircle
 62
7
  6
BYLAYER
 10
-105.3394626766
 20
487.4727745316
 40
470.6960317919
100
AcDbArc
 50
287.1906117016
 51
287.351456561
  0
ARC
  5
298
100
AcDbEntity
  8
0
100
AcDbCircle
 62
7
  6
BYLAYER
 10
55.4754637057
 20
48.1965441176
 40
6.472499726
100
AcDbArc
 50
248.0354891758
 51
111.9645108242
  0
ARC
  5
299
100
AcDbEntity
  8
0
100
AcDbCircle
 62
7
  6
BYLAYER
 10
55.4754637057
 20
48.1965441176
 40
6.2224992202
100
AcDbArc
 50
247.1085627097
 51
112.8914245658
  0
ARC
  5
29A
100
AcDbEntity
  8
0
100
AcDbCircle
 62
7
  6
BYLAYER
 10
54.4754637057
 20
48.1965441176
 40
5.6015622821
100
AcDbArc
 50
310.1695200441
 51
49.8304799559
  0
ARC
  5
29B
100
AcDbEntity
  8
0
100
AcDbCircle
 62
7
  6
BYLAYER
 10
55.1168665933
 20
48.1965342963
 40
3.0154367813
100
AcDbArc
 50
350.2511239763
 51
9.7488760294
  0
CIRCLE
  5
29C
100
AcDbEntity
  8
0
100
AcDbCircle
 62
7
  6
BYLAYER
 10
55.4754637057
 20
48.1965441176
 40
2.0
  0
ARC
  5
29D
100
AcDbEntity
  8
0
100
AcDbCircle
 62
7
  6
BYLAYER
 10
40.0754637057
 20
39.4375383006
 40
1.5
100
AcDbArc
 50
285.0
 51
360.0
  0
ARC
  5
29E
100
AcDbEntity
  8
0
100
AcDbCircle
 62
7
  6
BYLAYER
 10
40.0754637057
 20
56.9555499347
 40
1.5
100
AcDbArc
 50
0.0
 51
75.0
  0
CIRCLE
  5
29F
100
AcDbEntity
  8
0
100
AcDbCircle
 62
7
  6
BYLAYER
 10
55.4754637057
 20
48.1965441176
 40
0.9
  0
ARC
  5
2A0
100
AcDbEntity
  8
0
100
AcDbCircle
 62
7
  6
BYLAYER
 10
11.7754637057
 20
57.3418435793
 40
0.5
100
AcDbArc
 50
120.0
 51
180.0
  0
ARC
  5
2A1
100
AcDbEntity
  8
0
100
AcDbCircle
 62
7
  6
BYLAYER
 10
11.7754637057
 20
39.051244656
 40
0.5
100
AcDbArc
 50
180.0
 51
240.0
  0
ARC
  5
2A2
100
AcDbEntity
  8
0
100
AcDbCircle
 62
7
  6
BYLAYER
 10
28.2754637057
 20
61.1465441176
 40
0.5
100
AcDbArc
 50
0.0
 51
90.0
  0
ARC
  5
2A3
100
AcDbEntity
  8
0
100
AcDbCircle
 62
7
  6
BYLAYER
 10
28.2754637057
 20
35.2465441176
 40
0.5
100
AcDbArc
 50
270.0
 51
360.0
  0
ARC
  5
2A4
100
AcDbEntity
  8
0
100
AcDbCircle
 62
7
  6
BYLAYER
 10
28.9754637057
 20
55.6464207969
 40
0.3
100
AcDbArc
 50
275.0
 51
360.0
  0
ARC
  5
2A5
100
AcDbEntity
  8
0
100
AcDbCircle
 62
7
  6
BYLAYER
 10
28.9754637057
 20
60.7466674384
 40
0.3
100
AcDbArc
 50
0.0
 51
85.0
  0
ARC
  5
2A6
100
AcDbEntity
  8
0
100
AcDbCircle
 62
7
  6
BYLAYER
 10
28.9754637057
 20
35.6464207969
 40
0.3
100
AcDbArc
 50
275.0
 51
360.0
  0
ARC
  5
2A7
100
AcDbEntity
  8
0
100
AcDbCircle
 62
7
  6
BYLAYER
 10
28.9754637057
 20
40.7466674384
 40
0.3
100
AcDbArc
 50
0.0
 51
85.0
  0
ARC
  5
2A8
100
AcDbEntity
  8
0
100
AcDbCircle
 62
7
  6
BYLAYER
 10
27.4754637057
 20
54.3965441176
 40
0.2
100
AcDbArc
 50
180.0
 51
270.0
  0
ARC
  5
2A9
100
AcDbEntity
  8
0
100
AcDbCircle
 62
7
  6
BYLAYER
 10
27.4754637057
 20
41.9965441176
 40
0.2
100
AcDbArc
 50
90.0
 51
180.0
  0
LINE
  5
2AA
100
AcDbEntity
  8
0
100
AcDbLine
 62
7
  6
BYLAYER
 10
28.4754637057
 20
56.473122921
 11
29.0016104285
 21
56.5172774067
  0
SPLINE
  5
2AB
100
AcDbEntity
  8
0
100
AcDbSpline
 62
7
  6
BYLAYER
 70
0
 71
3
 72
13
 73
9
 74
0
 42
0.0000001
 43
0.0000001
 44
0.0000000001
 40
0.0
 40
0.0
 40
0.0
 40
0.0
 40
0.2869642557
 40
0.5521411653
 40
0.673778932
 40
0.7878395383
 40
0.8957996109
 40
1.0
 40
1.0
 40
1.0
 40
1.0
 10
29.0016104285
 20
56.5172774067
 30
0.0
 10
29.0380966167
 20
56.5203431715
 30
0.0
 10
29.1078884444
 20
56.5353857582
 30
0.0
 10
29.1848670588
 20
56.5770883821
 30
0.0
 10
29.2312069361
 20
56.6216120662
 30
0.0
 10
29.2563546624
 20
56.6579471696
 30
0.0
 10
29.2719009842
 20
56.6969617665
 30
0.0
 10
29.2754637057
 20
56.7241462157
 30
0.0
 10
29.2754637057
 20
56.737441504
 30
0.0
  0
LINE
  5
2AC
100
AcDbEntity
  8
0
100
AcDbLine
 62
7
  6
BYLAYER
 10
29.0016104285
 20
55.8950749755
 11
28.4754637057
 21
55.8704050107
  0
SPLINE
  5
2AD
100
AcDbEntity
  8
0
100
AcDbSpline
 62
7
  6
BYLAYER
 70
0
 71
3
 72
14
 73
10
 74
0
 42
0.0000001
 43
0.0000001
 44
0.0000000001
 40
0.0
 40
0.0
 40
0.0
 40
0.0
 40
0.1048995872
 40
0.2127236991
 40
0.3261106281
 40
0.4468884979
 40
0.5756408254
 40
0.7118594986
 40
1.0
 40
1.0
 40
1.0
 40
1.0
 10
29.2754637057
 20
56.1050976053
 30
0.0
 10
29.2754637057
 20
56.0918645282
 30
0.0
 10
29.2719459582
 20
56.0649082865
 30
0.0
 10
29.2564056081
 20
56.0263937183
 30
0.0
 10
29.2312247012
 20
55.99092502
 30
0.0
 10
29.197391417
 20
55.9596592745
 30
0.0
 10
29.1560132457
 20
55.9335727717
 30
0.0
 10
29.0915507401
 20
55.9063125118
 30
0.0
 10
29.0379192679
 20
55.8967812319
 30
0.0
 10
29.0016104285
 20
55.8950749755
 30
0.0
  0
LINE
  5
2AE
100
AcDbEntity
  8
0
100
AcDbLine
 62
7
  6
BYLAYER
 10
28.4754637057
 20
36.473122921
 11
29.0016104285
 21
36.5172774067
  0
SPLINE
  5
2AF
100
AcDbEntity
  8
0
100
AcDbSpline
 62
7
  6
BYLAYER
 70
0
 71
3
 72
13
 73
9
 74
0
 42
0.0000001
 43
0.0000001
 44
0.0000000001
 40
0.0
 40
0.0
 40
0.0
 40
0.0
 40
0.2869642557
 40
0.5521411653
 40
0.673778932
 40
0.7878395383
 40
0.8957996109
 40
1.0
 40
1.0
 40
1.0
 40
1.0
 10
29.0016104285
 20
36.5172774067
 30
0.0
 10
29.0380966167
 20
36.5203431715
 30
0.0
 10
29.1078884444
 20
36.5353857582
 30
0.0
 10
29.1848670588
 20
36.5770883821
 30
0.0
 10
29.2312069361
 20
36.6216120662
 30
0.0
 10
29.2563546624
 20
36.6579471696
 30
0.0
 10
29.2719009842
 20
36.6969617665
 30
0.0
 10
29.2754637057
 20
36.7241462157
 30
0.0
 10
29.2754637057
 20
36.737441504
 30
0.0
  0
LINE
  5
2B0
100
AcDbEntity
  8
0
100
AcDbLine
 62
7
  6
BYLAYER
 10
29.0016104285
 20
35.8950749755
 11
28.4754637057
 21
35.8704050107
  0
SPLINE
  5
2B1
100
AcDbEntity
  8
0
100
AcDbSpline
 62
7
  6
BYLAYER
 70
0
 71
3
 72
14
 73
10
 74
0
 42
0.0000001
 43
0.0000001
 44
0.0000000001
 40
0.0
 40
0.0
 40
0.0
 40
0.0
 40
0.1048995872
 40
0.2127236991
 40
0.3261106281
 40
0.4468884979
 40
0.5756408254
 40
0.7118594986
 40
1.0
 40
1.0
 40
1.0
 40
1.0
 10
29.2754637057
 20
36.1050976053
 30
0.0
 10
29.2754637057
 20
36.0918645282
 30
0.0
 10
29.2719459582
 20
36.0649082865
 30
0.0
 10
29.2564056081
 20
36.0263937183
 30
0.0
 10
29.2312247012
 20
35.99092502
 30
0.0
 10
29.197391417
 20
35.9596592745
 30
0.0
 10
29.1560132457
 20
35.9335727717
 30
0.0
 10
29.0915507401
 20
35.9063125118
 30
0.0
 10
29.0379192679
 20
35.8967812319
 30
0.0
 10
29.0016104285
 20
35.8950749755
 30
0.0
  0
SPLINE
  5
2B2
100
AcDbEntity
  8
0
100
AcDbSpline
 62
7
  6
BYLAYER
 70
0
 71
3
 72
19
 73
15
 74
0
 42
0.0000001
 43
0.0000001
 44
0.0000000001
 40
0.0
 40
0.0
 40
0.0
 40
0.0
 40
0.0627583353
 40
0.1250835556
 40
0.1871345564
 40
0.2491463508
 40
0.3736068009
 40
0.4995237555
 40
0.6259773965
 40
0.7514333618
 40
0.8137277918
 40
0.8757783448
 40
0.9377895433
 40
1.0
 40
1.0
 40
1.0
 40
1.0
 10
58.0887586009
 20
48.7071387197
 30
0.0
 10
58.0516277537
 20
48.8290321253
 30
0.0
 10
57.9515667788
 20
49.0647333169
 30
0.0
 10
57.7376851984
 20
49.3811357062
 30
0.0
 10
57.4741502645
 20
49.6551300817
 30
0.0
 10
57.0715844909
 20
49.961978368
 30
0.0
 10
56.4910998483
 20
50.2367569227
 30
0.0
 10
55.7336878627
 20
50.386850145
 30
0.0
 10
54.9602480927
 20
50.3567811306
 30
0.0
 10
54.3397238224
 20
50.1809177201
 30
0.0
 10
53.8858054246
 20
49.9518466747
 30
0.0
 10
53.5731741056
 20
49.7363561247
 30
0.0
 10
53.2959148711
 20
49.477040796
 30
0.0
 10
53.1416461855
 20
49.2755468574
 30
0.0
 10
53.0744385012
 20
49.1686002594
 30
0.0
  0
SPLINE
  5
2B3
100
AcDbEntity
  8
0
100
AcDbSpline
 62
7
  6
BYLAYER
 70
0
 71
3
 72
19
 73
15
 74
0
 42
0.0000001
 43
0.0000001
 44
0.0000000001
 40
0.0
 40
0.0
 40
0.0
 40
0.0
 40
0.0622104297
 40
0.1242216439
 40
0.1862722354
 40
0.2485667011
 40
0.3740227217
 40
0.5004763755
 40
0.6263933359
 40
0.7508537047
 40
0.8128654629
 40
0.8749164635
 40
0.9372416914
 40
1.0
 40
1.0
 40
1.0
 40
1.0
 10
53.0744524433
 20
47.2244657897
 30
0.0
 10
53.1416611695
 20
47.1175205493
 30
0.0
 10
53.2959315241
 20
46.9160293307
 30
0.0
 10
53.5731921035
 20
46.6567177824
 30
0.0
 10
53.8858240068
 20
46.441230656
 30
0.0
 10
54.3397423272
 20
46.2121637448
 30
0.0
 10
54.9602650973
 20
46.0363046766
 30
0.0
 10
55.7337017954
 20
46.006239441
 30
0.0
 10
56.4911097999
 20
46.1563348563
 30
0.0
 10
57.0715908828
 20
46.431113853
 30
0.0
 10
57.4741540235
 20
46.7379616096
 30
0.0
 10
57.7376872902
 20
47.0119552364
 30
0.0
 10
57.9515675279
 20
47.3283565004
 30
0.0
 10
58.0516279283
 20
47.5640566831
 30
0.0
 10
58.0887586009
 20
47.6859495156
 30
0.0
  0
LINE
  5
2B4
100
AcDbEntity
  8
0
100
AcDbLine
 62
7
  6
BYLAYER
 10
8.3386396169
 20
41.4688963828
 11
11.2754637057
 21
41.1003551414
  0
LINE
  5
2B5
100
AcDbEntity
  8
0
100
AcDbLine
 62
7
  6
BYLAYER
 10
11.2754637057
 20
55.2927330939
 11
8.3386396169
 21
54.9241918525
  0
SPLINE
  5
2B6
100
AcDbEntity
  8
0
100
AcDbSpline
 62
7
  6
BYLAYER
 70
0
 71
3
 72
13
 73
9
 74
0
 42
0.0000001
 43
0.0000001
 44
0.0000000001
 40
0.0
 40
0.0
 40
0.0
 40
0.0
 40
0.2873746976
 40
0.5508634183
 40
0.671877317
 40
0.785881299
 40
0.8945201484
 40
1.0
 40
1.0
 40
1.0
 40
1.0
 10
8.3386396169
 20
54.9241918525
 30
0.0
 10
8.282707512
 20
54.9171701916
 30
0.0
 10
8.1765893914
 20
54.8905941827
 30
0.0
 10
8.0604455918
 20
54.8234654002
 30
0.0
 10
7.9912057321
 20
54.7536674389
 30
0.0
 10
7.9537549083
 20
54.6970080214
 30
0.0
 10
7.9307191949
 20
54.6363255935
 30
0.0
 10
7.9254637057
 20
54.5941598375
 30
0.0
 10
7.9254637057
 20
54.5734690173
 30
0.0
  0
SPLINE
  5
2B7
100
AcDbEntity
  8
0
100
AcDbSpline
 62
7
  6
BYLAYER
 70
0
 71
3
 72
13
 73
9
 74
0
 42
0.0000001
 43
0.0000001
 44
0.0000000001
 40
0.0
 40
0.0
 40
0.0
 40
0.0
 40
0.1054788483
 40
0.2141163853
 40
0.3281209058
 40
0.4491362507
 40
0.7126277966
 40
1.0
 40
1.0
 40
1.0
 40
1.0
 10
7.9254637057
 20
41.819619795
 30
0.0
 10
7.9254637057
 20
41.7989291519
 30
0.0
 10
7.9307185345
 20
41.7567637253
 30
0.0
 10
7.9537544583
 20
41.6960816616
 30
0.0
 10
7.9912048258
 20
41.6394217558
 30
0.0
 10
8.0604453717
 20
41.569622921
 30
0.0
 10
8.1765896941
 20
41.5024940565
 30
0.0
 10
8.2827079444
 20
41.4759179894
 30
0.0
 10
8.3386396169
 20
41.4688963828
 30
0.0
  0
SPLINE
  5
2B8
100
AcDbEntity
  8
0
100
AcDbSpline
 62
7
  6
BYLAYER
 70
0
 71
3
 72
9
 73
5
 74
0
 42
0.0000001
 43
0.0000001
 44
0.0000000001
 40
0.0
 40
0.0
 40
0.0
 40
0.0
 40
0.257125657
 40
1.0
 40
1.0
 40
1.0
 40
1.0
 10
11.5254637057
 20
54.6066459482
 30
0.0
 10
11.5163139437
 20
54.6029054737
 30
0.0
 10
11.4811121203
 20
54.5874516101
 30
0.0
 10
11.4474958844
 20
54.5682869578
 30
0.0
 10
11.4240933802
 20
54.5519186939
 30
0.0
  0
LINE
  5
2B9
100
AcDbEntity
  8
0
100
AcDbLine
 62
7
  6
BYLAYER
 10
12.5076010425
 20
55.0081185989
 11
11.5254637057
 21
54.6066459482
  0
SPLINE
  5
2BA
100
AcDbEntity
  8
0
100
AcDbSpline
 62
7
  6
BYLAYER
 70
0
 71
3
 72
9
 73
5
 74
0
 42
0.0000001
 43
0.0000001
 44
0.0000000001
 40
0.0
 40
0.0
 40
0.0
 40
0.0
 40
0.2558967341
 40
1.0
 40
1.0
 40
1.0
 40
1.0
 10
12.7488748392
 20
55.05548911
 30
0.0
 10
12.7278357722
 20
55.0552291215
 30
0.0
 10
12.6457341388
 20
55.0505511571
 30
0.0
 10
12.5642352974
 20
55.0312675668
 30
0.0
 10
12.5076010425
 20
55.0081185989
 30
0.0
  0
SPLINE
  5
2BB
100
AcDbEntity
  8
0
100
AcDbSpline
 62
7
  6
BYLAYER
 70
0
 71
3
 72
9
 73
5
 74
0
 42
0.0000001
 43
0.0000001
 44
0.0000000001
 40
0.0
 40
0.0
 40
0.0
 40
0.0
 40
0.2432887611
 40
1.0
 40
1.0
 40
1.0
 40
1.0
 10
12.5076010425
 20
55.7152253801
 30
0.0
 10
12.5261199664
 20
55.7227948974
 30
0.0
 10
12.6038223291
 20
55.74995337
 30
0.0
 10
12.6866534592
 20
55.7618269957
 30
0.0
 10
12.7488748392
 20
55.7625958911
 30
0.0
  0
LINE
  5
2BC
100
AcDbEntity
  8
0
100
AcDbLine
 62
7
  6
BYLAYER
 10
11.5254637057
 20
55.3137527294
 11
12.5076010425
 21
55.7152253801
  0
LINE
  5
2BD
100
AcDbEntity
  8
0
100
AcDbLine
 62
7
  6
BYLAYER
 10
11.2754637057
 20
42.5145687038
 11
8.3386396169
 21
42.8831099452
  0
LINE
  5
2BE
100
AcDbEntity
  8
0
100
AcDbLine
 62
7
  6
BYLAYER
 10
8.3386396169
 20
53.5099782901
 11
11.2754637057
 21
53.8785195315
  0
SPLINE
  5
2BF
100
AcDbEntity
  8
0
100
AcDbSpline
 62
7
  6
BYLAYER
 70
0
 71
3
 72
13
 73
9
 74
0
 42
0.0000001
 43
0.0000001
 44
0.0000000001
 40
0.0
 40
0.0
 40
0.0
 40
0.0
 40
0.1054788483
 40
0.2141163853
 40
0.3281209058
 40
0.4491362507
 40
0.7126277966
 40
1.0
 40
1.0
 40
1.0
 40
1.0
 10
7.9254637057
 20
53.1592548779
 30
0.0
 10
7.9254637057
 20
53.179945521
 30
0.0
 10
7.9307185345
 20
53.2221109477
 30
0.0
 10
7.9537544583
 20
53.2827930114
 30
0.0
 10
7.9912048258
 20
53.3394529171
 30
0.0
 10
8.0604453717
 20
53.4092517519
 30
0.0
 10
8.1765896941
 20
53.4763806164
 30
0.0
 10
8.2827079444
 20
53.5029566835
 30
0.0
 10
8.3386396169
 20
53.5099782901
 30
0.0
  0
SPLINE
  5
2C0
100
AcDbEntity
  8
0
100
AcDbSpline
 62
7
  6
BYLAYER
 70
0
 71
3
 72
13
 73
9
 74
0
 42
0.0000001
 43
0.0000001
 44
0.0000000001
 40
0.0
 40
0.0
 40
0.0
 40
0.0
 40
0.1055349592
 40
0.2142067083
 40
0.3282054686
 40
0.4491787202
 40
0.7125765864
 40
1.0
 40
1.0
 40
1.0
 40
1.0
 10
11.2754637057
 20
52.3242789997
 30
0.0
 10
11.2754637057
 20
52.3035429861
 30
0.0
 10
11.2702166116
 20
52.2612913594
 30
0.0
 10
11.2472289846
 20
52.2004631046
 30
0.0
 10
11.2098541295
 20
52.1436255636
 30
0.0
 10
11.1407194612
 20
52.0735343398
 30
0.0
 10
11.0245815144
 20
52.0059691196
 30
0.0
 10
10.9183175408
 20
51.9791811012
 30
0.0
 10
10.8622877945
 20
51.9721088204
 30
0.0
  0
SPLINE
  5
2C1
100
AcDbEntity
  8
0
100
AcDbSpline
 62
7
  6
BYLAYER
 70
0
 71
3
 72
13
 73
9
 74
0
 42
0.0000001
 43
0.0000001
 44
0.0000000001
 40
0.0
 40
0.0
 40
0.0
 40
0.0
 40
0.2874263583
 40
0.5508198744
 40
0.6717910351
 40
0.7857892526
 40
0.8944632824
 40
1.0
 40
1.0
 40
1.0
 40
1.0
 10
10.8622877945
 20
44.4209794149
 30
0.0
 10
10.918318286
 20
44.4139070401
 30
0.0
 10
11.0245823577
 20
44.3871189997
 30
0.0
 10
11.1407198475
 20
44.3195535383
 30
0.0
 10
11.2098536295
 20
44.2494630951
 30
0.0
 10
11.2472292722
 20
44.1926257997
 30
0.0
 10
11.2702159983
 20
44.1317962512
 30
0.0
 10
11.2754637057
 20
44.0895438269
 30
0.0
 10
11.2754637057
 20
44.0688074045
 30
0.0
  0
LINE
  5
2C2
100
AcDbEntity
  8
0
100
AcDbLine
 62
7
  6
BYLAYER
 10
10.8622877945
 20
51.9721088204
 11
8.3386396169
 21
51.6532688432
  0
LINE
  5
2C3
100
AcDbEntity
  8
0
100
AcDbLine
 62
7
  6
BYLAYER
 10
8.3386396169
 20
44.7398193921
 11
10.8622877945
 21
44.4209794149
  0
SPLINE
  5
2C4
100
AcDbEntity
  8
0
100
AcDbSpline
 62
7
  6
BYLAYER
 70
0
 71
3
 72
13
 73
9
 74
0
 42
0.0000001
 43
0.0000001
 44
0.0000000001
 40
0.0
 40
0.0
 40
0.0
 40
0.0
 40
0.2875236546
 40
0.5508558754
 40
0.6717679874
 40
0.7857276147
 40
0.894410396
 40
1.0
 40
1.0
 40
1.0
 40
1.0
 10
8.3386396169
 20
51.6532688432
 30
0.0
 10
8.2824818083
 20
51.6461667285
 30
0.0
 10
8.176007978
 20
51.6192430935
 30
0.0
 10
8.0597760408
 20
51.551282075
 30
0.0
 10
7.9907546101
 20
51.4808498987
 30
0.0
 10
7.9535153286
 20
51.4237851728
 30
0.0
 10
7.9306653586
 20
51.3627678548
 30
0.0
 10
7.9254637057
 20
51.3204220745
 30
0.0
 10
7.9254637057
 20
51.2996345254
 30
0.0
  0
SPLINE
  5
2C5
100
AcDbEntity
  8
0
100
AcDbSpline
 62
7
  6
BYLAYER
 70
0
 71
3
 72
13
 73
9
 74
0
 42
0.0000001
 43
0.0000001
 44
0.0000000001
 40
0.0
 40
0.0
 40
0.0
 40
0.0
 40
0.1055878928
 40
0.2142675287
 40
0.3282281071
 40
0.4491431738
 40
0.7124813758
 40
1.0
 40
1.0
 40
1.0
 40
1.0
 10
7.9254637057
 20
45.0934659277
 30
0.0
 10
7.9254637057
 20
45.0726782947
 30
0.0
 10
7.9306621951
 20
45.0303324063
 30
0.0
 10
7.9535099884
 20
44.9693134836
 30
0.0
 10
7.9907480131
 20
44.9122461105
 30
0.0
 10
8.0597708483
 20
44.8418096204
 30
0.0
 10
8.176005574
 20
44.7738460295
 30
0.0
 10
8.2824816543
 20
44.7469215263
 30
0.0
 10
8.3386396169
 20
44.7398193921
 30
0.0
  0
SPLINE
  5
2C6
100
AcDbEntity
  8
0
100
AcDbSpline
 62
7
  6
BYLAYER
 70
0
 71
3
 72
9
 73
5
 74
0
 42
0.0000001
 43
0.0000001
 44
0.0000000001
 40
0.0
 40
0.0
 40
0.0
 40
0.0
 40
0.2429922929
 40
1.0
 40
1.0
 40
1.0
 40
1.0
 10
11.4240933802
 20
55.2590254751
 30
0.0
 10
11.4317486101
 20
55.2643797236
 30
0.0
 10
11.4639171806
 20
55.2854572229
 30
0.0
 10
11.4985245829
 20
55.3027398635
 30
0.0
 10
11.5254637057
 20
55.3137527294
 30
0.0
  0
SPLINE
  5
2C7
100
AcDbEntity
  8
0
100
AcDbSpline
 62
7
  6
BYLAYER
 70
0
 71
3
 72
9
 73
5
 74
0
 42
0.0000001
 43
0.0000001
 44
0.0000000001
 40
0.0
 40
0.0
 40
0.0
 40
0.0
 40
0.4999999319
 40
1.0
 40
1.0
 40
1.0
 40
1.0
 10
11.4240933802
 20
54.5519186939
 30
0.0
 10
11.4152329901
 20
54.6695143419
 30
0.0
 10
11.4072461392
 20
54.9054720683
 30
0.0
 10
11.4152329877
 20
55.141429795
 30
0.0
 10
11.4240933802
 20
55.2590254751
 30
0.0
  0
SPLINE
  5
2C8
100
AcDbEntity
  8
0
100
AcDbSpline
 62
7
  6
BYLAYER
 70
0
 71
3
 72
13
 73
9
 74
0
 42
0.0000001
 43
0.0000001
 44
0.0000000001
 40
0.0
 40
0.0
 40
0.0
 40
0.0
 40
0.2873746976
 40
0.5508634183
 40
0.671877317
 40
0.785881299
 40
0.8945201484
 40
1.0
 40
1.0
 40
1.0
 40
1.0
 10
8.3386396169
 20
42.8831099452
 30
0.0
 10
8.282707512
 20
42.8901316061
 30
0.0
 10
8.1765893914
 20
42.9167076149
 30
0.0
 10
8.0604455918
 20
42.9838363975
 30
0.0
 10
7.9912057321
 20
43.0536343588
 30
0.0
 10
7.9537549083
 20
43.1102937762
 30
0.0
 10
7.9307191949
 20
43.1709762042
 30
0.0
 10
7.9254637057
 20
43.2131419601
 30
0.0
 10
7.9254637057
 20
43.2338327804
 30
0.0
  0
SPLINE
  5
2C9
100
AcDbEntity
  8
0
100
AcDbSpline
 62
7
  6
BYLAYER
 70
0
 71
3
 72
11
 73
7
 74
0
 42
0.0000001
 43
0.0000001
 44
0.0000000001
 40
0.0
 40
0.0
 40
0.0
 40
0.0
 40
0.2499001385
 40
0.4998558063
 40
0.7499212722
 40
1.0
 40
1.0
 40
1.0
 40
1.0
 10
52.8754637057
 20
40.4908643942
 30
0.0
 10
52.9019681823
 20
40.4908643942
 30
0.0
 10
52.9556133938
 20
40.5021599523
 30
0.0
 10
53.0220988533
 20
40.5495232554
 30
0.0
 10
53.0654625995
 20
40.6184807748
 30
0.0
 10
53.0754637057
 20
40.6720481984
 30
0.0
 10
53.0754637057
 20
40.6985716162
 30
0.0
  0
SPLINE
  5
2CA
100
AcDbEntity
  8
0
100
AcDbSpline
 62
7
  6
BYLAYER
 70
0
 71
3
 72
11
 73
7
 74
0
 42
0.0000001
 43
0.0000001
 44
0.0000000001
 40
0.0
 40
0.0
 40
0.0
 40
0.0
 40
0.2500625762
 40
0.5001486246
 40
0.7501271091
 40
1.0
 40
1.0
 40
1.0
 40
1.0
 10
53.0754637057
 20
55.6944903907
 30
0.0
 10
53.0754637057
 20
55.7210142561
 30
0.0
 10
53.0654731193
 20
55.7745877973
 30
0.0
 10
53.0221077723
 20
55.8435575801
 30
0.0
 10
52.9556167053
 20
55.8909282009
 30
0.0
 10
52.9019674514
 20
55.9022238411
 30
0.0
 10
52.8754637057
 20
55.9022238411
 30
0.0
  0
SPLINE
  5
2CB
100
AcDbEntity
  8
0
100
AcDbSpline
 62
7
  6
BYLAYER
 70
0
 71
3
 72
15
 73
11
 74
0
 42
0.0000001
 43
0.0000001
 44
0.0000000001
 40
0.0
 40
0.0
 40
0.0
 40
0.0
 40
0.1238385537
 40
0.2400397825
 40
0.3543972829
 40
0.4709826219
 40
0.592393107
 40
0.7202875625
 40
0.855836515
 40
1.0
 40
1.0
 40
1.0
 40
1.0
 10
40.4636922733
 20
41.4252562349
 30
0.0
 10
40.4960422262
 20
41.4011715134
 30
0.0
 10
40.5533532808
 20
41.3464902045
 30
0.0
 10
40.614186832
 20
41.2470376071
 30
0.0
 10
40.6488093221
 20
41.1383832679
 30
0.0
 10
40.6596848968
 20
41.0233697152
 30
0.0
 10
40.6479357691
 20
40.9041068475
 30
0.0
 10
40.6130774176
 20
40.7829903342
 30
0.0
 10
40.553316635
 20
40.6636235508
 30
0.0
 10
40.4965933377
 20
40.5912705532
 30
0.0
 10
40.4636922733
 20
40.5577764365
 30
0.0
  0
SPLINE
  5
2CC
100
AcDbEntity
  8
0
100
AcDbSpline
 62
7
  6
BYLAYER
 70
0
 71
3
 72
20
 73
16
 74
0
 42
0.0000001
 43
0.0000001
 44
0.0000000001
 40
0.0
 40
0.0
 40
0.0
 40
0.0
 40
0.130044974
 40
0.2595213588
 40
0.3882740662
 40
0.5160613257
 40
0.6424786089
 40
0.7049683236
 40
0.7667899926
 40
0.8277143243
 40
0.8873733612
 40
0.916557216
 40
0.9451629961
 40
0.973041716
 40
1.0
 40
1.0
 40
1.0
 40
1.0
 10
35.0372559404
 20
54.1965441176
 30
0.0
 10
35.2771327433
 20
54.1965441176
 30
0.0
 10
35.7558516405
 20
54.2007333654
 30
0.0
 10
36.471806455
 20
54.2212790621
 30
0.0
 10
37.1829571813
 20
54.2583286849
 30
0.0
 10
37.8871568614
 20
54.3152378796
 30
0.0
 10
38.4675167797
 20
54.3836683109
 30
0.0
 10
38.9244084699
 20
54.4557640139
 30
0.0
 10
39.2600793417
 20
54.5199976266
 30
0.0
 10
39.5877025918
 20
54.597073214
 30
0.0
 10
39.8528380238
 20
54.6755921685
 30
0.0
 10
40.0562862293
 20
54.7502598501
 30
0.0
 10
40.2015679138
 20
54.8126880737
 30
0.0
 10
40.3384884558
 20
54.8832957429
 30
0.0
 10
40.4238062176
 20
54.938136608
 30
0.0
 10
40.4636922733
 20
54.9678320004
 30
0.0
  0
SPLINE
  5
2CD
100
AcDbEntity
  8
0
100
AcDbSpline
 62
7
  6
BYLAYER
 70
0
 71
3
 72
15
 73
11
 74
0
 42
0.0000001
 43
0.0000001
 44
0.0000000001
 40
0.0
 40
0.0
 40
0.0
 40
0.0
 40
0.1238381657
 40
0.2400400776
 40
0.3543973733
 40
0.4709826467
 40
0.5923929138
 40
0.7202873115
 40
0.855837333
 40
1.0
 40
1.0
 40
1.0
 40
1.0
 10
40.4636922733
 20
54.9678320004
 30
0.0
 10
40.4960421254
 20
54.9919166468
 30
0.0
 10
40.5533532473
 20
55.0465980082
 30
0.0
 10
40.6141868965
 20
55.146050606
 30
0.0
 10
40.6488093251
 20
55.2547051067
 30
0.0
 10
40.6596848931
 20
55.369718497
 30
0.0
 10
40.647935781
 20
55.4889812533
 30
0.0
 10
40.6130774468
 20
55.6100980416
 30
0.0
 10
40.553316551
 20
55.7294648655
 30
0.0
 10
40.4965931515
 20
55.8018178716
 30
0.0
 10
40.4636922733
 20
55.8353117987
 30
0.0
  0
SPLINE
  5
2CE
100
AcDbEntity
  8
0
100
AcDbSpline
 62
7
  6
BYLAYER
 70
0
 71
3
 72
19
 73
15
 74
0
 42
0.0000001
 43
0.0000001
 44
0.0000000001
 40
0.0
 40
0.0
 40
0.0
 40
0.0
 40
0.0286105137
 40
0.057985594
 40
0.1181851457
 40
0.1795707401
 40
0.2416436959
 40
0.3041462216
 40
0.3669329018
 40
0.4930317135
 40
0.6195439324
 40
0.7462741924
 40
0.8731147662
 40
1.0
 40
1.0
 40
1.0
 40
1.0
 10
40.4636922733
 20
55.8353117987
 30
0.0
 10
40.4239083907
 20
55.8758127988
 30
0.0
 10
40.3389837482
 20
55.9537148211
 30
0.0
 10
40.1549294742
 20
56.0992496595
 30
0.0
 10
39.9052958758
 20
56.2656114145
 30
0.0
 10
39.5893168265
 20
56.4474507059
 30
0.0
 10
39.2613514241
 20
56.6167963848
 30
0.0
 10
38.9254619767
 20
56.7762924423
 30
0.0
 10
38.4694515997
 20
56.9786049816
 30
0.0
 10
37.8897666657
 20
57.2148741599
 30
0.0
 10
37.1850022787
 20
57.4794590453
 30
0.0
 10
36.4734909482
 20
57.7297442318
 30
0.0
 10
35.7572935442
 20
57.9685762222
 30
0.0
 10
35.2775764607
 20
58.1214488167
 30
0.0
 10
35.0372559404
 20
58.1965441176
 30
0.0
  0
SPLINE
  5
2CF
100
AcDbEntity
  8
0
100
AcDbSpline
 62
7
  6
BYLAYER
 70
0
 71
3
 72
20
 73
16
 74
0
 42
0.0000001
 43
0.0000001
 44
0.0000000001
 40
0.0
 40
0.0
 40
0.0
 40
0.0
 40
0.0269581318
 40
0.0548367051
 40
0.083442462
 40
0.112626248
 40
0.1722853377
 40
0.2332097185
 40
0.295031421
 40
0.3575211592
 40
0.4839384878
 40
0.6117257957
 40
0.740478549
 40
0.8699549806
 40
1.0
 40
1.0
 40
1.0
 40
1.0
 10
40.4636922733
 20
41.4252562349
 30
0.0
 10
40.423806443
 20
41.4549514595
 30
0.0
 10
40.3384892244
 20
41.5097921596
 30
0.0
 10
40.2015690268
 20
41.5803992023
 30
0.0
 10
40.0562879002
 20
41.6428275643
 30
0.0
 10
39.8528399636
 20
41.7174957997
 30
0.0
 10
39.5877043288
 20
41.7960143267
 30
0.0
 10
39.2600809119
 20
41.8730902252
 30
0.0
 10
38.9244098475
 20
41.9373238957
 30
0.0
 10
38.4675179918
 20
42.0094197274
 30
0.0
 10
37.887157875
 20
42.0778503266
 30
0.0
 10
37.1829579346
 20
42.1347594598
 30
0.0
 10
36.471806956
 20
42.1718091549
 30
0.0
 10
35.7558518905
 20
42.1923548681
 30
0.0
 10
35.2771328258
 20
42.1965441176
 30
0.0
 10
35.0372559404
 20
42.1965441176
 30
0.0
  0
SPLINE
  5
2D0
100
AcDbEntity
  8
0
100
AcDbSpline
 62
7
  6
BYLAYER
 70
0
 71
3
 72
19
 73
15
 74
0
 42
0.0000001
 43
0.0000001
 44
0.0000000001
 40
0.0
 40
0.0
 40
0.0
 40
0.0
 40
0.1268851898
 40
0.2537257173
 40
0.3804559313
 40
0.5069681036
 40
0.6330668652
 40
0.6958535194
 40
0.7583560089
 40
0.8204289122
 40
0.8818144556
 40
0.942014087
 40
0.9713893251
 40
1.0
 40
1.0
 40
1.0
 40
1.0
 10
35.0372559404
 20
38.1965441176
 30
0.0
 10
35.277576378
 20
38.2716393928
 30
0.0
 10
35.7572932922
 20
38.4245119334
 30
0.0
 10
36.4734904438
 20
38.6633438319
 30
0.0
 10
37.1850015349
 20
38.9136288777
 30
0.0
 10
37.8897656292
 20
39.1782137426
 30
0.0
 10
38.4694503872
 20
39.4144827056
 30
0.0
 10
38.9254606004
 20
39.6167950746
 30
0.0
 10
39.2613498457
 20
39.7762910168
 30
0.0
 10
39.5893151245
 20
39.9456363667
 30
0.0
 10
39.9052938522
 20
40.127476066
 30
0.0
 10
40.1549283638
 20
40.2938371562
 30
0.0
 10
40.3389829688
 20
40.4393728616
 30
0.0
 10
40.4239081664
 20
40.5172752082
 30
0.0
 10
40.4636922733
 20
40.5577764365
 30
0.0
  0
ENDSEC
  0
SECTION
  2
OBJECTS
  0
DICTIONARY
  5
C
100
AcDbDictionary
280
0
281
1
  3
ACAD_GROUP
350
D
  3
ACAD_MLINESTYLE
350
17
  3
ACAD_LAYOUT
350
1A
  3
ACAD_PLOTSETTINGS
350
19
  3
ACAD_PLOTSTYLENAME
350
E
  0
DICTIONARY
  5
D
102
{ACAD_REACTORS
330
C
102
}
100
AcDbDictionary
280
0
281
1
  0
ACDBDICTIONARYWDFLT
  5
E
102
{ACAD_REACTORS
330
C
102
}
100
AcDbDictionary
281
1
  3
Normal
350
F
100
AcDbDictionaryWithDefault
340
F
  0
DICTIONARY
  5
17
102
{ACAD_REACTORS
330
C
102
}
100
AcDbDictionary
280
0
281
1
  3
Standard
350
18
  0
DICTIONARY
  5
19
102
{ACAD_REACTORS
330
C
102
}
100
AcDbDictionary
281
1
  0
DICTIONARY
  5
1A
102
{ACAD_REACTORS
330
C
102
}
100
AcDbDictionary
281
1
  3
Model
350
2D1
  3
Layout1
350
2D2
  0
ACDBPLACEHOLDER
  5
F
102
{ACAD_REACTORS
330
E
102
}
  0
MLINESTYLE
  5
18
102
{ACAD_REACTORS
330
17
102
}
100
AcDbMlineStyle
  2
STANDARD
 70
0
  3

 62
256
 51
90.0
 52
90.0
 71
2
 49
0.5
 62
256
  6
BYLAYER
 49
-0.5
 62
256
  6
BYLAYER
  0
LAYOUT
  5
2D1
102
{ACAD_REACTORS
330
1A
102
}
100
AcDbPlotSettings
  1

  2
none_device
  4

  6

 40
0.0
 41
0.0
 42
0.0
 43
0.0
 44
210.0
 45
297.0
 46
0.0
 47
0.0
 48
0.0
 49
0.0
140
0.0
141
0.0
142
1.0
143
1.0
 70
1024
 72
1
 73
0
 74
0
  7

 75
0
147
1.0
148
0.0
149
0.0
100
AcDbLayout
  1
Model
 70
0
 71
0
 10
0.0
 20
0.0
 11
210.0
 21
297.0
 12
0.0
 22
0.0
 32
0.0
 14
0.0
 24
0.0
 34
0.0
 15
0.0
 25
0.0
 35
0.0
146
0.0
 13
0.0
 23
0.0
 33
0.0
 16
1.0
 26
0.0
 36
0.0
 17
0.0
 27
1.0
 37
0.0
 76
0
330
210
345
0
346
0
  0
LAYOUT
  5
2D2
102
{ACAD_REACTORS
330
1A
102
}
100
AcDbPlotSettings
  1

  2
none_device
  4

  6

 40
0.0
 41
0.0
 42
0.0
 43
0.0
 44
210.0
 45
297.0
 46
0.0
 47
0.0
 48
0.0
 49
0.0
140
0.0
141
0.0
142
1.0
143
1.0
 70
0
 72
1
 73
0
 74
0
  7

 75
0
147
1.0
148
0.0
149
0.0
100
AcDbLayout
  1
Layout1
 70
0
 71
1
 10
0.0
 20
0.0
 11
210.0
 21
297.0
 12
0.0
 22
0.0
 32
0.0
 14
0.0
 24
0.0
 34
0.0
 15
0.0
 25
0.0
 35
0.0
146
0.0
 13
0.0
 23
0.0
 33
0.0
 16
1.0
 26
0.0
 36
0.0
 17
0.0
 27
1.0
 37
0.0
 76
0
330
211
345
0
346
0
  0
ENDSEC
  0
EOF
