999
DXF file: C:\Users\sesa63760\Dev\_Creo\CAD\MCADID0004530_3D-CAD\drw0001_7.dxf
999
Pro/ENGINEER 2019471 by Parametric Technology Corporation
  0
SECTION
  2
HEADER
  9
$ACADVER
  1
AC1024
  9
$DWGCODEPAGE
  3
ANSI_1252
  9
$EXTMAX
 10
65.0646609798
 20
92.0200205286
 30
0.0
  9
$EXTMIN
 10
0.0
 20
0.0
 30
0.0
  9
$LIMMIN
 10
0.0
 20
0.0
  9
$LIMMAX
 10
65.0646609798
 20
92.0200205286
  9
$VIEWCTR
 10
32.5323304899
 20
46.0100102643
  9
$VIEWSIZE
 40
92.0200205286
  9
$CLAYER
  8
0
  9
$LTSCALE
 40
5.9983420789
  9
$CELTYPE
  6
BYLAYER
  9
$DIMSCALE
 40
1.0
  9
$DIMASZ
 40
0.7745792974
  9
$DIMEXO
 40
1.0
  9
$DIMDLI
 40
4.1443090727
  9
$DIMEXE
 40
1.0
  9
$DIMCEN
 40
0.9815468856
  9
$DIMLFAC
 40
1.0
  9
$DIMBLK
  1
_FILLED
  9
$DIMALT
 70
0
  9
$DIMALTF
 40
0.0393700787
  9
$DIMTXT
 40
1.0844110163
  9
$DIMTOL
 70
1
  9
$DIMLIM
 70
0
  9
$DIMTFAC
 40
1.0
  9
$DIMTP
 40
0.01
  9
$DIMTM
 40
0.01
  9
$DIMGAP
 40
0.625
  9
$DIMDSEP
 70
46
  9
$AUNITS
 70
0
  9
$PDMODE
 70
3
  9
$PDSIZE
 40
0.3125
  9
$HANDSEED
  5
293
  9
$TILEMODE
 70
1
  9
$MEASUREMENT
 70
1
  9
$INSUNITS
 70
4
  0
ENDSEC
  0
SECTION
  2
CLASSES
  0
CLASS
  1
ACDBDICTIONARYWDFLT
  2
AcDbDictionaryWithDefault
  3
AutoCAD 2000
 90
0
 91
1
280
0
281
0
  0
CLASS
  1
ACDBPLACEHOLDER
  2
AcDbPlaceHolder
  3
AutoCAD 2000
 90
0
 91
1
280
0
281
0
  0
CLASS
  1
LAYOUT
  2
AcDbLayout
  3
AutoCAD 2000
 90
0
 91
0
280
0
281
0
  0
ENDSEC
  0
SECTION
  2
TABLES
  0
TABLE
  2
VPORT
  5
8
100
AcDbSymbolTable
 70
2
  0
VPORT
  5
1F4
100
AcDbSymbolTableRecord
100
AcDbViewportTableRecord
  2
*ACTIVE
 70
0
 10
0.0
 20
0.0
 11
1.0
 21
1.0
 12
32.5323304899
 22
46.0100102643
 13
0.0
 23
0.0
 14
1.0
 24
1.0
 15
0.0
 25
0.0
 16
0.0
 26
0.0
 36
1.0
 17
0.0
 27
0.0
 37
0.0
 40
92.0200205286
 41
0.7070707071
 42
50.0
 43
0.0
 44
0.0
 50
0.0
 51
0.0
 71
0
 72
100
 73
1
 74
1
 75
0
 76
0
 77
0
 78
0
  0
ENDTAB
  0
TABLE
  2
LTYPE
  5
5
100
AcDbSymbolTable
 70
6
  0
LTYPE
  5
14
100
AcDbSymbolTableRecord
100
AcDbLinetypeTableRecord
  2
BYBLOCK
 70
0
  3

 72
65
 73
0
 40
0.0
  0
LTYPE
  5
15
100
AcDbSymbolTableRecord
100
AcDbLinetypeTableRecord
  2
BYLAYER
 70
0
  3

 72
65
 73
0
 40
0.0
  0
LTYPE
  5
16
100
AcDbSymbolTableRecord
100
AcDbLinetypeTableRecord
  2
CONTINUOUS
 70
64
  3
Solid line
 72
65
 73
0
 40
0.0
  0
LTYPE
  5
1F5
100
AcDbSymbolTableRecord
100
AcDbLinetypeTableRecord
  2
CENTER
 70
64
  3
____ _ ____ _ ____ _ ____ _ ____ _ ____ _ ____
 72
65
 73
4
 40
0.6
 49
0.375
 74
0
 49
-0.075
 74
0
 49
0.075
 74
0
 49
-0.075
 74
0
  0
LTYPE
  5
1F6
100
AcDbSymbolTableRecord
100
AcDbLinetypeTableRecord
  2
HIDDEN
 70
64
  3
- - - - - - - - - - - - - - - - - - - -
 72
65
 73
2
 40
0.2
 49
0.1
 74
0
 49
-0.1
 74
0
  0
LTYPE
  5
1F7
100
AcDbSymbolTableRecord
100
AcDbLinetypeTableRecord
  2
PHANTOM
 70
64
  3
_____ _ _ _____ _ _ _____ _ _ _____
 72
65
 73
6
 40
0.8
 49
0.45
 74
0
 49
-0.05
 74
0
 49
0.1
 74
0
 49
-0.05
 74
0
 49
0.1
 74
0
 49
-0.05
 74
0
  0
LTYPE
  5
1F8
100
AcDbSymbolTableRecord
100
AcDbLinetypeTableRecord
  2
DOT
 70
64
  3
. . . . . . . . . . . . . . . . . . . .
 72
65
 73
2
 40
0.2
 49
0.1
 74
0
 49
-0.1
 74
0
  0
LTYPE
  5
1F9
100
AcDbSymbolTableRecord
100
AcDbLinetypeTableRecord
  2
DASHED
 70
64
  3
- - - - - - - - - - - - - - - - - - - -
 72
65
 73
2
 40
0.2
 49
0.1
 74
0
 49
-0.1
 74
0
  0
ENDTAB
  0
TABLE
  2
LAYER
  5
2
100
AcDbSymbolTable
 70
36
  0
LAYER
  5
10
100
AcDbSymbolTableRecord
100
AcDbLayerTableRecord
  2
0
 70
0
 62
7
  6
CONTINUOUS
370
-3
390
F
  0
LAYER
  5
1FA
100
AcDbSymbolTableRecord
100
AcDbLayerTableRecord
  2
DEFAULT_1
 70
0
 62
7
  6
CENTER
370
-3
390
F
  0
LAYER
  5
1FB
100
AcDbSymbolTableRecord
100
AcDbLayerTableRecord
  2
DEFAULT_2
 70
0
 62
7
  6
HIDDEN
370
-3
390
F
  0
LAYER
  5
1FC
100
AcDbSymbolTableRecord
100
AcDbLayerTableRecord
  2
DEFAULT_3
 70
0
 62
7
  6
PHANTOM
370
-3
390
F
  0
LAYER
  5
1FD
100
AcDbSymbolTableRecord
100
AcDbLayerTableRecord
  2
00_COMPONENTS
 70
0
 62
7
  6
CONTINUOUS
370
-3
390
F
  0
LAYER
  5
1FE
100
AcDbSymbolTableRecord
100
AcDbLayerTableRecord
  2
01_1_DEFAULT_DATUMS
 70
0
 62
7
  6
CONTINUOUS
370
-3
390
F
  0
LAYER
  5
1FF
100
AcDbSymbolTableRecord
100
AcDbLayerTableRecord
  2
01_PLANES
 70
0
 62
7
  6
CONTINUOUS
370
-3
390
F
  0
LAYER
  5
200
100
AcDbSymbolTableRecord
100
AcDbLayerTableRecord
  2
02_COORD_SYS
 70
0
 62
7
  6
CONTINUOUS
370
-3
390
F
  0
LAYER
  5
201
100
AcDbSymbolTableRecord
100
AcDbLayerTableRecord
  2
03_AXES
 70
0
 62
7
  6
CONTINUOUS
370
-3
390
F
  0
LAYER
  5
202
100
AcDbSymbolTableRecord
100
AcDbLayerTableRecord
  2
04_POINTS
 70
0
 62
7
  6
CONTINUOUS
370
-3
390
F
  0
LAYER
  5
203
100
AcDbSymbolTableRecord
100
AcDbLayerTableRecord
  2
05_CURVES
 70
0
 62
7
  6
CONTINUOUS
370
-3
390
F
  0
LAYER
  5
204
100
AcDbSymbolTableRecord
100
AcDbLayerTableRecord
  2
06_SURFS
 70
0
 62
7
  6
CONTINUOUS
370
-3
390
F
  0
LAYER
  5
205
100
AcDbSymbolTableRecord
100
AcDbLayerTableRecord
  2
07_COSMETICS
 70
0
 62
7
  6
CONTINUOUS
370
-3
390
F
  0
LAYER
  5
206
100
AcDbSymbolTableRecord
100
AcDbLayerTableRecord
  2
10_NOTES
 70
0
 62
7
  6
CONTINUOUS
370
-3
390
F
  0
LAYER
  5
207
100
AcDbSymbolTableRecord
100
AcDbLayerTableRecord
  2
11_NOTES_PUB
 70
0
 62
7
  6
CONTINUOUS
370
-3
390
F
  0
LAYER
  5
208
100
AcDbSymbolTableRecord
100
AcDbLayerTableRecord
  2
13_REF_GTOL
 70
0
 62
7
  6
CONTINUOUS
370
-3
390
F
  0
LAYER
  5
209
100
AcDbSymbolTableRecord
100
AcDbLayerTableRecord
  2
16_MISC
 70
0
 62
7
  6
CONTINUOUS
370
-3
390
F
  0
LAYER
  5
20A
100
AcDbSymbolTableRecord
100
AcDbLayerTableRecord
  2
17_NO_PRINT
 70
0
 62
7
  6
CONTINUOUS
370
-3
390
F
  0
LAYER
  5
20B
100
AcDbSymbolTableRecord
100
AcDbLayerTableRecord
  2
18_DATUM_CAMS_JOINTS
 70
0
 62
7
  6
CONTINUOUS
370
-3
390
F
  0
LAYER
  5
20C
100
AcDbSymbolTableRecord
100
AcDbLayerTableRecord
  2
19_DATUM_FUNCTIONAL
 70
0
 62
7
  6
CONTINUOUS
370
-3
390
F
  0
LAYER
  5
20D
100
AcDbSymbolTableRecord
100
AcDbLayerTableRecord
  2
20_DATUM_KINEMATIC_SCHEME
 70
0
 62
7
  6
CONTINUOUS
370
-3
390
F
  0
ENDTAB
  0
TABLE
  2
STYLE
  5
3
100
AcDbSymbolTable
 70
1
  0
STYLE
  5
11
100
AcDbSymbolTableRecord
100
AcDbTextStyleTableRecord
  2
STANDARD
 70
0
 40
0.0
 41
1.0
 50
0.0
 71
0
 42
0.2
  3
ARIAL.TTF
  4

  0
STYLE
  5
20E
100
AcDbSymbolTableRecord
100
AcDbTextStyleTableRecord
  2
TEXTSTYLE_1
 70
0
 40
0.0
 41
0.8
 50
0.0
 71
0
 42
0.2
  3
gdt
  4

  0
ENDTAB
  0
TABLE
  2
VIEW
  5
6
100
AcDbSymbolTable
 70
0
  0
ENDTAB
  0
TABLE
  2
UCS
  5
7
100
AcDbSymbolTable
 70
0
  0
ENDTAB
  0
TABLE
  2
APPID
  5
9
100
AcDbSymbolTable
 70
1
  0
APPID
  5
20F
100
AcDbSymbolTableRecord
100
AcDbRegAppTableRecord
  2
ACAD
 70
0
  0
ENDTAB
  0
TABLE
  2
BLOCK_RECORD
  5
1
100
AcDbSymbolTable
 70
0
  0
BLOCK_RECORD
  5
210
100
AcDbSymbolTableRecord
100
AcDbBlockTableRecord
  2
*Model_Space
  0
BLOCK_RECORD
  5
211
100
AcDbSymbolTableRecord
100
AcDbBlockTableRecord
  2
*Paper_Space
  0
BLOCK_RECORD
  5
212
100
AcDbSymbolTableRecord
100
AcDbBlockTableRecord
  2
_FILLED
  0
ENDTAB
  0
TABLE
  2
DIMSTYLE
  5
A
100
AcDbSymbolTable
 70
1
100
AcDbDimStyleTable
 71
0
  0
DIMSTYLE
105
213
100
AcDbSymbolTableRecord
100
AcDbDimStyleTableRecord
  2
STANDARD
 70
0
  3

  4

 40
1.0
 41
0.7745792974
 42
1.0
 43
0.38
 44
1.0
 45
0.0
 46
0.0
 47
0.01
 48
0.01
140
1.0844110163
141
0.09
142
0.0
143
25.4
144
1.0
145
0.0
146
1.0
147
0.625
 71
1
 72
0
 73
0
 74
0
 75
0
 76
0
 77
1
 78
8
 79
2
170
0
171
1
172
0
173
0
174
0
175
0
176
0
177
0
178
0
270
2
179
2
271
2
272
2
273
2
274
2
275
0
280
0
281
0
282
0
283
1
284
8
285
0
286
0
287
3
288
0
340
11
278
46
341
212
342
212
343
212
344
212
  0
ENDTAB
  0
ENDSEC
  0
SECTION
  2
BLOCKS
  0
BLOCK
  5
20
100
AcDbEntity
  8
0
100
AcDbBlockBegin
  2
*Model_Space
 70
0
 10
0.0
 20
0.0
 30
0.0
  3
*Model_Space
  1

  0
ENDBLK
  5
21
100
AcDbEntity
  8
0
100
AcDbBlockEnd
  0
BLOCK
  5
1C
100
AcDbEntity
  8
0
100
AcDbBlockBegin
  2
*Paper_Space
 70
0
 10
0.0
 20
0.0
 30
0.0
  3
*Paper_Space
  1

  0
ENDBLK
  5
1D
100
AcDbEntity
  8
0
100
AcDbBlockEnd
  0
BLOCK
  5
214
100
AcDbEntity
  8
0
100
AcDbBlockBegin
  2
_FILLED
 70
64
 10
0.0
 20
0.0
  3
_FILLED
  1

  0
SOLID
  5
215
100
AcDbEntity
  8
0
  6
BYBLOCK
 62
0
100
AcDbTrace
 10
0.0
 20
0.0
 11
-1.0
 21
0.25
 12
-1.0
 22
-0.25
 13
-1.0
 23
-0.25
  0
ENDBLK
  5
216
100
AcDbEntity
  8
0
  6
BYBLOCK
 62
0
100
AcDbBlockEnd
  0
ENDSEC
  0
SECTION
  2
ENTITIES
  0
LINE
  5
217
100
AcDbEntity
  8
0
100
AcDbLine
 62
7
  6
BYLAYER
 10
10.4396482947
 20
81.3607299497
 11
10.2936172254
 21
81.2574703904
  0
LINE
  5
218
100
AcDbEntity
  8
0
100
AcDbLine
 62
7
  6
BYLAYER
 10
14.4163976449
 20
8.5072724985
 11
14.368722609
 21
8.5345983783
  0
LINE
  5
219
100
AcDbEntity
  8
0
100
AcDbLine
 62
7
  6
BYLAYER
 10
17.5254347323
 20
6.8037210247
 11
14.4168236978
 21
6.8037210247
  0
LINE
  5
21A
100
AcDbEntity
  8
0
100
AcDbLine
 62
7
  6
BYLAYER
 10
10.6035845529
 20
8.0239458878
 11
14.4168236978
 21
8.0239458878
  0
LINE
  5
21B
100
AcDbEntity
  8
0
100
AcDbLine
 62
7
  6
BYLAYER
 10
13.5168236978
 20
8.1369794522
 11
11.0439272297
 21
8.1369794522
  0
LINE
  5
21C
100
AcDbEntity
  8
0
100
AcDbLine
 62
7
  6
BYLAYER
 10
42.6438026175
 20
18.0749034225
 11
24.3308405508
 21
18.0749034225
  0
LINE
  5
21D
100
AcDbEntity
  8
0
100
AcDbLine
 62
7
  6
BYLAYER
 10
7.0439272297
 20
10.2121063803
 11
7.0439272297
 21
85.6613150772
  0
LINE
  5
21E
100
AcDbEntity
  8
0
100
AcDbLine
 62
7
  6
BYLAYER
 10
10.1439272297
 20
85.6613149052
 11
10.1439272297
 21
80.1962911992
  0
LINE
  5
21F
100
AcDbEntity
  8
0
100
AcDbLine
 62
7
  6
BYLAYER
 10
10.2803469369
 20
80.0244499292
 11
10.2803469369
 21
80.3322256641
  0
LINE
  5
220
100
AcDbEntity
  8
0
100
AcDbLine
 62
7
  6
BYLAYER
 10
11.0439272297
 20
8.1369794522
 11
11.0439272297
 21
76.6145638778
  0
LINE
  5
221
100
AcDbEntity
  8
0
100
AcDbLine
 62
7
  6
BYLAYER
 10
13.0254347323
 20
22.6979924571
 11
14.4168236978
 21
22.6979924571
  0
LINE
  5
222
100
AcDbEntity
  8
0
100
AcDbLine
 62
7
  6
BYLAYER
 10
12.0166035569
 20
79.4893713755
 11
12.0166035569
 21
79.4470966218
  0
LINE
  5
223
100
AcDbEntity
  8
0
100
AcDbLine
 62
7
  6
BYLAYER
 10
12.7237103381
 20
79.4470966218
 11
12.7237103381
 21
79.6346712074
  0
LINE
  5
224
100
AcDbEntity
  8
0
100
AcDbLine
 62
7
  6
BYLAYER
 10
13.0254347323
 20
22.6980014719
 11
13.0254347323
 21
29.9479924571
  0
LINE
  5
225
100
AcDbEntity
  8
0
100
AcDbLine
 62
7
  6
BYLAYER
 10
13.0254347323
 20
34.9479924571
 11
13.0254347323
 21
42.1979834424
  0
LINE
  5
226
100
AcDbEntity
  8
0
100
AcDbLine
 62
7
  6
BYLAYER
 10
13.5168236978
 20
76.6145638778
 11
13.5168236978
 21
42.1979924571
  0
LINE
  5
227
100
AcDbEntity
  8
0
100
AcDbLine
 62
7
  6
BYLAYER
 10
13.5168236978
 20
34.9479924571
 11
13.5168236978
 21
29.9479924571
  0
LINE
  5
228
100
AcDbEntity
  8
0
100
AcDbLine
 62
7
  6
BYLAYER
 10
13.5168236978
 20
22.6979924571
 11
13.5168236978
 21
8.1369794522
  0
LINE
  5
229
100
AcDbEntity
  8
0
100
AcDbLine
 62
7
  6
BYLAYER
 10
14.4168236978
 20
6.8037839909
 11
14.4168236978
 21
74.9793605013
  0
LINE
  5
22A
100
AcDbEntity
  8
0
100
AcDbLine
 62
7
  6
BYLAYER
 10
14.4168236978
 20
29.9479924571
 11
13.0254347323
 21
29.9479924571
  0
LINE
  5
22B
100
AcDbEntity
  8
0
100
AcDbLine
 62
7
  6
BYLAYER
 10
17.5254347323
 20
29.9479924571
 11
24.6882693244
 21
29.9479924571
  0
LINE
  5
22C
100
AcDbEntity
  8
0
100
AcDbLine
 62
7
  6
BYLAYER
 10
36.3626001403
 20
29.9479924571
 11
42.0254347323
 21
29.9479924571
  0
LINE
  5
22D
100
AcDbEntity
  8
0
100
AcDbLine
 62
7
  6
BYLAYER
 10
19.0254347323
 20
30.4312948891
 11
17.5254347323
 21
30.4312948891
  0
LINE
  5
22E
100
AcDbEntity
  8
0
100
AcDbLine
 62
7
  6
BYLAYER
 10
17.5254347323
 20
6.8037838847
 11
17.5254347323
 21
74.9793605013
  0
LINE
  5
22F
100
AcDbEntity
  8
0
100
AcDbLine
 62
7
  6
BYLAYER
 10
19.0254347323
 20
79.9693862215
 11
19.0254347323
 21
79.583730491
  0
LINE
  5
230
100
AcDbEntity
  8
0
100
AcDbLine
 62
7
  6
BYLAYER
 10
19.0254347323
 20
30.4822356054
 11
19.0254347323
 21
30.4312948891
  0
LINE
  5
231
100
AcDbEntity
  8
0
100
AcDbLine
 62
7
  6
BYLAYER
 10
19.0999426789
 20
81.7749435121
 11
19.0999426789
 21
80.0244499292
  0
LINE
  5
232
100
AcDbEntity
  8
0
100
AcDbLine
 62
7
  6
BYLAYER
 10
21.4254347323
 20
34.9479924571
 11
21.4254347323
 21
32.1792918803
  0
LINE
  5
233
100
AcDbEntity
  8
0
100
AcDbLine
 62
7
  6
BYLAYER
 10
21.4254347323
 20
48.1121814032
 11
21.4254347323
 21
80.0787052379
  0
LINE
  5
234
100
AcDbEntity
  8
0
100
AcDbLine
 62
7
  6
BYLAYER
 10
42.0254347323
 20
34.9479924571
 11
36.3626001403
 21
34.9479924571
  0
LINE
  5
235
100
AcDbEntity
  8
0
100
AcDbLine
 62
7
  6
BYLAYER
 10
13.0254347323
 20
34.9479924571
 11
14.4168236978
 21
34.9479924571
  0
LINE
  5
236
100
AcDbEntity
  8
0
100
AcDbLine
 62
7
  6
BYLAYER
 10
17.5254347323
 20
34.9479924571
 11
24.6882693244
 21
34.9479924571
  0
LINE
  5
237
100
AcDbEntity
  8
0
100
AcDbLine
 62
7
  6
BYLAYER
 10
26.2754347323
 20
62.5879924571
 11
26.2754347323
 21
58.0879924571
  0
LINE
  5
238
100
AcDbEntity
  8
0
100
AcDbLine
 62
7
  6
BYLAYER
 10
32.5924308169
 20
38.0879924571
 11
28.4584386478
 21
38.0879924571
  0
LINE
  5
239
100
AcDbEntity
  8
0
100
AcDbLine
 62
7
  6
BYLAYER
 10
32.0063313633
 20
38.5209924571
 11
29.0471528961
 21
38.5209924571
  0
LINE
  5
23A
100
AcDbEntity
  8
0
100
AcDbLine
 62
7
  6
BYLAYER
 10
28.4584347323
 20
38.0879924571
 11
28.2432470492
 21
38.3031801403
  0
LINE
  5
23B
100
AcDbEntity
  8
0
100
AcDbLine
 62
7
  6
BYLAYER
 10
28.0254347323
 20
58.0879924571
 11
28.0254347323
 21
49.8198310103
  0
LINE
  5
23C
100
AcDbEntity
  8
0
100
AcDbLine
 62
7
  6
BYLAYER
 10
13.0254347323
 20
42.1979924571
 11
14.4168236978
 21
42.1979924571
  0
LINE
  5
23D
100
AcDbEntity
  8
0
100
AcDbLine
 62
7
  6
BYLAYER
 10
33.0254347323
 20
58.0879924571
 11
33.0254347323
 21
50.237810951
  0
LINE
  5
23E
100
AcDbEntity
  8
0
100
AcDbLine
 62
7
  6
BYLAYER
 10
34.7754347323
 20
62.5879924571
 11
34.7754347323
 21
58.0879924571
  0
LINE
  5
23F
100
AcDbEntity
  8
0
100
AcDbLine
 62
7
  6
BYLAYER
 10
42.6438026175
 20
46.8210814918
 11
24.3308405508
 21
46.8210814918
  0
LINE
  5
240
100
AcDbEntity
  8
0
100
AcDbLine
 62
7
  6
BYLAYER
 10
37.2157445306
 20
28.1400887925
 11
37.2157445306
 21
29.9479924571
  0
LINE
  5
241
100
AcDbEntity
  8
0
100
AcDbLine
 62
7
  6
BYLAYER
 10
37.2157445306
 20
34.9479924571
 11
37.2157445306
 21
36.7558960636
  0
LINE
  5
242
100
AcDbEntity
  8
0
100
AcDbLine
 62
7
  6
BYLAYER
 10
32.5924347323
 20
38.0879924571
 11
32.8078190317
 21
38.3033767565
  0
LINE
  5
243
100
AcDbEntity
  8
0
100
AcDbLine
 62
7
  6
BYLAYER
 10
42.0254347323
 20
34.9479924571
 11
42.0254347323
 21
29.9479924571
  0
LINE
  5
244
100
AcDbEntity
  8
0
100
AcDbLine
 62
7
  6
BYLAYER
 10
34.7753653951
 20
58.0879924571
 11
26.2755040695
 21
58.0879924571
  0
LINE
  5
245
100
AcDbEntity
  8
0
100
AcDbLine
 62
7
  6
BYLAYER
 10
26.2754347323
 20
62.5879924571
 11
34.7754347323
 21
62.5879924571
  0
LINE
  5
246
100
AcDbEntity
  8
0
100
AcDbLine
 62
7
  6
BYLAYER
 10
26.5254347323
 20
62.8379924571
 11
34.5254347323
 21
62.8379924571
  0
LINE
  5
247
100
AcDbEntity
  8
0
100
AcDbLine
 62
7
  6
BYLAYER
 10
54.0804767249
 20
29.6349505022
 11
54.0804767249
 21
35.261034412
  0
LINE
  5
248
100
AcDbEntity
  8
0
100
AcDbLine
 62
7
  6
BYLAYER
 10
54.9444379692
 20
21.8374202016
 11
54.9444379692
 21
43.0585647127
  0
LINE
  5
249
100
AcDbEntity
  8
0
100
AcDbLine
 62
7
  6
BYLAYER
 10
58.2459969583
 20
37.609476994
 11
58.2459969583
 21
27.2865079203
  0
LINE
  5
24A
100
AcDbEntity
  8
0
100
AcDbLine
 62
7
  6
BYLAYER
 10
14.416397645
 20
75.0102267143
 11
17.525337107
 21
75.0102267143
  0
LINE
  5
24B
100
AcDbEntity
  8
0
100
AcDbLine
 62
7
  6
BYLAYER
 10
11.0439272297
 20
76.6145638778
 11
13.5168236978
 21
76.6145638778
  0
LINE
  5
24C
100
AcDbEntity
  8
0
100
AcDbLine
 62
7
  6
BYLAYER
 10
10.6034587211
 20
76.7620315419
 11
17.417171934
 21
76.7619995963
  0
LINE
  5
24D
100
AcDbEntity
  8
0
100
AcDbLine
 62
7
  6
BYLAYER
 10
13.5254347323
 20
79.4470966218
 11
11.0439272297
 21
79.4470966218
  0
LINE
  5
24E
100
AcDbEntity
  8
0
100
AcDbLine
 62
7
  6
BYLAYER
 10
12.7237103381
 20
79.6346712074
 11
19.0254347323
 21
79.6346712074
  0
LINE
  5
24F
100
AcDbEntity
  8
0
100
AcDbLine
 62
7
  6
BYLAYER
 10
19.0999426789
 20
80.0244499292
 11
10.2803469369
 21
80.0244499292
  0
LINE
  5
250
100
AcDbEntity
  8
0
100
AcDbLine
 62
7
  6
BYLAYER
 10
19.0999426789
 20
81.7749435121
 11
11.8538618571
 21
81.7749435121
  0
LINE
  5
251
100
AcDbEntity
  8
0
100
AcDbLine
 62
7
  6
BYLAYER
 10
7.0439272297
 20
83.4916453916
 11
10.1439272297
 21
83.4916453916
  0
LINE
  5
252
100
AcDbEntity
  8
0
100
AcDbLine
 62
7
  6
BYLAYER
 10
10.1439272297
 20
85.6613788734
 11
7.0439272297
 21
85.6613788734
  0
ARC
  5
253
100
AcDbEntity
  8
0
100
AcDbCircle
 62
7
  6
BYLAYER
 10
27.2882879036
 20
87.5898668038
 40
37.79009037
100
AcDbArc
 50
277.8226911331
 51
278.732191028
  0
ARC
  5
254
100
AcDbEntity
  8
0
100
AcDbCircle
 62
7
  6
BYLAYER
 10
33.4873215842
 20
50.2981327875
 40
35.64295168
100
AcDbArc
 50
243.3956289386
 51
307.0133915134
  0
ARC
  5
255
100
AcDbEntity
  8
0
100
AcDbCircle
 62
7
  6
BYLAYER
 10
33.4873215842
 20
14.5978521267
 40
35.64295168
100
AcDbArc
 50
52.9866084866
 51
90.7425004584
  0
ARC
  5
256
100
AcDbEntity
  8
0
100
AcDbCircle
 62
7
  6
BYLAYER
 10
33.4873215842
 20
14.5978521267
 40
35.64295168
100
AcDbArc
 50
98.8146727231
 51
116.6043710614
  0
ARC
  5
257
100
AcDbEntity
  8
0
100
AcDbCircle
 62
7
  6
BYLAYER
 10
33.4879622782
 20
37.9564043162
 40
12.2406788467
100
AcDbArc
 50
90.0029989403
 51
94.951714961
  0
ARC
  5
258
100
AcDbEntity
  8
0
100
AcDbCircle
 62
7
  6
BYLAYER
 10
30.4863565295
 20
61.9596071041
 40
11.9673467169
100
AcDbArc
 50
274.8500496266
 51
279.3557644788
  0
ARC
  5
259
100
AcDbEntity
  8
0
100
AcDbCircle
 62
7
  6
BYLAYER
 10
30.5254347323
 20
32.4479924571
 40
6.35
100
AcDbArc
 50
23.1849701053
 51
156.8150298947
  0
ARC
  5
25A
100
AcDbEntity
  8
0
100
AcDbCircle
 62
7
  6
BYLAYER
 10
30.5254347323
 20
32.4479924571
 40
6.35
100
AcDbArc
 50
203.1849701053
 51
336.8150298947
  0
ARC
  5
25B
100
AcDbEntity
  8
0
100
AcDbCircle
 62
7
  6
BYLAYER
 10
52.0984695541
 20
37.609476994
 40
6.1475274042
100
AcDbArc
 50
0.0
 51
62.4226790486
  0
ARC
  5
25C
100
AcDbEntity
  8
0
100
AcDbCircle
 62
7
  6
BYLAYER
 10
52.0984695541
 20
27.2865079203
 40
6.1475274042
100
AcDbArc
 50
297.5773209514
 51
360.0
  0
ARC
  5
25D
100
AcDbEntity
  8
0
100
AcDbCircle
 62
7
  6
BYLAYER
 10
12.4505293154
 20
74.979357416
 40
5.074905417
100
AcDbArc
 50
359.9999649443
 51
0.3467899045
  0
ARC
  5
25E
100
AcDbEntity
  8
0
100
AcDbCircle
 62
7
  6
BYLAYER
 10
10.3727899465
 20
83.1256437077
 40
3.9905638273
100
AcDbArc
 50
292.637621486
 51
294.3258273293
  0
ARC
  5
25F
100
AcDbEntity
  8
0
100
AcDbCircle
 62
7
  6
BYLAYER
 10
17.3553140222
 20
36.3653849704
 40
2.0871530644
100
AcDbArc
 50
315.2125114457
 51
316.6535208781
  0
ARC
  5
260
100
AcDbEntity
  8
0
100
AcDbCircle
 62
7
  6
BYLAYER
 10
13.2714024898
 20
74.9785930253
 40
1.1454214651
100
AcDbArc
 50
0.0383903579
 51
1.5825679981
  0
ARC
  5
261
100
AcDbEntity
  8
0
100
AcDbCircle
 62
7
  6
BYLAYER
 10
34.5254347323
 20
62.5879924571
 40
0.25
100
AcDbArc
 50
0.0
 51
90.0
  0
ARC
  5
262
100
AcDbEntity
  8
0
100
AcDbCircle
 62
7
  6
BYLAYER
 10
26.5254347323
 20
62.5879924571
 40
0.25
100
AcDbArc
 50
90.0
 51
180.0
  0
SPLINE
  5
263
100
AcDbEntity
  8
0
100
AcDbSpline
 62
7
  6
BYLAYER
 70
0
 71
3
 72
9
 73
5
 74
0
 42
0.0000001
 43
0.0000001
 44
0.0000000001
 40
0.0
 40
0.0
 40
0.0
 40
0.0
 40
0.2620237211
 40
1.0
 40
1.0
 40
1.0
 40
1.0
 10
10.2803469369
 20
80.0244499292
 30
0.0
 10
10.2803469369
 20
80.0058246445
 30
0.0
 10
10.2811837267
 20
79.9347517255
 30
0.0
 10
10.2855873142
 20
79.863667028
 30
0.0
 10
10.2917336937
 20
79.811571204
 30
0.0
  0
SPLINE
  5
264
100
AcDbEntity
  8
0
100
AcDbSpline
 62
7
  6
BYLAYER
 70
0
 71
3
 72
14
 73
10
 74
0
 42
0.0000001
 43
0.0000001
 44
0.0000000001
 40
0.0
 40
0.0
 40
0.0
 40
0.0
 40
0.2868152497
 40
0.4239454679
 40
0.5539726957
 40
0.6757978941
 40
0.7895042773
 40
0.8966673528
 40
1.0
 40
1.0
 40
1.0
 40
1.0
 10
19.0254347323
 20
30.4822356054
 30
0.0
 10
19.3346193033
 20
30.4822356054
 30
0.0
 10
19.7956827277
 20
30.5444420923
 30
0.0
 10
20.3566809386
 20
30.7543072728
 30
0.0
 10
20.7223967526
 20
30.9638828361
 30
0.0
 10
21.0245637284
 20
31.2207155245
 30
0.0
 10
21.2516278635
 20
31.5162005
 30
0.0
 10
21.3930199648
 20
31.8398500136
 30
0.0
 10
21.4254347323
 20
32.0679001038
 30
0.0
 10
21.4254347323
 20
32.1792918803
 30
0.0
  0
SPLINE
  5
265
100
AcDbEntity
  8
0
100
AcDbSpline
 62
7
  6
BYLAYER
 70
0
 71
3
 72
11
 73
7
 74
0
 42
0.0000001
 43
0.0000001
 44
0.0000000001
 40
0.0
 40
0.0
 40
0.0
 40
0.0
 40
0.2670737599
 40
0.5203259749
 40
0.763201097
 40
1.0
 40
1.0
 40
1.0
 40
1.0
 10
18.7985424532
 20
34.9739761555
 30
0.0
 10
18.8825089504
 20
34.8934893735
 30
0.0
 10
19.0338819833
 20
34.7230544436
 30
0.0
 10
19.2059659496
 20
34.4362398541
 30
0.0
 10
19.3114434371
 20
34.1325029347
 30
0.0
 10
19.3354347323
 20
33.9229068074
 30
0.0
 10
19.3354347323
 20
33.8197796126
 30
0.0
  0
SPLINE
  5
266
100
AcDbEntity
  8
0
100
AcDbSpline
 62
7
  6
BYLAYER
 70
0
 71
3
 72
14
 73
10
 74
0
 42
0.0000001
 43
0.0000001
 44
0.0000000001
 40
0.0
 40
0.0
 40
0.0
 40
0.0
 40
0.2868610052
 40
0.423915939
 40
0.5538257205
 40
0.6755819422
 40
0.7892933448
 40
0.8965397182
 40
1.0
 40
1.0
 40
1.0
 40
1.0
 10
16.6203524582
 20
78.1905607677
 30
0.0
 10
16.9713464288
 20
78.1873899938
 30
0.0
 10
17.4939701783
 20
78.1127027647
 30
0.0
 10
18.1289450282
 20
77.8702288197
 30
0.0
 10
18.5422420964
 20
77.6298626826
 30
0.0
 10
18.8833932502
 20
77.336567982
 30
0.0
 10
19.1395417531
 20
76.9999659068
 30
0.0
 10
19.2989143155
 20
76.6318796157
 30
0.0
 10
19.3354347323
 20
76.3727823479
 30
0.0
 10
19.3354347323
 20
76.2461864838
 30
0.0
  0
SPLINE
  5
267
100
AcDbEntity
  8
0
100
AcDbSpline
 62
7
  6
BYLAYER
 70
0
 71
3
 72
14
 73
10
 74
0
 42
0.0000001
 43
0.0000001
 44
0.0000000001
 40
0.0
 40
0.0
 40
0.0
 40
0.0
 40
0.283407944
 40
0.416560334
 40
0.5433564913
 40
0.6640006872
 40
0.7793559784
 40
0.8908267867
 40
1.0
 40
1.0
 40
1.0
 40
1.0
 10
17.5420790377
 20
66.0189214909
 30
0.0
 10
17.7270563091
 20
65.957499041
 30
0.0
 10
17.9912873476
 20
65.8378110677
 30
0.0
 10
18.2962641698
 20
65.620345017
 30
0.0
 10
18.4868235344
 20
65.439467303
 30
0.0
 10
18.6397021822
 20
65.2409093544
 30
0.0
 10
18.7517436979
 20
65.0283562075
 30
0.0
 10
18.8199445383
 20
64.8061528921
 30
0.0
 10
18.8354347323
 20
64.65400641
 30
0.0
 10
18.8354347323
 20
64.5789245942
 30
0.0
  0
SPLINE
  5
268
100
AcDbEntity
  8
0
100
AcDbSpline
 62
7
  6
BYLAYER
 70
0
 71
3
 72
9
 73
5
 74
0
 42
0.0000001
 43
0.0000001
 44
0.0000000001
 40
0.0
 40
0.0
 40
0.0
 40
0.0
 40
0.2631564041
 40
1.0
 40
1.0
 40
1.0
 40
1.0
 10
11.8538618571
 20
81.7749435121
 30
0.0
 10
11.7235251216
 20
81.7749435121
 30
0.0
 10
11.2298509864
 20
81.7411642978
 30
0.0
 10
10.7376251823
 20
81.5714314275
 30
0.0
 10
10.4396482947
 20
81.3607299497
 30
0.0
  0
SPLINE
  5
269
100
AcDbEntity
  8
0
100
AcDbSpline
 62
7
  6
BYLAYER
 70
0
 71
3
 72
14
 73
10
 74
0
 42
0.0000001
 43
0.0000001
 44
0.0000000001
 40
0.0
 40
0.0
 40
0.0
 40
0.0
 40
0.2869999729
 40
0.4238848164
 40
0.5536366151
 40
0.6752828618
 40
0.7889898002
 40
0.8963451556
 40
1.0
 40
1.0
 40
1.0
 40
1.0
 10
19.0999426789
 20
81.7749435121
 30
0.0
 10
19.4021614028
 20
81.7683059727
 30
0.0
 10
19.8511275226
 20
81.6989639074
 30
0.0
 10
20.395347578
 20
81.4847439969
 30
0.0
 10
20.748767677
 20
81.2748167164
 30
0.0
 10
21.0400848754
 20
81.0201296143
 30
0.0
 10
21.2585462352
 20
80.7289217759
 30
0.0
 10
21.3943478462
 20
80.4112116376
 30
0.0
 10
21.4254347323
 20
80.1878829109
 30
0.0
 10
21.4254347323
 20
80.0787052379
 30
0.0
  0
SPLINE
  5
26A
100
AcDbEntity
  8
0
100
AcDbSpline
 62
7
  6
BYLAYER
 70
0
 71
3
 72
9
 73
5
 74
0
 42
0.0000001
 43
0.0000001
 44
0.0000000001
 40
0.0
 40
0.0
 40
0.0
 40
0.0
 40
0.2588816557
 40
1.0
 40
1.0
 40
1.0
 40
1.0
 10
17.5420790377
 20
65.3309587193
 30
0.0
 10
17.5987831995
 20
65.3497875652
 30
0.0
 10
17.8153458857
 20
65.4295691929
 30
0.0
 10
18.0217296366
 20
65.538413717
 30
0.0
 10
18.1622065261
 20
65.635999892
 30
0.0
  0
SPLINE
  5
26B
100
AcDbEntity
  8
0
100
AcDbSpline
 62
7
  6
BYLAYER
 70
0
 71
3
 72
9
 73
5
 74
0
 42
0.0000001
 43
0.0000001
 44
0.0000000001
 40
0.0
 40
0.0
 40
0.0
 40
0.0
 40
0.5228857206
 40
1.0
 40
1.0
 40
1.0
 40
1.0
 10
17.4649980638
 20
76.5958463903
 30
0.0
 10
17.7305417458
 20
76.659262558
 30
0.0
 10
18.2270764822
 20
76.8380707633
 30
0.0
 10
18.6611327643
 20
77.1446248167
 30
0.0
 10
18.8366178703
 20
77.3214358222
 30
0.0
  0
SPLINE
  5
26C
100
AcDbEntity
  8
0
100
AcDbSpline
 62
7
  6
BYLAYER
 70
0
 71
3
 72
9
 73
5
 74
0
 42
0.0000001
 43
0.0000001
 44
0.0000000001
 40
0.0
 40
0.0
 40
0.0
 40
0.0
 40
0.5220974445
 40
1.0
 40
1.0
 40
1.0
 40
1.0
 10
17.5531011608
 20
34.1916654327
 30
0.0
 10
17.8013844255
 20
34.25767994
 30
0.0
 10
18.2653243591
 20
34.4358198981
 30
0.0
 10
18.6709599154
 20
34.7281193469
 30
0.0
 10
18.8366178703
 20
34.895028951
 30
0.0
  0
SPLINE
  5
26D
100
AcDbEntity
  8
0
100
AcDbSpline
 62
7
  6
BYLAYER
 70
0
 71
3
 72
11
 73
7
 74
0
 42
0.0000001
 43
0.0000001
 44
0.0000000001
 40
0.0
 40
0.0
 40
0.0
 40
0.0
 40
0.2664625532
 40
0.5297976179
 40
0.7781163129
 40
1.0
 40
1.0
 40
1.0
 40
1.0
 10
17.525337107
 20
75.0102267143
 30
0.0
 10
17.5244657032
 20
75.166138708
 30
0.0
 10
17.5108271007
 20
75.4760511387
 30
0.0
 10
17.4737819224
 20
75.929834103
 30
0.0
 10
17.436954262
 20
76.3574522064
 30
0.0
 10
17.4208246687
 20
76.632218496
 30
0.0
 10
17.4172568852
 20
76.7619995963
 30
0.0
  0
SPLINE
  5
26E
100
AcDbEntity
  8
0
100
AcDbSpline
 62
7
  6
BYLAYER
 70
0
 71
3
 72
15
 73
11
 74
0
 42
0.0000001
 43
0.0000001
 44
0.0000000001
 40
0.0
 40
0.0
 40
0.0
 40
0.0
 40
0.1594911485
 40
0.3122025552
 40
0.4547767832
 40
0.5851494832
 40
0.7027097051
 40
0.8085968869
 40
0.9060051982
 40
1.0
 40
1.0
 40
1.0
 40
1.0
 10
10.6034586587
 20
8.0239635859
 30
0.0
 10
10.3618940181
 20
8.0375832033
 30
0.0
 10
9.8899239508
 20
8.0863495777
 30
0.0
 10
9.213029168
 20
8.2259850957
 30
0.0
 10
8.5980649837
 20
8.4282856271
 30
0.0
 10
8.0636896902
 20
8.6891348739
 30
0.0
 10
7.6252420594
 20
9.0041897595
 30
0.0
 10
7.2959474902
 20
9.3690081075
 30
0.0
 10
7.0900484766
 20
9.7771150254
 30
0.0
 10
7.0439272297
 20
10.0695161443
 30
0.0
 10
7.0439272297
 20
10.2121063803
 30
0.0
  0
SPLINE
  5
26F
100
AcDbEntity
  8
0
100
AcDbSpline
 62
7
  6
BYLAYER
 70
0
 71
3
 72
14
 73
10
 74
0
 42
0.0000001
 43
0.0000001
 44
0.0000000001
 40
0.0
 40
0.0
 40
0.0
 40
0.0
 40
0.1171650812
 40
0.2356147745
 40
0.3562074416
 40
0.4797011828
 40
0.6063237271
 40
0.7358578849
 40
1.0
 40
1.0
 40
1.0
 40
1.0
 10
17.417171934
 20
76.7619995963
 30
0.0
 10
17.3668612723
 20
76.9538191874
 30
0.0
 10
17.2299806701
 20
77.3311928026
 30
0.0
 10
16.9225852252
 20
77.8535792916
 30
0.0
 10
16.5190898917
 20
78.3202239122
 30
0.0
 10
16.0305643392
 20
78.718655203
 30
0.0
 10
15.4700276457
 20
79.0388010526
 30
0.0
 10
14.6445119679
 20
79.3524687672
 30
0.0
 10
13.9725081922
 20
79.4470966218
 30
0.0
 10
13.5254347323
 20
79.4470966218
 30
0.0
  0
SPLINE
  5
270
100
AcDbEntity
  8
0
100
AcDbSpline
 62
7
  6
BYLAYER
 70
0
 71
3
 72
13
 73
9
 74
0
 42
0.0000001
 43
0.0000001
 44
0.0000000001
 40
0.0
 40
0.0
 40
0.0
 40
0.0
 40
0.2720756032
 40
0.5315026942
 40
0.6546939462
 40
0.7731170198
 40
0.8878599046
 40
1.0
 40
1.0
 40
1.0
 40
1.0
 10
11.0439272297
 20
79.4470966218
 30
0.0
 10
10.9267453549
 20
79.4470966218
 30
0.0
 10
10.6961934331
 20
79.485310315
 30
0.0
 10
10.4432117102
 20
79.6240209236
 30
0.0
 10
10.2910703469
 20
79.7789602358
 30
0.0
 10
10.2077118812
 20
79.9092478823
 30
0.0
 10
10.1560365921
 20
80.0499365001
 30
0.0
 10
10.1439272297
 20
80.1479929084
 30
0.0
 10
10.1439272297
 20
80.1962911992
 30
0.0
  0
SPLINE
  5
271
100
AcDbEntity
  8
0
100
AcDbSpline
 62
7
  6
BYLAYER
 70
0
 71
3
 72
11
 73
7
 74
0
 42
0.0000001
 43
0.0000001
 44
0.0000000001
 40
0.0
 40
0.0
 40
0.0
 40
0.0
 40
0.2236673868
 40
0.4656147785
 40
0.7246918876
 40
1.0
 40
1.0
 40
1.0
 40
1.0
 10
10.1496978589
 20
83.5029959812
 30
0.0
 10
10.1576825864
 20
83.3232200039
 30
0.0
 10
10.188335583
 20
82.9497059024
 30
0.0
 10
10.2438795313
 20
82.3693577606
 30
0.0
 10
10.2883560016
 20
81.746202207
 30
0.0
 10
10.2995286254
 20
81.3161862411
 30
0.0
 10
10.2995286254
 20
81.0946851123
 30
0.0
  0
SPLINE
  5
272
100
AcDbEntity
  8
0
100
AcDbSpline
 62
7
  6
BYLAYER
 70
0
 71
3
 72
9
 73
5
 74
0
 42
0.0000001
 43
0.0000001
 44
0.0000000001
 40
0.0
 40
0.0
 40
0.0
 40
0.0
 40
0.2446244041
 40
1.0
 40
1.0
 40
1.0
 40
1.0
 10
10.2995286254
 20
81.0946851123
 30
0.0
 10
10.2995286254
 20
81.0324900886
 30
0.0
 10
10.2976022993
 20
80.7782443117
 30
0.0
 10
10.2893477702
 20
80.5240666042
 30
0.0
 10
10.2803466764
 20
80.3322256641
 30
0.0
  0
SPLINE
  5
273
100
AcDbEntity
  8
0
100
AcDbSpline
 62
7
  6
BYLAYER
 70
0
 71
3
 72
10
 73
6
 74
0
 42
0.0000001
 43
0.0000001
 44
0.0000000001
 40
0.0
 40
0.0
 40
0.0
 40
0.0
 40
0.5258923649
 40
0.7734555231
 40
1.0
 40
1.0
 40
1.0
 40
1.0
 10
11.0439272297
 20
8.1369794522
 30
0.0
 10
10.9630817088
 20
8.1369794522
 30
0.0
 10
10.8431983386
 20
8.1260077305
 30
0.0
 10
10.6958218797
 20
8.0809721878
 30
0.0
 10
10.6307804633
 20
8.0457009537
 30
0.0
 10
10.6035845529
 20
8.0239458878
 30
0.0
  0
SPLINE
  5
274
100
AcDbEntity
  8
0
100
AcDbSpline
 62
7
  6
BYLAYER
 70
0
 71
3
 72
11
 73
7
 74
0
 42
0.0000001
 43
0.0000001
 44
0.0000000001
 40
0.0
 40
0.0
 40
0.0
 40
0.0
 40
0.2101314011
 40
0.4430196493
 40
0.7094403881
 40
1.0
 40
1.0
 40
1.0
 40
1.0
 10
19.0999426789
 20
80.0244499292
 30
0.0
 10
19.0999426789
 20
80.0173214031
 30
0.0
 10
19.0957401334
 20
80.0021129286
 30
0.0
 10
19.0789292356
 20
79.9839081601
 30
0.0
 10
19.0543013888
 20
79.9721530742
 30
0.0
 10
19.0352917159
 20
79.9693862215
 30
0.0
 10
19.0254347323
 20
79.9693862215
 30
0.0
  0
SPLINE
  5
275
100
AcDbEntity
  8
0
100
AcDbSpline
 62
7
  6
BYLAYER
 70
0
 71
3
 72
18
 73
14
 74
0
 42
0.0000001
 43
0.0000001
 44
0.0000000001
 40
0.0
 40
0.0
 40
0.0
 40
0.0
 40
0.063065863
 40
0.0933986467
 40
0.1233258505
 40
0.1828571682
 40
0.2426150268
 40
0.3638699387
 40
0.4878459892
 40
0.614280536
 40
0.7425339145
 40
0.8715857507
 40
1.0
 40
1.0
 40
1.0
 40
1.0
 10
13.5168236978
 20
76.6145638778
 30
0.0
 10
13.5572691115
 20
76.6145638778
 30
0.0
 10
13.6170839047
 20
76.593680328
 30
0.0
 10
13.6823264118
 20
76.549356959
 30
0.0
 10
13.7413671063
 20
76.4999337451
 30
0.0
 10
13.8085716269
 20
76.431601221
 30
0.0
 10
13.907609843
 20
76.3131908794
 30
0.0
 10
14.0203318692
 20
76.1529517759
 30
0.0
 10
14.1412811392
 20
75.9472889293
 30
0.0
 10
14.2467493791
 20
75.7282246514
 30
0.0
 10
14.3336320523
 20
75.497531809
 30
0.0
 10
14.3950390112
 20
75.2573745615
 30
0.0
 10
14.414348375
 20
75.0925558698
 30
0.0
 10
14.416397645
 20
75.0102267143
 30
0.0
  0
SPLINE
  5
276
100
AcDbEntity
  8
0
100
AcDbSpline
 62
7
  6
BYLAYER
 70
0
 71
3
 72
14
 73
10
 74
0
 42
0.0000001
 43
0.0000001
 44
0.0000000001
 40
0.0
 40
0.0
 40
0.0
 40
0.0
 40
0.109187225
 40
0.2206670078
 40
0.3360247454
 40
0.4566676762
 40
0.5834578125
 40
0.716602418
 40
1.0
 40
1.0
 40
1.0
 40
1.0
 10
18.8354347323
 20
64.5789245942
 30
0.0
 10
18.8354347323
 20
64.5038816785
 30
0.0
 10
18.8199619359
 20
64.3518179413
 30
0.0
 10
18.7518340408
 20
64.1297325956
 30
0.0
 10
18.6399168745
 20
63.9172826391
 30
0.0
 10
18.4871987696
 20
63.7188110324
 30
0.0
 10
18.2968434837
 20
63.5379811173
 30
0.0
 10
17.992161138
 20
63.3205475104
 30
0.0
 10
17.728169793
 20
63.2008224591
 30
0.0
 10
17.5433491959
 20
63.1393506194
 30
0.0
  0
SPLINE
  5
277
100
AcDbEntity
  8
0
100
AcDbSpline
 62
7
  6
BYLAYER
 70
0
 71
3
 72
10
 73
6
 74
0
 42
0.0000001
 43
0.0000001
 44
0.0000000001
 40
0.0
 40
0.0
 40
0.0
 40
0.0
 40
0.2352961201
 40
0.4848857274
 40
1.0
 40
1.0
 40
1.0
 40
1.0
 10
10.6035845468
 20
76.7619995963
 30
0.0
 10
10.6304146992
 20
76.7363342964
 30
0.0
 10
10.6942540745
 20
76.6922592007
 30
0.0
 10
10.8405298366
 20
76.6315210539
 30
0.0
 10
10.96264373
 20
76.6145638778
 30
0.0
 10
11.0439272297
 20
76.6145638778
 30
0.0
  0
SPLINE
  5
278
100
AcDbEntity
  8
0
100
AcDbSpline
 62
7
  6
BYLAYER
 70
0
 71
3
 72
9
 73
5
 74
0
 42
0.0000001
 43
0.0000001
 44
0.0000000001
 40
0.0
 40
0.0
 40
0.0
 40
0.0
 40
0.2238384556
 40
1.0
 40
1.0
 40
1.0
 40
1.0
 10
14.3684910157
 20
8.5346020512
 30
0.0
 10
14.365358386
 20
8.5346019102
 30
0.0
 10
14.3513630425
 20
8.5340803169
 30
0.0
 10
14.337479587
 20
8.5318213727
 30
0.0
 10
14.3268552264
 20
8.5295597203
 30
0.0
  0
SPLINE
  5
279
100
AcDbEntity
  8
0
100
AcDbSpline
 62
7
  6
BYLAYER
 70
0
 71
3
 72
16
 73
12
 74
0
 42
0.0000001
 43
0.0000001
 44
0.0000000001
 40
0.0
 40
0.0
 40
0.0
 40
0.0
 40
0.0722345429
 40
0.1609051113
 40
0.3812492762
 40
0.5106857297
 40
0.6528564869
 40
0.7295524925
 40
0.8111156091
 40
0.9003896886
 40
1.0
 40
1.0
 40
1.0
 40
1.0
 10
14.3268552264
 20
8.5295597203
 30
0.0
 10
14.3054886372
 20
8.5250113244
 30
0.0
 10
14.258902477
 20
8.5102808642
 30
0.0
 10
14.1530807772
 20
8.4642878701
 30
0.0
 10
14.0376330902
 20
8.3984195795
 30
0.0
 10
13.9116916395
 20
8.3192962848
 30
0.0
 10
13.8232165655
 20
8.2620947364
 30
0.0
 10
13.7454360199
 20
8.2151313541
 30
0.0
 10
13.679786651
 20
8.179022492
 30
0.0
 10
13.6041736131
 20
8.1473116451
 30
0.0
 10
13.546948087
 20
8.1369794522
 30
0.0
 10
13.5168236978
 20
8.1369794522
 30
0.0
  0
SPLINE
  5
27A
100
AcDbEntity
  8
0
100
AcDbSpline
 62
7
  6
BYLAYER
 70
0
 71
3
 72
14
 73
10
 74
0
 42
0.0000001
 43
0.0000001
 44
0.0000000001
 40
0.0
 40
0.0
 40
0.0
 40
0.0
 40
0.1033326157
 40
0.2104956344
 40
0.3242019932
 40
0.4460271759
 40
0.5760544023
 40
0.7131846368
 40
1.0
 40
1.0
 40
1.0
 40
1.0
 10
21.4254347323
 20
77.8866742162
 30
0.0
 10
21.4254347323
 20
77.9980659589
 30
0.0
 10
21.393020039
 20
78.2261159626
 30
0.0
 10
21.2516279808
 20
78.5497653639
 30
0.0
 10
21.0245639792
 20
78.8452503027
 30
0.0
 10
20.7223970883
 20
79.1020830257
 30
0.0
 10
20.356681313
 20
79.3116586579
 30
0.0
 10
19.7956829946
 20
79.5215239534
 30
0.0
 10
19.3346194263
 20
79.583730491
 30
0.0
 10
19.0254347323
 20
79.583730491
 30
0.0
  0
SPLINE
  5
27B
100
AcDbEntity
  8
0
100
AcDbSpline
 62
7
  6
BYLAYER
 70
0
 71
3
 72
15
 73
11
 74
0
 42
0.0000001
 43
0.0000001
 44
0.0000000001
 40
0.0
 40
0.0
 40
0.0
 40
0.0
 40
0.1121970094
 40
0.227512906
 40
0.3468094734
 40
0.4704195044
 40
0.5981840928
 40
0.7295932322
 40
0.8638830081
 40
1.0
 40
1.0
 40
1.0
 40
1.0
 10
7.0439272297
 20
80.1962911992
 30
0.0
 10
7.0439272297
 20
79.9945564354
 30
0.0
 10
7.0901085746
 20
79.5842584911
 30
0.0
 10
7.2894774841
 20
78.9890765212
 30
0.0
 10
7.6118102173
 20
78.4268499429
 30
0.0
 10
8.046289551
 20
77.9167254068
 30
0.0
 10
8.5801451471
 20
77.4769044357
 30
0.0
 10
9.1976119556
 20
77.1246353625
 30
0.0
 10
9.8792435071
 20
76.8755799389
 30
0.0
 10
10.3599358394
 20
76.7864479959
 30
0.0
 10
10.6034587211
 20
76.7620315419
 30
0.0
  0
SPLINE
  5
27C
100
AcDbEntity
  8
0
100
AcDbSpline
 62
7
  6
BYLAYER
 70
0
 71
3
 72
14
 73
10
 74
0
 42
0.0000001
 43
0.0000001
 44
0.0000000001
 40
0.0
 40
0.0
 40
0.0
 40
0.0
 40
0.107924652
 40
0.218394571
 40
0.3331992893
 40
0.4538426511
 40
0.5811044383
 40
0.7150466852
 40
1.0
 40
1.0
 40
1.0
 40
1.0
 10
19.3354347323
 20
33.8197796126
 30
0.0
 10
19.3354347323
 20
33.7215465746
 30
0.0
 10
19.3137001619
 20
33.522159569
 30
0.0
 10
19.218085889
 20
33.2322236092
 30
0.0
 10
19.0615789345
 20
32.9568142402
 30
0.0
 10
18.8487972548
 20
32.702350576
 30
0.0
 10
18.5849236395
 20
32.4739895911
 30
0.0
 10
18.1648892844
 20
32.2057648786
 30
0.0
 10
17.8044877494
 20
32.0665340326
 30
0.0
 10
17.5538473547
 20
31.9998304548
 30
0.0
  0
SPLINE
  5
27D
100
AcDbEntity
  8
0
100
AcDbSpline
 62
7
  6
BYLAYER
 70
0
 71
3
 72
9
 73
5
 74
0
 42
0.0000001
 43
0.0000001
 44
0.0000000001
 40
0.0
 40
0.0
 40
0.0
 40
0.0
 40
0.4663690314
 40
1.0
 40
1.0
 40
1.0
 40
1.0
 10
12.0165950007
 20
79.4893674016
 30
0.0
 10
12.1194207671
 20
79.5358108511
 30
0.0
 10
12.3520733788
 20
79.6090612088
 30
0.0
 10
12.5946098814
 20
79.6346712074
 30
0.0
 10
12.7237103381
 20
79.6346712074
 30
0.0
  0
SPLINE
  5
27E
100
AcDbEntity
  8
0
100
AcDbSpline
 62
7
  6
BYLAYER
 70
0
 71
3
 72
14
 73
10
 74
0
 42
0.0000001
 43
0.0000001
 44
0.0000000001
 40
0.0
 40
0.0
 40
0.0
 40
0.0
 40
0.107924652
 40
0.218394571
 40
0.3331992893
 40
0.4538426511
 40
0.5811044383
 40
0.7150466852
 40
1.0
 40
1.0
 40
1.0
 40
1.0
 10
19.3354347323
 20
76.2461864838
 30
0.0
 10
19.3354347323
 20
76.1479534458
 30
0.0
 10
19.3137001619
 20
75.9485664402
 30
0.0
 10
19.218085889
 20
75.6586304804
 30
0.0
 10
19.0615789345
 20
75.3832211114
 30
0.0
 10
18.8487972548
 20
75.1287574472
 30
0.0
 10
18.5849236395
 20
74.9003964623
 30
0.0
 10
18.1648892844
 20
74.6321717498
 30
0.0
 10
17.8044877494
 20
74.4929409038
 30
0.0
 10
17.5538473547
 20
74.426237326
 30
0.0
  0
SPLINE
  5
27F
100
AcDbEntity
  8
0
100
AcDbSpline
 62
7
  6
BYLAYER
 70
0
 71
3
 72
9
 73
5
 74
0
 42
0.0000001
 43
0.0000001
 44
0.0000000001
 40
0.0
 40
0.0
 40
0.0
 40
0.0
 40
0.3222918735
 40
1.0
 40
1.0
 40
1.0
 40
1.0
 10
28.0254347323
 20
49.8198310103
 30
0.0
 10
28.3992741772
 20
49.8239731846
 30
0.0
 10
29.5591842527
 20
49.8564210407
 30
0.0
 10
30.7168088482
 20
49.9478393101
 30
0.0
 10
31.4981750924
 20
50.0351108615
 30
0.0
  0
SPLINE
  5
280
100
AcDbEntity
  8
0
100
AcDbSpline
 62
7
  6
BYLAYER
 70
0
 71
3
 72
13
 73
9
 74
0
 42
0.0000001
 43
0.0000001
 44
0.0000000001
 40
0.0
 40
0.0
 40
0.0
 40
0.0
 40
0.2586191757
 40
0.503087589
 40
0.62155692
 40
0.7392631122
 40
0.8602151961
 40
1.0
 40
1.0
 40
1.0
 40
1.0
 10
24.3308405508
 20
18.0749034225
 30
0.0
 10
25.0234549453
 20
17.5733744068
 30
0.0
 10
26.4206001331
 20
16.6633669555
 30
0.0
 10
28.2775365483
 20
15.7656059755
 30
0.0
 10
29.7801992736
 20
15.2434511132
 30
0.0
 10
30.9253719112
 20
14.9492200081
 30
0.0
 10
32.1621499593
 20
14.7481821195
 30
0.0
 10
33.0251204511
 20
14.6989017681
 30
0.0
 10
33.4873215842
 20
14.6989017681
 30
0.0
  0
SPLINE
  5
281
100
AcDbEntity
  8
0
100
AcDbSpline
 62
7
  6
BYLAYER
 70
0
 71
3
 72
15
 73
11
 74
0
 42
0.0000001
 43
0.0000001
 44
0.0000000001
 40
0.0
 40
0.0
 40
0.0
 40
0.0
 40
0.1249808981
 40
0.2500015967
 40
0.375003231
 40
0.5
 40
0.624996769
 40
0.7499984033
 40
0.8750191019
 40
1.0
 40
1.0
 40
1.0
 40
1.0
 10
54.0804767249
 20
35.261034412
 30
0.0
 10
54.1601623987
 20
35.0356155769
 30
0.0
 10
54.3023922506
 20
34.5783892368
 30
0.0
 10
54.4591042188
 20
33.8775041372
 30
0.0
 10
54.5550649592
 20
33.1655973166
 30
0.0
 10
54.58730862
 20
32.4479924571
 30
0.0
 10
54.5550649592
 20
31.7303875977
 30
0.0
 10
54.4591042188
 20
31.0184807771
 30
0.0
 10
54.3023922506
 20
30.3175956774
 30
0.0
 10
54.1601623987
 20
29.8603693374
 30
0.0
 10
54.0804767249
 20
29.6349505022
 30
0.0
  0
SPLINE
  5
282
100
AcDbEntity
  8
0
100
AcDbSpline
 62
7
  6
BYLAYER
 70
0
 71
3
 72
15
 73
11
 74
0
 42
0.0000001
 43
0.0000001
 44
0.0000000001
 40
0.0
 40
0.0
 40
0.0
 40
0.0
 40
0.1320483999
 40
0.2618390469
 40
0.3891095298
 40
0.5139652338
 40
0.6367475167
 40
0.7580786481
 40
0.8788491009
 40
1.0
 40
1.0
 40
1.0
 40
1.0
 10
17.5254347323
 20
28.4763576688
 30
0.0
 10
17.6385096468
 20
27.9259200525
 30
0.0
 10
17.9108134661
 20
26.8436505493
 30
0.0
 10
18.4586577853
 20
25.2786973737
 30
0.0
 10
19.1375229703
 20
23.7992897735
 30
0.0
 10
19.9413997134
 20
22.4182044363
 30
0.0
 10
20.8649983656
 20
21.1450384929
 30
0.0
 10
21.9050236349
 20
19.9880445025
 30
0.0
 10
23.0580363254
 20
18.9540986748
 30
0.0
 10
23.8964298404
 20
18.3525488842
 30
0.0
 10
24.3308405508
 20
18.0749034225
 30
0.0
  0
SPLINE
  5
283
100
AcDbEntity
  8
0
100
AcDbSpline
 62
7
  6
BYLAYER
 70
0
 71
3
 72
13
 73
9
 74
0
 42
0.0000001
 43
0.0000001
 44
0.0000000001
 40
0.0
 40
0.0
 40
0.0
 40
0.0
 40
0.1236733984
 40
0.2468932328
 40
0.3700826709
 40
0.4937134662
 40
0.7438687687
 40
1.0
 40
1.0
 40
1.0
 40
1.0
 10
42.6438026175
 20
18.0749034225
 30
0.0
 10
42.9441386326
 20
18.2668575562
 30
0.0
 10
43.5296950823
 20
18.6725316916
 30
0.0
 10
44.359297699
 20
19.3444172489
 30
0.0
 10
45.136351234
 20
20.0763892546
 30
0.0
 10
46.1043881841
 20
21.1335895946
 30
0.0
 10
47.1807588991
 20
22.6035791035
 30
0.0
 10
47.87421166
 20
23.8931532436
 30
0.0
 10
48.1811161388
 20
24.5645246883
 30
0.0
  0
SPLINE
  5
284
100
AcDbEntity
  8
0
100
AcDbSpline
 62
7
  6
BYLAYER
 70
0
 71
3
 72
18
 73
14
 74
0
 42
0.0000001
 43
0.0000001
 44
0.0000000001
 40
0.0
 40
0.0
 40
0.0
 40
0.0
 40
0.2484029847
 40
0.3731041169
 40
0.4355610583
 40
0.4980893473
 40
0.5606776697
 40
0.6233148944
 40
0.6860098234
 40
0.7487556315
 40
0.811533023
 40
0.8743621616
 40
1.0
 40
1.0
 40
1.0
 40
1.0
 10
48.1811860433
 20
40.331478603
 30
0.0
 10
47.3147040623
 20
39.9139202545
 30
0.0
 10
46.0067846226
 20
39.2995899321
 30
0.0
 10
44.458002018
 20
38.6314616966
 30
0.0
 10
43.56156598
 20
38.2692243569
 30
0.0
 10
42.8834205816
 20
38.009023446
 30
0.0
 10
42.1992011536
 20
37.7631013971
 30
0.0
 10
41.5081930095
 20
37.5348049295
 30
0.0
 10
40.8099890691
 20
37.3272865672
 30
0.0
 10
40.1043402864
 20
37.1443796697
 30
0.0
 10
39.3910982849
 20
36.9907310589
 30
0.0
 10
38.4311516788
 20
36.8314945059
 30
0.0
 10
37.7020650472
 20
36.7686968977
 30
0.0
 10
37.2157445306
 20
36.7560763167
 30
0.0
  0
SPLINE
  5
285
100
AcDbEntity
  8
0
100
AcDbSpline
 62
7
  6
BYLAYER
 70
0
 71
3
 72
14
 73
10
 74
0
 42
0.0000001
 43
0.0000001
 44
0.0000000001
 40
0.0
 40
0.0
 40
0.0
 40
0.0
 40
0.2502638652
 40
0.3751822033
 40
0.5000001738
 40
0.6247832629
 40
0.7496237062
 40
0.8746448984
 40
1.0
 40
1.0
 40
1.0
 40
1.0
 10
48.1811860433
 20
40.331478603
 30
0.0
 10
48.7578856018
 20
40.018723761
 30
0.0
 10
49.6052862021
 20
39.5164892059
 30
0.0
 10
50.684557083
 20
38.7720441988
 30
0.0
 10
51.4633507697
 20
38.1734037851
 30
0.0
 10
52.2055064067
 20
37.5300231009
 30
0.0
 10
52.90213747
 20
36.8363979863
 30
0.0
 10
53.5400011237
 20
36.0860489961
 30
0.0
 10
53.9124820906
 20
35.5434563633
 30
0.0
 10
54.0804767249
 20
35.2610356862
 30
0.0
  0
SPLINE
  5
286
100
AcDbEntity
  8
0
100
AcDbSpline
 62
7
  6
BYLAYER
 70
0
 71
3
 72
23
 73
19
 74
0
 42
0.0000001
 43
0.0000001
 44
0.0000000001
 40
0.0
 40
0.0
 40
0.0
 40
0.0
 40
0.0621298175
 40
0.1242290906
 40
0.186413319
 40
0.2488210267
 40
0.3115102059
 40
0.3744481195
 40
0.4375255769
 40
0.5006060974
 40
0.5635491192
 40
0.6262457324
 40
0.688662939
 40
0.750863169
 40
0.8129574951
 40
0.875090199
 40
0.9374225874
 40
1.0
 40
1.0
 40
1.0
 40
1.0
 10
37.2157445306
 20
36.7558960636
 30
0.0
 10
37.0279975827
 20
37.0354563288
 30
0.0
 10
36.6123385818
 20
37.5686292304
 30
0.0
 10
35.8807559001
 20
38.2703903437
 30
0.0
 10
35.0545302549
 20
38.8606854519
 30
0.0
 10
34.1499439313
 20
39.3287015316
 30
0.0
 10
33.1851501704
 20
39.6671217241
 30
0.0
 10
32.1799314998
 20
39.8721103334
 30
0.0
 10
31.1543061218
 20
39.9413240845
 30
0.0
 10
30.1285214825
 20
39.8741486308
 30
0.0
 10
29.1227967393
 20
39.6712140579
 30
0.0
 10
28.1572184347
 20
39.3347100809
 30
0.0
 10
27.2513741847
 20
38.8687346801
 30
0.0
 10
26.4237828296
 20
38.2802089846
 30
0.0
 10
25.6906221947
 20
37.5797610583
 30
0.0
 10
25.0651860627
 20
36.780760909
 30
0.0
 10
24.5575761892
 20
35.8995632831
 30
0.0
 10
24.3020120052
 20
35.270014764
 30
0.0
 10
24.1955022425
 20
34.9479924571
 30
0.0
  0
SPLINE
  5
287
100
AcDbEntity
  8
0
100
AcDbSpline
 62
7
  6
BYLAYER
 70
0
 71
3
 72
18
 73
14
 74
0
 42
0.0000001
 43
0.0000001
 44
0.0000000001
 40
0.0
 40
0.0
 40
0.0
 40
0.0
 40
0.1256376758
 40
0.1884665493
 40
0.2512439391
 40
0.3139898053
 40
0.376684652
 40
0.4393219257
 40
0.5019103541
 40
0.5644386667
 40
0.6268956321
 40
0.7515968626
 40
1.0
 40
1.0
 40
1.0
 40
1.0
 10
37.2157445306
 20
28.1399085976
 30
0.0
 10
37.7020638127
 20
28.1272880487
 30
0.0
 10
38.4311481869
 20
28.0644929268
 30
0.0
 10
39.3910913241
 20
27.9052528741
 30
0.0
 10
40.1043317685
 20
27.7516055258
 30
0.0
 10
40.8099803979
 20
27.5687021224
 30
0.0
 10
41.5081845758
 20
27.3611872628
 30
0.0
 10
42.1991912605
 20
27.1328882133
 30
0.0
 10
42.8834093052
 20
26.8869630521
 30
0.0
 10
43.5615551554
 20
26.6267642217
 30
0.0
 10
44.4579907517
 20
26.2645274493
 30
0.0
 10
46.0067723724
 20
25.5963995669
 30
0.0
 10
47.3146913632
 20
24.9820702434
 30
0.0
 10
48.1811729346
 20
24.5645124404
 30
0.0
  0
SPLINE
  5
288
100
AcDbEntity
  8
0
100
AcDbSpline
 62
7
  6
BYLAYER
 70
0
 71
3
 72
14
 73
10
 74
0
 42
0.0000001
 43
0.0000001
 44
0.0000000001
 40
0.0
 40
0.0
 40
0.0
 40
0.0
 40
0.2502634496
 40
0.3751817573
 40
0.4999996572
 40
0.6247828008
 40
0.7496234686
 40
0.8746448163
 40
1.0
 40
1.0
 40
1.0
 40
1.0
 10
48.1811729346
 20
24.5645124404
 30
0.0
 10
48.757869744
 20
24.8772715067
 30
0.0
 10
49.6052825156
 20
25.3794850625
 30
0.0
 10
50.6845490005
 20
26.1239371073
 30
0.0
 10
51.4633451926
 20
26.7225754815
 30
0.0
 10
52.2055018569
 20
27.3659575232
 30
0.0
 10
52.9021347021
 20
28.0595838684
 30
0.0
 10
53.5400000788
 20
28.8099343607
 30
0.0
 10
53.9124818047
 20
29.3525280704
 30
0.0
 10
54.0804767249
 20
29.6349492281
 30
0.0
  0
SPLINE
  5
289
100
AcDbEntity
  8
0
100
AcDbSpline
 62
7
  6
BYLAYER
 70
0
 71
3
 72
13
 73
9
 74
0
 42
0.0000001
 43
0.0000001
 44
0.0000000001
 40
0.0
 40
0.0
 40
0.0
 40
0.0
 40
0.256132111
 40
0.5062861863
 40
0.6299169937
 40
0.7531059403
 40
0.8763258586
 40
1.0
 40
1.0
 40
1.0
 40
1.0
 10
48.1811216139
 20
40.331462748
 30
0.0
 10
47.874205993
 20
41.0028324929
 30
0.0
 10
47.1807336369
 20
42.2923997164
 30
0.0
 10
46.1043224927
 20
43.7623508184
 30
0.0
 10
45.136384656
 20
44.8196336979
 30
0.0
 10
44.3593744655
 20
45.5516554702
 30
0.0
 10
43.529723693
 20
46.2234881857
 30
0.0
 10
42.9441406611
 20
46.6291260616
 30
0.0
 10
42.6438026175
 20
46.8210814918
 30
0.0
  0
SPLINE
  5
28A
100
AcDbEntity
  8
0
100
AcDbSpline
 62
7
  6
BYLAYER
 70
0
 71
3
 72
15
 73
11
 74
0
 42
0.0000001
 43
0.0000001
 44
0.0000000001
 40
0.0
 40
0.0
 40
0.0
 40
0.0
 40
0.1211516086
 40
0.2419193847
 40
0.3632478155
 40
0.4860303425
 40
0.6108876931
 40
0.7381605252
 40
0.8679508937
 40
1.0
 40
1.0
 40
1.0
 40
1.0
 10
24.3308405508
 20
46.8210814918
 30
0.0
 10
23.8964269826
 20
46.5434342035
 30
0.0
 10
23.0580304237
 20
45.9418929386
 30
0.0
 10
21.9052223542
 20
44.9077335294
 30
0.0
 10
20.8653944828
 20
43.7506142309
 30
0.0
 10
19.9414793112
 20
42.4776928303
 30
0.0
 10
19.1373430041
 20
41.0967326717
 30
0.0
 10
18.4581208465
 20
39.6174697984
 30
0.0
 10
17.9103201029
 20
38.0524569476
 30
0.0
 10
17.6385103333
 20
36.9700682039
 30
0.0
 10
17.5254347323
 20
36.4196272455
 30
0.0
  0
SPLINE
  5
28B
100
AcDbEntity
  8
0
100
AcDbSpline
 62
7
  6
BYLAYER
 70
0
 71
3
 72
11
 73
7
 74
0
 42
0.0000001
 43
0.0000001
 44
0.0000000001
 40
0.0
 40
0.0
 40
0.0
 40
0.0
 40
0.240237422
 40
0.4830717736
 40
0.7354594846
 40
1.0
 40
1.0
 40
1.0
 40
1.0
 10
31.4977937415
 20
50.0350714822
 30
0.0
 10
30.8716461989
 20
49.9331767746
 30
0.0
 10
29.6264663778
 20
49.6332363317
 30
0.0
 10
27.8119225669
 20
48.9278941541
 30
0.0
 10
26.0355508848
 20
47.9871320851
 30
0.0
 10
24.896641433
 20
47.2307835739
 30
0.0
 10
24.3308405508
 20
46.8210814918
 30
0.0
  0
SPLINE
  5
28C
100
AcDbEntity
  8
0
100
AcDbSpline
 62
7
  6
BYLAYER
 70
0
 71
3
 72
13
 73
9
 74
0
 42
0.0000001
 43
0.0000001
 44
0.0000000001
 40
0.0
 40
0.0
 40
0.0
 40
0.0
 40
0.2586191757
 40
0.503087589
 40
0.62155692
 40
0.7392631122
 40
0.8602151961
 40
1.0
 40
1.0
 40
1.0
 40
1.0
 10
42.6438026175
 20
46.8210814918
 30
0.0
 10
41.9511882231
 20
47.3226105074
 30
0.0
 10
40.5540430353
 20
48.2326179588
 30
0.0
 10
38.6971066201
 20
49.1303789388
 30
0.0
 10
37.1944438948
 20
49.6525338011
 30
0.0
 10
36.0492712572
 20
49.9467649061
 30
0.0
 10
34.812493209
 20
50.1478027947
 30
0.0
 10
33.9495227172
 20
50.1970831461
 30
0.0
 10
33.4873215842
 20
50.1970831461
 30
0.0
  0
SPLINE
  5
28D
100
AcDbEntity
  8
0
100
AcDbSpline
 62
7
  6
BYLAYER
 70
0
 71
3
 72
23
 73
19
 74
0
 42
0.0000001
 43
0.0000001
 44
0.0000000001
 40
0.0
 40
0.0
 40
0.0
 40
0.0
 40
0.062577729
 40
0.1249096879
 40
0.1870411111
 40
0.2491341749
 40
0.3113335552
 40
0.373750723
 40
0.4364482642
 40
0.4993925931
 40
0.5624742896
 40
0.6255525643
 40
0.6884907314
 40
0.7511795706
 40
0.8135866811
 40
0.8757703584
 40
0.93786974
 40
1.0
 40
1.0
 40
1.0
 40
1.0
 10
24.1955022439
 20
29.9479924571
 30
0.0
 10
24.3020125023
 20
29.6259686515
 30
0.0
 10
24.5575772931
 20
28.9964214364
 30
0.0
 10
25.0651804833
 20
28.1152291291
 30
0.0
 10
25.690611014
 20
27.3162449538
 30
0.0
 10
26.4237657834
 20
26.6158184993
 30
0.0
 10
27.251341854
 20
26.0272948649
 30
0.0
 10
28.1571710789
 20
25.5612905303
 30
0.0
 10
29.1227592655
 20
25.2247759939
 30
0.0
 10
30.1285022039
 20
25.0218408522
 30
0.0
 10
31.1543038599
 20
24.9546597608
 30
0.0
 10
32.1799414801
 20
25.0238736435
 30
0.0
 10
33.1851623291
 20
25.2288691307
 30
0.0
 10
34.149952221
 20
25.5672872097
 30
0.0
 10
35.0545308941
 20
26.035299848
 30
0.0
 10
35.8807505167
 20
26.6255930755
 30
0.0
 10
36.6123318373
 20
27.327354506
 30
0.0
 10
37.0279963207
 20
27.8605266489
 30
0.0
 10
37.2157445306
 20
28.1400887925
 30
0.0
  0
SPLINE
  5
28E
100
AcDbEntity
  8
0
100
AcDbSpline
 62
7
  6
BYLAYER
 70
0
 71
3
 72
13
 73
9
 74
0
 42
0.0000001
 43
0.0000001
 44
0.0000000001
 40
0.0
 40
0.0
 40
0.0
 40
0.0
 40
0.2586192427
 40
0.5030876252
 40
0.6215569345
 40
0.7392631036
 40
0.8602151409
 40
1.0
 40
1.0
 40
1.0
 40
1.0
 10
42.6438026175
 20
18.0749034225
 30
0.0
 10
41.9511880438
 20
17.573374277
 30
0.0
 10
40.5540427431
 20
16.6633667726
 30
0.0
 10
38.6971062563
 20
15.7656058369
 30
0.0
 10
37.1944437621
 20
15.2434510721
 30
0.0
 10
36.0492714129
 20
14.9492200635
 30
0.0
 10
34.8124934213
 20
14.7481821415
 30
0.0
 10
33.9495228998
 20
14.6989017681
 30
0.0
 10
33.4873215842
 20
14.6989017681
 30
0.0
  0
ELLIPSE
  5
28F
100
AcDbEntity
  8
0
100
AcDbEllipse
 62
7
  6
BYLAYER
 10
-494.6277221834
 20
32.4479924571
 30
0.0
 11
519.9198861531
 21
-0.0
 31
0.0
 40
0.0413184757
 41
0.116639185
 42
0.1730644986
  0
ELLIPSE
  5
290
100
AcDbEntity
  8
0
100
AcDbEllipse
 62
7
  6
BYLAYER
 10
-494.6277221834
 20
32.4479924571
 30
0.0
 11
519.9198861531
 21
-0.0
 31
0.0
 40
0.0413184757
 41
-0.1730644986
 42
-0.116639185
  0
ENDSEC
  0
SECTION
  2
OBJECTS
  0
DICTIONARY
  5
C
100
AcDbDictionary
280
0
281
1
  3
ACAD_GROUP
350
D
  3
ACAD_MLINESTYLE
350
17
  3
ACAD_LAYOUT
350
1A
  3
ACAD_PLOTSETTINGS
350
19
  3
ACAD_PLOTSTYLENAME
350
E
  0
DICTIONARY
  5
D
102
{ACAD_REACTORS
330
C
102
}
100
AcDbDictionary
280
0
281
1
  0
ACDBDICTIONARYWDFLT
  5
E
102
{ACAD_REACTORS
330
C
102
}
100
AcDbDictionary
281
1
  3
Normal
350
F
100
AcDbDictionaryWithDefault
340
F
  0
DICTIONARY
  5
17
102
{ACAD_REACTORS
330
C
102
}
100
AcDbDictionary
280
0
281
1
  3
Standard
350
18
  0
DICTIONARY
  5
19
102
{ACAD_REACTORS
330
C
102
}
100
AcDbDictionary
281
1
  0
DICTIONARY
  5
1A
102
{ACAD_REACTORS
330
C
102
}
100
AcDbDictionary
281
1
  3
Model
350
291
  3
Layout1
350
292
  0
ACDBPLACEHOLDER
  5
F
102
{ACAD_REACTORS
330
E
102
}
  0
MLINESTYLE
  5
18
102
{ACAD_REACTORS
330
17
102
}
100
AcDbMlineStyle
  2
STANDARD
 70
0
  3

 62
256
 51
90.0
 52
90.0
 71
2
 49
0.5
 62
256
  6
BYLAYER
 49
-0.5
 62
256
  6
BYLAYER
  0
LAYOUT
  5
291
102
{ACAD_REACTORS
330
1A
102
}
100
AcDbPlotSettings
  1

  2
none_device
  4

  6

 40
0.0
 41
0.0
 42
0.0
 43
0.0
 44
210.0
 45
297.0
 46
0.0
 47
0.0
 48
0.0
 49
0.0
140
0.0
141
0.0
142
1.0
143
1.0
 70
1024
 72
1
 73
0
 74
0
  7

 75
0
147
1.0
148
0.0
149
0.0
100
AcDbLayout
  1
Model
 70
0
 71
0
 10
0.0
 20
0.0
 11
210.0
 21
297.0
 12
0.0
 22
0.0
 32
0.0
 14
0.0
 24
0.0
 34
0.0
 15
0.0
 25
0.0
 35
0.0
146
0.0
 13
0.0
 23
0.0
 33
0.0
 16
1.0
 26
0.0
 36
0.0
 17
0.0
 27
1.0
 37
0.0
 76
0
330
210
345
0
346
0
  0
LAYOUT
  5
292
102
{ACAD_REACTORS
330
1A
102
}
100
AcDbPlotSettings
  1

  2
none_device
  4

  6

 40
0.0
 41
0.0
 42
0.0
 43
0.0
 44
210.0
 45
297.0
 46
0.0
 47
0.0
 48
0.0
 49
0.0
140
0.0
141
0.0
142
1.0
143
1.0
 70
0
 72
1
 73
0
 74
0
  7

 75
0
147
1.0
148
0.0
149
0.0
100
AcDbLayout
  1
Layout1
 70
0
 71
1
 10
0.0
 20
0.0
 11
210.0
 21
297.0
 12
0.0
 22
0.0
 32
0.0
 14
0.0
 24
0.0
 34
0.0
 15
0.0
 25
0.0
 35
0.0
146
0.0
 13
0.0
 23
0.0
 33
0.0
 16
1.0
 26
0.0
 36
0.0
 17
0.0
 27
1.0
 37
0.0
 76
0
330
211
345
0
346
0
  0
ENDSEC
  0
EOF
