999
DXF file: C:\Users\sesa63760\Dev\_Creo\CAD\MCADID0004742_3D-CAD\drw0001_6.dxf
999
Pro/ENGINEER 2019471 by Parametric Technology Corporation
  0
SECTION
  2
HEADER
  9
$ACADVER
  1
AC1024
  9
$DWGCODEPAGE
  3
ANSI_1252
  9
$EXTMAX
 10
32.1024970216
 20
45.4021029305
 30
0.0
  9
$EXTMIN
 10
0.0
 20
0.0
 30
0.0
  9
$LIMMIN
 10
0.0
 20
0.0
  9
$LIMMAX
 10
32.1024970216
 20
45.4021029305
  9
$VIEWCTR
 10
16.0512485108
 20
22.7010514653
  9
$VIEWSIZE
 40
45.4021029305
  9
$CLAYER
  8
0
  9
$LTSCALE
 40
2.9595444873
  9
$CELTYPE
  6
BYLAYER
  9
$DIMSCALE
 40
1.0
  9
$DIMASZ
 40
0.3821725836
  9
$DIMEXO
 40
1.0
  9
$DIMDLI
 40
2.0447761912
  9
$DIMEXE
 40
1.0
  9
$DIMCEN
 40
0.4842890979
  9
$DIMLFAC
 40
1.0
  9
$DIMBLK
  1
_FILLED
  9
$DIMALT
 70
0
  9
$DIMALTF
 40
0.0393700787
  9
$DIMTXT
 40
0.535041617
  9
$DIMTOL
 70
1
  9
$DIMLIM
 70
0
  9
$DIMTFAC
 40
1.0
  9
$DIMTP
 40
0.01
  9
$DIMTM
 40
0.01
  9
$DIMGAP
 40
0.625
  9
$DIMDSEP
 70
46
  9
$AUNITS
 70
0
  9
$PDMODE
 70
3
  9
$PDSIZE
 40
0.3125
  9
$HANDSEED
  5
2EC
  9
$TILEMODE
 70
1
  9
$MEASUREMENT
 70
1
  9
$INSUNITS
 70
4
  0
ENDSEC
  0
SECTION
  2
CLASSES
  0
CLASS
  1
ACDBDICTIONARYWDFLT
  2
AcDbDictionaryWithDefault
  3
AutoCAD 2000
 90
0
 91
1
280
0
281
0
  0
CLASS
  1
ACDBPLACEHOLDER
  2
AcDbPlaceHolder
  3
AutoCAD 2000
 90
0
 91
1
280
0
281
0
  0
CLASS
  1
LAYOUT
  2
AcDbLayout
  3
AutoCAD 2000
 90
0
 91
0
280
0
281
0
  0
ENDSEC
  0
SECTION
  2
TABLES
  0
TABLE
  2
VPORT
  5
8
100
AcDbSymbolTable
 70
2
  0
VPORT
  5
1F4
100
AcDbSymbolTableRecord
100
AcDbViewportTableRecord
  2
*ACTIVE
 70
0
 10
0.0
 20
0.0
 11
1.0
 21
1.0
 12
16.0512485108
 22
22.7010514653
 13
0.0
 23
0.0
 14
1.0
 24
1.0
 15
0.0
 25
0.0
 16
0.0
 26
0.0
 36
1.0
 17
0.0
 27
0.0
 37
0.0
 40
45.4021029305
 41
0.7070707071
 42
50.0
 43
0.0
 44
0.0
 50
0.0
 51
0.0
 71
0
 72
100
 73
1
 74
1
 75
0
 76
0
 77
0
 78
0
  0
ENDTAB
  0
TABLE
  2
LTYPE
  5
5
100
AcDbSymbolTable
 70
6
  0
LTYPE
  5
14
100
AcDbSymbolTableRecord
100
AcDbLinetypeTableRecord
  2
BYBLOCK
 70
0
  3

 72
65
 73
0
 40
0.0
  0
LTYPE
  5
15
100
AcDbSymbolTableRecord
100
AcDbLinetypeTableRecord
  2
BYLAYER
 70
0
  3

 72
65
 73
0
 40
0.0
  0
LTYPE
  5
16
100
AcDbSymbolTableRecord
100
AcDbLinetypeTableRecord
  2
CONTINUOUS
 70
64
  3
Solid line
 72
65
 73
0
 40
0.0
  0
LTYPE
  5
1F5
100
AcDbSymbolTableRecord
100
AcDbLinetypeTableRecord
  2
CENTER
 70
64
  3
____ _ ____ _ ____ _ ____ _ ____ _ ____ _ ____
 72
65
 73
4
 40
0.6
 49
0.375
 74
0
 49
-0.075
 74
0
 49
0.075
 74
0
 49
-0.075
 74
0
  0
LTYPE
  5
1F6
100
AcDbSymbolTableRecord
100
AcDbLinetypeTableRecord
  2
HIDDEN
 70
64
  3
- - - - - - - - - - - - - - - - - - - -
 72
65
 73
2
 40
0.2
 49
0.1
 74
0
 49
-0.1
 74
0
  0
LTYPE
  5
1F7
100
AcDbSymbolTableRecord
100
AcDbLinetypeTableRecord
  2
PHANTOM
 70
64
  3
_____ _ _ _____ _ _ _____ _ _ _____
 72
65
 73
6
 40
0.8
 49
0.45
 74
0
 49
-0.05
 74
0
 49
0.1
 74
0
 49
-0.05
 74
0
 49
0.1
 74
0
 49
-0.05
 74
0
  0
LTYPE
  5
1F8
100
AcDbSymbolTableRecord
100
AcDbLinetypeTableRecord
  2
DOT
 70
64
  3
. . . . . . . . . . . . . . . . . . . .
 72
65
 73
2
 40
0.2
 49
0.1
 74
0
 49
-0.1
 74
0
  0
LTYPE
  5
1F9
100
AcDbSymbolTableRecord
100
AcDbLinetypeTableRecord
  2
DASHED
 70
64
  3
- - - - - - - - - - - - - - - - - - - -
 72
65
 73
2
 40
0.2
 49
0.1
 74
0
 49
-0.1
 74
0
  0
ENDTAB
  0
TABLE
  2
LAYER
  5
2
100
AcDbSymbolTable
 70
36
  0
LAYER
  5
10
100
AcDbSymbolTableRecord
100
AcDbLayerTableRecord
  2
0
 70
0
 62
7
  6
CONTINUOUS
370
-3
390
F
  0
LAYER
  5
1FA
100
AcDbSymbolTableRecord
100
AcDbLayerTableRecord
  2
DEFAULT_1
 70
0
 62
7
  6
CENTER
370
-3
390
F
  0
LAYER
  5
1FB
100
AcDbSymbolTableRecord
100
AcDbLayerTableRecord
  2
DEFAULT_2
 70
0
 62
7
  6
HIDDEN
370
-3
390
F
  0
LAYER
  5
1FC
100
AcDbSymbolTableRecord
100
AcDbLayerTableRecord
  2
DEFAULT_3
 70
0
 62
7
  6
PHANTOM
370
-3
390
F
  0
LAYER
  5
1FD
100
AcDbSymbolTableRecord
100
AcDbLayerTableRecord
  2
00_COMPONENTS
 70
0
 62
7
  6
CONTINUOUS
370
-3
390
F
  0
LAYER
  5
1FE
100
AcDbSymbolTableRecord
100
AcDbLayerTableRecord
  2
01_1_DEFAULT_DATUMS
 70
0
 62
7
  6
CONTINUOUS
370
-3
390
F
  0
LAYER
  5
1FF
100
AcDbSymbolTableRecord
100
AcDbLayerTableRecord
  2
01_PLANES
 70
0
 62
7
  6
CONTINUOUS
370
-3
390
F
  0
LAYER
  5
200
100
AcDbSymbolTableRecord
100
AcDbLayerTableRecord
  2
02_COORD_SYS
 70
0
 62
7
  6
CONTINUOUS
370
-3
390
F
  0
LAYER
  5
201
100
AcDbSymbolTableRecord
100
AcDbLayerTableRecord
  2
03_AXES
 70
0
 62
7
  6
CONTINUOUS
370
-3
390
F
  0
LAYER
  5
202
100
AcDbSymbolTableRecord
100
AcDbLayerTableRecord
  2
04_POINTS
 70
0
 62
7
  6
CONTINUOUS
370
-3
390
F
  0
LAYER
  5
203
100
AcDbSymbolTableRecord
100
AcDbLayerTableRecord
  2
05_CURVES
 70
0
 62
7
  6
CONTINUOUS
370
-3
390
F
  0
LAYER
  5
204
100
AcDbSymbolTableRecord
100
AcDbLayerTableRecord
  2
06_SURFS
 70
0
 62
7
  6
CONTINUOUS
370
-3
390
F
  0
LAYER
  5
205
100
AcDbSymbolTableRecord
100
AcDbLayerTableRecord
  2
07_COSMETICS
 70
0
 62
7
  6
CONTINUOUS
370
-3
390
F
  0
LAYER
  5
206
100
AcDbSymbolTableRecord
100
AcDbLayerTableRecord
  2
10_NOTES
 70
0
 62
7
  6
CONTINUOUS
370
-3
390
F
  0
LAYER
  5
207
100
AcDbSymbolTableRecord
100
AcDbLayerTableRecord
  2
11_NOTES_PUB
 70
0
 62
7
  6
CONTINUOUS
370
-3
390
F
  0
LAYER
  5
208
100
AcDbSymbolTableRecord
100
AcDbLayerTableRecord
  2
13_REF_GTOL
 70
0
 62
7
  6
CONTINUOUS
370
-3
390
F
  0
LAYER
  5
209
100
AcDbSymbolTableRecord
100
AcDbLayerTableRecord
  2
16_MISC
 70
0
 62
7
  6
CONTINUOUS
370
-3
390
F
  0
LAYER
  5
20A
100
AcDbSymbolTableRecord
100
AcDbLayerTableRecord
  2
17_NO_PRINT
 70
0
 62
7
  6
CONTINUOUS
370
-3
390
F
  0
LAYER
  5
20B
100
AcDbSymbolTableRecord
100
AcDbLayerTableRecord
  2
18_DATUM_CAMS_JOINTS
 70
0
 62
7
  6
CONTINUOUS
370
-3
390
F
  0
LAYER
  5
20C
100
AcDbSymbolTableRecord
100
AcDbLayerTableRecord
  2
19_DATUM_FUNCTIONAL
 70
0
 62
7
  6
CONTINUOUS
370
-3
390
F
  0
LAYER
  5
20D
100
AcDbSymbolTableRecord
100
AcDbLayerTableRecord
  2
20_DATUM_KINEMATIC_SCHEME
 70
0
 62
7
  6
CONTINUOUS
370
-3
390
F
  0
ENDTAB
  0
TABLE
  2
STYLE
  5
3
100
AcDbSymbolTable
 70
1
  0
STYLE
  5
11
100
AcDbSymbolTableRecord
100
AcDbTextStyleTableRecord
  2
STANDARD
 70
0
 40
0.0
 41
1.0
 50
0.0
 71
0
 42
0.2
  3
ARIAL.TTF
  4

  0
STYLE
  5
20E
100
AcDbSymbolTableRecord
100
AcDbTextStyleTableRecord
  2
TEXTSTYLE_1
 70
0
 40
0.0
 41
0.8
 50
0.0
 71
0
 42
0.2
  3
gdt
  4

  0
ENDTAB
  0
TABLE
  2
VIEW
  5
6
100
AcDbSymbolTable
 70
0
  0
ENDTAB
  0
TABLE
  2
UCS
  5
7
100
AcDbSymbolTable
 70
0
  0
ENDTAB
  0
TABLE
  2
APPID
  5
9
100
AcDbSymbolTable
 70
1
  0
APPID
  5
20F
100
AcDbSymbolTableRecord
100
AcDbRegAppTableRecord
  2
ACAD
 70
0
  0
ENDTAB
  0
TABLE
  2
BLOCK_RECORD
  5
1
100
AcDbSymbolTable
 70
0
  0
BLOCK_RECORD
  5
210
100
AcDbSymbolTableRecord
100
AcDbBlockTableRecord
  2
*Model_Space
  0
BLOCK_RECORD
  5
211
100
AcDbSymbolTableRecord
100
AcDbBlockTableRecord
  2
*Paper_Space
  0
BLOCK_RECORD
  5
212
100
AcDbSymbolTableRecord
100
AcDbBlockTableRecord
  2
_FILLED
  0
ENDTAB
  0
TABLE
  2
DIMSTYLE
  5
A
100
AcDbSymbolTable
 70
1
100
AcDbDimStyleTable
 71
0
  0
DIMSTYLE
105
213
100
AcDbSymbolTableRecord
100
AcDbDimStyleTableRecord
  2
STANDARD
 70
0
  3

  4

 40
1.0
 41
0.3821725836
 42
1.0
 43
0.38
 44
1.0
 45
0.0
 46
0.0
 47
0.01
 48
0.01
140
0.535041617
141
0.09
142
0.0
143
25.4
144
1.0
145
0.0
146
1.0
147
0.625
 71
1
 72
0
 73
0
 74
0
 75
0
 76
0
 77
1
 78
8
 79
2
170
0
171
1
172
0
173
0
174
0
175
0
176
0
177
0
178
0
270
2
179
2
271
2
272
2
273
2
274
2
275
0
280
0
281
0
282
0
283
1
284
8
285
0
286
0
287
3
288
0
340
11
278
46
341
212
342
212
343
212
344
212
  0
ENDTAB
  0
ENDSEC
  0
SECTION
  2
BLOCKS
  0
BLOCK
  5
20
100
AcDbEntity
  8
0
100
AcDbBlockBegin
  2
*Model_Space
 70
0
 10
0.0
 20
0.0
 30
0.0
  3
*Model_Space
  1

  0
ENDBLK
  5
21
100
AcDbEntity
  8
0
100
AcDbBlockEnd
  0
BLOCK
  5
1C
100
AcDbEntity
  8
0
100
AcDbBlockBegin
  2
*Paper_Space
 70
0
 10
0.0
 20
0.0
 30
0.0
  3
*Paper_Space
  1

  0
ENDBLK
  5
1D
100
AcDbEntity
  8
0
100
AcDbBlockEnd
  0
BLOCK
  5
214
100
AcDbEntity
  8
0
100
AcDbBlockBegin
  2
_FILLED
 70
64
 10
0.0
 20
0.0
  3
_FILLED
  1

  0
SOLID
  5
215
100
AcDbEntity
  8
0
  6
BYBLOCK
 62
0
100
AcDbTrace
 10
0.0
 20
0.0
 11
-1.0
 21
0.25
 12
-1.0
 22
-0.25
 13
-1.0
 23
-0.25
  0
ENDBLK
  5
216
100
AcDbEntity
  8
0
  6
BYBLOCK
 62
0
100
AcDbBlockEnd
  0
ENDSEC
  0
SECTION
  2
ENTITIES
  0
LINE
  5
217
100
AcDbEntity
  8
0
100
AcDbLine
 62
7
  6
BYLAYER
 10
22.6791071579
 20
3.7510917354
 11
9.9791071579
 21
3.7510917354
  0
LINE
  5
218
100
AcDbEntity
  8
0
100
AcDbLine
 62
7
  6
BYLAYER
 10
9.9791071579
 20
6.1510917354
 11
22.6791071579
 21
6.1510917354
  0
LINE
  5
219
100
AcDbEntity
  8
0
100
AcDbLine
 62
7
  6
BYLAYER
 10
22.6791071579
 20
7.3510917354
 11
9.9791071579
 21
7.3510917354
  0
LINE
  5
21A
100
AcDbEntity
  8
0
100
AcDbLine
 62
7
  6
BYLAYER
 10
9.9791071579
 20
8.5010917354
 11
22.6791071579
 21
8.5010917354
  0
LINE
  5
21B
100
AcDbEntity
  8
0
100
AcDbLine
 62
7
  6
BYLAYER
 10
23.0290978013
 20
9.8010917354
 11
9.6291165144
 21
9.8010917354
  0
LINE
  5
21C
100
AcDbEntity
  8
0
100
AcDbLine
 62
7
  6
BYLAYER
 10
24.3291071579
 20
11.4510917354
 11
8.3291071579
 21
11.4510917354
  0
LINE
  5
21D
100
AcDbEntity
  8
0
100
AcDbLine
 62
7
  6
BYLAYER
 10
8.3535047669
 20
28.150158483
 11
10.0522836736
 21
38.926339737
  0
LINE
  5
21E
100
AcDbEntity
  8
0
100
AcDbLine
 62
7
  6
BYLAYER
 10
8.3291071579
 20
11.4510917354
 11
8.3291071579
 21
27.8387179706
  0
LINE
  5
21F
100
AcDbEntity
  8
0
100
AcDbLine
 62
7
  6
BYLAYER
 10
9.6291071579
 20
9.8010917354
 11
9.6291071579
 21
11.4510917354
  0
LINE
  5
220
100
AcDbEntity
  8
0
100
AcDbLine
 62
7
  6
BYLAYER
 10
9.9791071579
 20
3.7510917354
 11
9.9791071579
 21
6.1510917354
  0
LINE
  5
221
100
AcDbEntity
  8
0
100
AcDbLine
 62
7
  6
BYLAYER
 10
9.9791071579
 20
7.3510917354
 11
9.9791071579
 21
8.5010917354
  0
LINE
  5
222
100
AcDbEntity
  8
0
100
AcDbLine
 62
7
  6
BYLAYER
 10
10.7291071579
 20
6.1510917354
 11
10.7291071579
 21
7.3510917354
  0
LINE
  5
223
100
AcDbEntity
  8
0
100
AcDbLine
 62
7
  6
BYLAYER
 10
10.8291071579
 20
8.5010917354
 11
10.8291071579
 21
9.8010917354
  0
LINE
  5
224
100
AcDbEntity
  8
0
100
AcDbLine
 62
7
  6
BYLAYER
 10
20.6834480265
 20
21.7226863609
 11
21.3117178515
 21
21.867733879
  0
LINE
  5
225
100
AcDbEntity
  8
0
100
AcDbLine
 62
7
  6
BYLAYER
 10
11.4084398848
 20
20.5639426003
 11
12.0528429947
 21
20.5864456528
  0
LINE
  5
226
100
AcDbEntity
  8
0
100
AcDbLine
 62
7
  6
BYLAYER
 10
20.605371321
 20
20.5864456528
 11
21.2497744309
 21
20.5639426003
  0
LINE
  5
227
100
AcDbEntity
  8
0
100
AcDbLine
 62
7
  6
BYLAYER
 10
11.3464964642
 20
21.867733879
 11
11.9747662892
 21
21.7226863609
  0
LINE
  5
228
100
AcDbEntity
  8
0
100
AcDbLine
 62
7
  6
BYLAYER
 10
20.2358742797
 20
19.5091291463
 11
20.8524956675
 21
19.3206090692
  0
LINE
  5
229
100
AcDbEntity
  8
0
100
AcDbLine
 62
7
  6
BYLAYER
 10
11.6241097283
 20
23.143131684
 11
12.193430718
 21
22.8404183442
  0
LINE
  5
22A
100
AcDbEntity
  8
0
100
AcDbLine
 62
7
  6
BYLAYER
 10
19.6001375152
 20
18.564154181
 11
20.1469554524
 21
18.222464411
  0
LINE
  5
22B
100
AcDbEntity
  8
0
100
AcDbLine
 62
7
  6
BYLAYER
 10
12.2223607918
 20
24.3032197628
 11
12.6939346616
 21
23.863470015
  0
LINE
  5
22C
100
AcDbEntity
  8
0
100
AcDbLine
 62
7
  6
BYLAYER
 10
18.7414854375
 20
17.8159192391
 11
19.1812351853
 21
17.3443453693
  0
LINE
  5
22D
100
AcDbEntity
  8
0
100
AcDbLine
 62
7
  6
BYLAYER
 10
13.1004798334
 20
25.2689400299
 11
13.4421696035
 21
24.7221220927
  0
LINE
  5
22E
100
AcDbEntity
  8
0
100
AcDbLine
 62
7
  6
BYLAYER
 10
17.7184337666
 20
17.3154152955
 11
18.0211471065
 21
16.7460943058
  0
LINE
  5
22F
100
AcDbEntity
  8
0
100
AcDbLine
 62
7
  6
BYLAYER
 10
15.4419580228
 20
26.3717590084
 11
15.4644610753
 21
25.7273558986
  0
LINE
  5
230
100
AcDbEntity
  8
0
100
AcDbLine
 62
7
  6
BYLAYER
 10
15.4644610753
 20
17.1748275722
 11
15.4419580228
 21
16.5304244623
  0
LINE
  5
231
100
AcDbEntity
  8
0
100
AcDbLine
 62
7
  6
BYLAYER
 10
16.7457493014
 20
26.433702429
 11
16.6007017834
 21
25.8054326041
  0
LINE
  5
232
100
AcDbEntity
  8
0
100
AcDbLine
 62
7
  6
BYLAYER
 10
14.3871445688
 20
17.5443246136
 11
14.1986244917
 21
16.9277032258
  0
LINE
  5
233
100
AcDbEntity
  8
0
100
AcDbLine
 62
7
  6
BYLAYER
 10
15.7402751144
 20
24.0578866622
 11
16.1902751144
 21
25.1578866622
  0
LINE
  5
234
100
AcDbEntity
  8
0
100
AcDbLine
 62
7
  6
BYLAYER
 10
18.0211471065
 20
26.156089165
 11
17.7184337666
 21
25.5867681753
  0
LINE
  5
235
100
AcDbEntity
  8
0
100
AcDbLine
 62
7
  6
BYLAYER
 10
13.4421696035
 20
18.1800613781
 11
13.1004798334
 21
17.6332434409
  0
LINE
  5
236
100
AcDbEntity
  8
0
100
AcDbLine
 62
7
  6
BYLAYER
 10
19.1812351853
 20
25.5578381014
 11
18.7414854375
 21
25.0862642316
  0
LINE
  5
237
100
AcDbEntity
  8
0
100
AcDbLine
 62
7
  6
BYLAYER
 10
11.9747662892
 20
21.1794971098
 11
11.3464964642
 21
21.0344495918
  0
LINE
  5
238
100
AcDbEntity
  8
0
100
AcDbLine
 62
7
  6
BYLAYER
 10
21.2497744309
 20
22.3382408704
 11
20.605371321
 21
22.315737818
  0
LINE
  5
239
100
AcDbEntity
  8
0
100
AcDbLine
 62
7
  6
BYLAYER
 10
12.0528429947
 20
22.315737818
 11
11.4084398848
 21
22.3382408704
  0
LINE
  5
23A
100
AcDbEntity
  8
0
100
AcDbLine
 62
7
  6
BYLAYER
 10
21.3117178515
 20
21.0344495918
 11
20.6834480265
 21
21.1794971098
  0
LINE
  5
23B
100
AcDbEntity
  8
0
100
AcDbLine
 62
7
  6
BYLAYER
 10
12.4223400361
 20
23.3930543245
 11
11.8057186482
 21
23.5815744016
  0
LINE
  5
23C
100
AcDbEntity
  8
0
100
AcDbLine
 62
7
  6
BYLAYER
 10
21.0341045874
 20
19.7590517868
 11
20.4647835978
 21
20.0617651266
  0
LINE
  5
23D
100
AcDbEntity
  8
0
100
AcDbLine
 62
7
  6
BYLAYER
 10
13.0580768005
 20
24.3380292898
 11
12.5112588633
 21
24.6797190598
  0
LINE
  5
23E
100
AcDbEntity
  8
0
100
AcDbLine
 62
7
  6
BYLAYER
 10
20.4358535239
 20
18.598963708
 11
19.9642796541
 21
19.0387134558
  0
LINE
  5
23F
100
AcDbEntity
  8
0
100
AcDbLine
 62
7
  6
BYLAYER
 10
13.9167288783
 20
25.0862642316
 11
13.4769791304
 21
25.5578381014
  0
LINE
  5
240
100
AcDbEntity
  8
0
100
AcDbLine
 62
7
  6
BYLAYER
 10
19.5577344823
 20
17.6332434409
 11
19.2160447122
 21
18.1800613781
  0
LINE
  5
241
100
AcDbEntity
  8
0
100
AcDbLine
 62
7
  6
BYLAYER
 10
14.9397805491
 20
25.5867681753
 11
14.6370672092
 21
26.156089165
  0
LINE
  5
242
100
AcDbEntity
  8
0
100
AcDbLine
 62
7
  6
BYLAYER
 10
14.1986244917
 20
25.974480245
 11
14.3871445688
 21
25.3578588572
  0
LINE
  5
243
100
AcDbEntity
  8
0
100
AcDbLine
 62
7
  6
BYLAYER
 10
16.6007017834
 20
17.0967508667
 11
16.7457493014
 21
16.4684810418
  0
LINE
  5
244
100
AcDbEntity
  8
0
100
AcDbLine
 62
7
  6
BYLAYER
 10
17.2162562929
 20
16.5304244623
 11
17.1937532404
 21
17.1748275722
  0
LINE
  5
245
100
AcDbEntity
  8
0
100
AcDbLine
 62
7
  6
BYLAYER
 10
17.1937532404
 20
25.7273558986
 11
17.2162562929
 21
26.3717590084
  0
LINE
  5
246
100
AcDbEntity
  8
0
100
AcDbLine
 62
7
  6
BYLAYER
 10
15.9124650143
 20
16.4684810418
 11
16.0575125323
 21
17.0967508667
  0
LINE
  5
247
100
AcDbEntity
  8
0
100
AcDbLine
 62
7
  6
BYLAYER
 10
18.2710697469
 20
25.3578588572
 11
18.4595898241
 21
25.974480245
  0
LINE
  5
248
100
AcDbEntity
  8
0
100
AcDbLine
 62
7
  6
BYLAYER
 10
14.6370672092
 20
16.7460943058
 11
14.9397805491
 21
17.3154152955
  0
LINE
  5
249
100
AcDbEntity
  8
0
100
AcDbLine
 62
7
  6
BYLAYER
 10
19.2160447122
 20
24.7221220927
 11
19.5577344823
 21
25.2689400299
  0
LINE
  5
24A
100
AcDbEntity
  8
0
100
AcDbLine
 62
7
  6
BYLAYER
 10
12.6939346616
 20
19.0387134558
 11
12.2223607918
 21
18.598963708
  0
LINE
  5
24B
100
AcDbEntity
  8
0
100
AcDbLine
 62
7
  6
BYLAYER
 10
20.1469554524
 20
24.6797190598
 11
19.6001375152
 21
24.3380292898
  0
LINE
  5
24C
100
AcDbEntity
  8
0
100
AcDbLine
 62
7
  6
BYLAYER
 10
12.193430718
 20
20.0617651266
 11
11.6241097283
 21
19.7590517868
  0
LINE
  5
24D
100
AcDbEntity
  8
0
100
AcDbLine
 62
7
  6
BYLAYER
 10
20.8524956675
 20
23.5815744016
 11
20.2358742797
 21
23.3930543245
  0
LINE
  5
24E
100
AcDbEntity
  8
0
100
AcDbLine
 62
7
  6
BYLAYER
 10
16.8791071579
 20
23.8510917354
 11
15.8791071579
 21
23.8510917354
  0
LINE
  5
24F
100
AcDbEntity
  8
0
100
AcDbLine
 62
7
  6
BYLAYER
 10
16.4632712365
 20
25.1681737747
 11
17.0132712365
 21
24.0681737747
  0
LINE
  5
250
100
AcDbEntity
  8
0
100
AcDbLine
 62
7
  6
BYLAYER
 10
18.4595898241
 20
16.9277032258
 11
18.2710697469
 21
17.5443246136
  0
LINE
  5
251
100
AcDbEntity
  8
0
100
AcDbLine
 62
7
  6
BYLAYER
 10
16.0575125323
 20
25.8054326041
 11
15.9124650143
 21
26.433702429
  0
LINE
  5
252
100
AcDbEntity
  8
0
100
AcDbLine
 62
7
  6
BYLAYER
 10
13.4769791304
 20
17.3443453693
 11
13.9167288783
 21
17.8159192391
  0
LINE
  5
253
100
AcDbEntity
  8
0
100
AcDbLine
 62
7
  6
BYLAYER
 10
19.9642796541
 20
23.863470015
 11
20.4358535239
 21
24.3032197628
  0
LINE
  5
254
100
AcDbEntity
  8
0
100
AcDbLine
 62
7
  6
BYLAYER
 10
12.5112588633
 20
18.222464411
 11
13.0580768005
 21
18.564154181
  0
LINE
  5
255
100
AcDbEntity
  8
0
100
AcDbLine
 62
7
  6
BYLAYER
 10
20.4647835977
 20
22.8404183442
 11
21.0341045874
 21
23.143131684
  0
LINE
  5
256
100
AcDbEntity
  8
0
100
AcDbLine
 62
7
  6
BYLAYER
 10
11.8057186482
 20
19.3206090692
 11
12.4223400361
 21
19.5091291463
  0
LINE
  5
257
100
AcDbEntity
  8
0
100
AcDbLine
 62
7
  6
BYLAYER
 10
21.8291071579
 20
8.5010917354
 11
21.8291071579
 21
9.8010917354
  0
LINE
  5
258
100
AcDbEntity
  8
0
100
AcDbLine
 62
7
  6
BYLAYER
 10
21.9291071579
 20
6.1510917354
 11
21.9291071579
 21
7.3510917354
  0
LINE
  5
259
100
AcDbEntity
  8
0
100
AcDbLine
 62
7
  6
BYLAYER
 10
22.6791071579
 20
6.1510917354
 11
22.6791071579
 21
3.7510917354
  0
LINE
  5
25A
100
AcDbEntity
  8
0
100
AcDbLine
 62
7
  6
BYLAYER
 10
22.6791071579
 20
7.3510917354
 11
22.6791071579
 21
8.5010917354
  0
LINE
  5
25B
100
AcDbEntity
  8
0
100
AcDbLine
 62
7
  6
BYLAYER
 10
23.0291071579
 20
9.8010917354
 11
23.0291071579
 21
11.4510917354
  0
LINE
  5
25C
100
AcDbEntity
  8
0
100
AcDbLine
 62
7
  6
BYLAYER
 10
24.3291071579
 20
27.8387179706
 11
24.3291071579
 21
11.4510917354
  0
LINE
  5
25D
100
AcDbEntity
  8
0
100
AcDbLine
 62
7
  6
BYLAYER
 10
24.3047096234
 20
28.1501580099
 11
22.6059306421
 21
38.9263397376
  0
ARC
  5
25E
100
AcDbEntity
  8
0
100
AcDbCircle
 62
7
  6
BYLAYER
 10
10.3291071579
 20
27.8387179706
 40
2.0
100
AcDbArc
 50
101.6551198662
 51
180.0
  0
ARC
  5
25F
100
AcDbEntity
  8
0
100
AcDbCircle
 62
7
  6
BYLAYER
 10
16.2523865453
 20
17.0517606558
 40
0.2
100
AcDbArc
 50
89.0009934967
 51
166.9999999999
  0
ARC
  5
260
100
AcDbEntity
  8
0
100
AcDbCircle
 62
7
  6
BYLAYER
 10
15.2645829099
 20
17.1818074715
 40
0.2
100
AcDbArc
 50
358.0000000005
 51
75.998820251
  0
ARC
  5
261
100
AcDbEntity
  8
0
100
AcDbCircle
 62
7
  6
BYLAYER
 10
15.1163700676
 20
17.2215209829
 40
0.2
100
AcDbArc
 50
74.0009930768
 51
152.0000000004
  0
ARC
  5
262
100
AcDbEntity
  8
0
100
AcDbCircle
 62
7
  6
BYLAYER
 10
14.1958836176
 20
17.6027989545
 40
0.2
100
AcDbArc
 50
342.9999999991
 51
60.9988204957
  0
ARC
  5
263
100
AcDbEntity
  8
0
100
AcDbCircle
 62
7
  6
BYLAYER
 10
14.0629996186
 20
17.6795195671
 40
0.2
100
AcDbArc
 50
59.0009929164
 51
136.9999999992
  0
ARC
  5
264
100
AcDbEntity
  8
0
100
AcDbCircle
 62
7
  6
BYLAYER
 10
13.2725599842
 20
18.2860452309
 40
0.2
100
AcDbArc
 50
327.9999999999
 51
45.998828016
  0
ARC
  5
265
100
AcDbEntity
  8
0
100
AcDbCircle
 62
7
  6
BYLAYER
 10
13.1640606534
 20
18.3945445618
 40
0.2
100
AcDbArc
 50
44.0010004282
 51
121.9999999997
  0
ARC
  5
266
100
AcDbEntity
  8
0
100
AcDbCircle
 62
7
  6
BYLAYER
 10
12.5575349896
 20
19.1849841961
 40
0.2
100
AcDbArc
 50
313.0000000006
 51
30.9988202753
  0
ARC
  5
267
100
AcDbEntity
  8
0
100
AcDbCircle
 62
7
  6
BYLAYER
 10
12.480814377
 20
19.3178681951
 40
0.2
100
AcDbArc
 50
29.0009929238
 51
107.0000000002
  0
ARC
  5
268
100
AcDbEntity
  8
0
100
AcDbCircle
 62
7
  6
BYLAYER
 10
12.0995364054
 20
20.2383546452
 40
0.2
100
AcDbArc
 50
298.0000000012
 51
15.9988199168
  0
ARC
  5
269
100
AcDbEntity
  8
0
100
AcDbCircle
 62
7
  6
BYLAYER
 10
12.059822894
 20
20.3865674874
 40
0.2
100
AcDbArc
 50
14.0009930486
 51
91.9999999984
  0
ARC
  5
26A
100
AcDbEntity
  8
0
100
AcDbCircle
 62
7
  6
BYLAYER
 10
11.9297760783
 20
21.3743711228
 40
0.2
100
AcDbArc
 50
283.0
 51
0.998819442
  0
ARC
  5
26B
100
AcDbEntity
  8
0
100
AcDbCircle
 62
7
  6
BYLAYER
 10
11.9297760783
 20
21.527812348
 40
0.2
100
AcDbArc
 50
359.0009932297
 51
76.9999999999
  0
ARC
  5
26C
100
AcDbEntity
  8
0
100
AcDbCircle
 62
7
  6
BYLAYER
 10
12.059822894
 20
22.5156159834
 40
0.2
100
AcDbArc
 50
268.0000000005
 51
345.9988188864
  0
ARC
  5
26D
100
AcDbEntity
  8
0
100
AcDbCircle
 62
7
  6
BYLAYER
 10
12.0995364054
 20
22.6638288256
 40
0.2
100
AcDbArc
 50
344.0009934494
 51
62.0000000004
  0
ARC
  5
26E
100
AcDbEntity
  8
0
100
AcDbCircle
 62
7
  6
BYLAYER
 10
12.480814377
 20
23.5843152757
 40
0.2
100
AcDbArc
 50
252.9999999991
 51
330.9988182722
  0
ARC
  5
26F
100
AcDbEntity
  8
0
100
AcDbCircle
 62
7
  6
BYLAYER
 10
12.5575349896
 20
23.7171992747
 40
0.2
100
AcDbArc
 50
329.0009937022
 51
46.9999999992
  0
ARC
  5
270
100
AcDbEntity
  8
0
100
AcDbCircle
 62
7
  6
BYLAYER
 10
13.1640606534
 20
24.507638909
 40
0.2
100
AcDbArc
 50
237.9999999999
 51
315.998817617
  0
ARC
  5
271
100
AcDbEntity
  8
0
100
AcDbCircle
 62
7
  6
BYLAYER
 10
13.2725599842
 20
24.6161382398
 40
0.2
100
AcDbArc
 50
314.0009939748
 51
31.9999999997
  0
ARC
  5
272
100
AcDbEntity
  8
0
100
AcDbCircle
 62
7
  6
BYLAYER
 10
14.0629996186
 20
25.2226639037
 40
0.2
100
AcDbArc
 50
223.0000000006
 51
300.9988169391
  0
ARC
  5
273
100
AcDbEntity
  8
0
100
AcDbCircle
 62
7
  6
BYLAYER
 10
14.1958836176
 20
25.2993845162
 40
0.2
100
AcDbArc
 50
299.0009942592
 51
17.0000000002
  0
ARC
  5
274
100
AcDbEntity
  8
0
100
AcDbCircle
 62
7
  6
BYLAYER
 10
15.1163700676
 20
25.6806624878
 40
0.2
100
AcDbArc
 50
208.0000000012
 51
285.9988162503
  0
ARC
  5
275
100
AcDbEntity
  8
0
100
AcDbCircle
 62
7
  6
BYLAYER
 10
15.2645829099
 20
25.7203759992
 40
0.2
100
AcDbArc
 50
284.0009945529
 51
1.9999999984
  0
ARC
  5
276
100
AcDbEntity
  8
0
100
AcDbCircle
 62
7
  6
BYLAYER
 10
16.2523865453
 20
25.8504228149
 40
0.2
100
AcDbArc
 50
193.0
 51
270.9988155561
  0
ARC
  5
277
100
AcDbEntity
  8
0
100
AcDbCircle
 62
7
  6
BYLAYER
 10
15.8791071579
 20
24.0010917354
 40
0.15
100
AcDbArc
 50
157.7509763435
 51
270.0000000001
  0
ARC
  5
278
100
AcDbEntity
  8
0
100
AcDbCircle
 62
7
  6
BYLAYER
 10
16.3291071579
 20
9.9510917354
 40
31.7
100
AcDbArc
 50
83.3704103184
 51
96.6295896816
  0
ARC
  5
279
100
AcDbEntity
  8
0
100
AcDbCircle
 62
7
  6
BYLAYER
 10
16.3291071579
 20
-1.2489082646
 40
31.7
100
AcDbArc
 50
78.3448801337
 51
101.6551198663
  0
ARC
  5
27A
100
AcDbEntity
  8
0
100
AcDbCircle
 62
7
  6
BYLAYER
 10
17.3936314058
 20
17.1818074715
 40
0.2
100
AcDbArc
 50
104.000993501
 51
181.9999999984
  0
ARC
  5
27B
100
AcDbEntity
  8
0
100
AcDbCircle
 62
7
  6
BYLAYER
 10
16.4058277704
 20
17.0517606558
 40
0.2
100
AcDbArc
 50
13.0
 51
90.9988194022
  0
ARC
  5
27C
100
AcDbEntity
  8
0
100
AcDbCircle
 62
7
  6
BYLAYER
 10
16.3291071579
 20
21.4510917354
 40
9.0
100
AcDbArc
 50
207.2660444507
 51
332.7339555493
  0
CIRCLE
  5
27D
100
AcDbEntity
  8
0
100
AcDbCircle
 62
7
  6
BYLAYER
 10
16.3291071579
 20
21.4510917354
 40
7.475
  0
CIRCLE
  5
27E
100
AcDbEntity
  8
0
100
AcDbCircle
 62
7
  6
BYLAYER
 10
16.3291071579
 20
21.4510917354
 40
5.5
  0
ARC
  5
27F
100
AcDbEntity
  8
0
100
AcDbCircle
 62
7
  6
BYLAYER
 10
16.3291071579
 20
21.4510917354
 40
5.0
100
AcDbArc
 50
64.7799098524
 51
70.2200901476
  0
ARC
  5
280
100
AcDbEntity
  8
0
100
AcDbCircle
 62
7
  6
BYLAYER
 10
16.3291071579
 20
21.4510917354
 40
5.0
100
AcDbArc
 50
79.7799098524
 51
85.2200901476
  0
ARC
  5
281
100
AcDbEntity
  8
0
100
AcDbCircle
 62
7
  6
BYLAYER
 10
16.3291071579
 20
21.4510917354
 40
5.0
100
AcDbArc
 50
94.7799098524
 51
100.2200901476
  0
ARC
  5
282
100
AcDbEntity
  8
0
100
AcDbCircle
 62
7
  6
BYLAYER
 10
16.3291071579
 20
21.4510917354
 40
5.0
100
AcDbArc
 50
109.7799098524
 51
115.2200901476
  0
ARC
  5
283
100
AcDbEntity
  8
0
100
AcDbCircle
 62
7
  6
BYLAYER
 10
16.3291071579
 20
21.4510917354
 40
5.0
100
AcDbArc
 50
124.7799098524
 51
130.2200901476
  0
ARC
  5
284
100
AcDbEntity
  8
0
100
AcDbCircle
 62
7
  6
BYLAYER
 10
16.3291071579
 20
21.4510917354
 40
5.0
100
AcDbArc
 50
139.7799098524
 51
145.2200901476
  0
ARC
  5
285
100
AcDbEntity
  8
0
100
AcDbCircle
 62
7
  6
BYLAYER
 10
16.3291071579
 20
21.4510917354
 40
5.0
100
AcDbArc
 50
154.7799098524
 51
160.2200901476
  0
ARC
  5
286
100
AcDbEntity
  8
0
100
AcDbCircle
 62
7
  6
BYLAYER
 10
16.3291071579
 20
21.4510917354
 40
5.0
100
AcDbArc
 50
169.7799098524
 51
175.2200901476
  0
ARC
  5
287
100
AcDbEntity
  8
0
100
AcDbCircle
 62
7
  6
BYLAYER
 10
16.3291071579
 20
21.4510917354
 40
5.0
100
AcDbArc
 50
49.7799098524
 51
55.2200901476
  0
ARC
  5
288
100
AcDbEntity
  8
0
100
AcDbCircle
 62
7
  6
BYLAYER
 10
16.3291071579
 20
21.4510917354
 40
5.0
100
AcDbArc
 50
34.7799098524
 51
40.2200901476
  0
ARC
  5
289
100
AcDbEntity
  8
0
100
AcDbCircle
 62
7
  6
BYLAYER
 10
16.3291071579
 20
21.4510917354
 40
5.0
100
AcDbArc
 50
19.7799098524
 51
25.2200901476
  0
ARC
  5
28A
100
AcDbEntity
  8
0
100
AcDbCircle
 62
7
  6
BYLAYER
 10
16.3291071579
 20
21.4510917354
 40
5.0
100
AcDbArc
 50
4.7799098524
 51
10.2200901476
  0
ARC
  5
28B
100
AcDbEntity
  8
0
100
AcDbCircle
 62
7
  6
BYLAYER
 10
16.3291071579
 20
21.4510917354
 40
5.0
100
AcDbArc
 50
349.7799098524
 51
355.2200901476
  0
ARC
  5
28C
100
AcDbEntity
  8
0
100
AcDbCircle
 62
7
  6
BYLAYER
 10
16.3291071579
 20
21.4510917354
 40
5.0
100
AcDbArc
 50
334.7799098524
 51
340.2200901476
  0
ARC
  5
28D
100
AcDbEntity
  8
0
100
AcDbCircle
 62
7
  6
BYLAYER
 10
16.3291071579
 20
21.4510917354
 40
5.0
100
AcDbArc
 50
319.7799098524
 51
325.2200901476
  0
ARC
  5
28E
100
AcDbEntity
  8
0
100
AcDbCircle
 62
7
  6
BYLAYER
 10
16.3291071579
 20
21.4510917354
 40
5.0
100
AcDbArc
 50
304.7799098524
 51
310.2200901476
  0
ARC
  5
28F
100
AcDbEntity
  8
0
100
AcDbCircle
 62
7
  6
BYLAYER
 10
16.3291071579
 20
21.4510917354
 40
5.0
100
AcDbArc
 50
289.7799098524
 51
295.2200901476
  0
ARC
  5
290
100
AcDbEntity
  8
0
100
AcDbCircle
 62
7
  6
BYLAYER
 10
16.3291071579
 20
21.4510917354
 40
5.0
100
AcDbArc
 50
274.7799098524
 51
280.2200901476
  0
ARC
  5
291
100
AcDbEntity
  8
0
100
AcDbCircle
 62
7
  6
BYLAYER
 10
16.3291071579
 20
21.4510917354
 40
5.0
100
AcDbArc
 50
259.7799098524
 51
265.2200901476
  0
ARC
  5
292
100
AcDbEntity
  8
0
100
AcDbCircle
 62
7
  6
BYLAYER
 10
16.3291071579
 20
21.4510917354
 40
5.0
100
AcDbArc
 50
244.7799098524
 51
250.2200901476
  0
ARC
  5
293
100
AcDbEntity
  8
0
100
AcDbCircle
 62
7
  6
BYLAYER
 10
16.3291071579
 20
21.4510917354
 40
5.0
100
AcDbArc
 50
229.7799098524
 51
235.2200901476
  0
ARC
  5
294
100
AcDbEntity
  8
0
100
AcDbCircle
 62
7
  6
BYLAYER
 10
16.3291071579
 20
21.4510917354
 40
5.0
100
AcDbArc
 50
214.7799098524
 51
220.2200901476
  0
ARC
  5
295
100
AcDbEntity
  8
0
100
AcDbCircle
 62
7
  6
BYLAYER
 10
16.3291071579
 20
21.4510917354
 40
5.0
100
AcDbArc
 50
199.7799098524
 51
205.2200901476
  0
ARC
  5
296
100
AcDbEntity
  8
0
100
AcDbCircle
 62
7
  6
BYLAYER
 10
16.3291071579
 20
21.4510917354
 40
5.0
100
AcDbArc
 50
184.7799098524
 51
190.2200901476
  0
ARC
  5
297
100
AcDbEntity
  8
0
100
AcDbCircle
 62
7
  6
BYLAYER
 10
16.3291071579
 20
21.4510917354
 40
4.8
100
AcDbArc
 50
64.4348845163
 51
70.5651154837
  0
ARC
  5
298
100
AcDbEntity
  8
0
100
AcDbCircle
 62
7
  6
BYLAYER
 10
16.3291071579
 20
21.4510917354
 40
4.8
100
AcDbArc
 50
214.4348845163
 51
220.5651154837
  0
ARC
  5
299
100
AcDbEntity
  8
0
100
AcDbCircle
 62
7
  6
BYLAYER
 10
16.3291071579
 20
21.4510917354
 40
4.8
100
AcDbArc
 50
349.4348845163
 51
355.5651154837
  0
ARC
  5
29A
100
AcDbEntity
  8
0
100
AcDbCircle
 62
7
  6
BYLAYER
 10
16.3291071579
 20
21.4510917354
 40
4.8
100
AcDbArc
 50
169.4348845163
 51
175.5651154837
  0
ARC
  5
29B
100
AcDbEntity
  8
0
100
AcDbCircle
 62
7
  6
BYLAYER
 10
16.3291071579
 20
21.4510917354
 40
4.8
100
AcDbArc
 50
274.4348845163
 51
280.5651154837
  0
ARC
  5
29C
100
AcDbEntity
  8
0
100
AcDbCircle
 62
7
  6
BYLAYER
 10
16.3291071579
 20
21.4510917354
 40
4.8
100
AcDbArc
 50
244.4348845163
 51
250.5651154837
  0
ARC
  5
29D
100
AcDbEntity
  8
0
100
AcDbCircle
 62
7
  6
BYLAYER
 10
16.3291071579
 20
21.4510917354
 40
4.8
100
AcDbArc
 50
109.4348845163
 51
115.5651154837
  0
ARC
  5
29E
100
AcDbEntity
  8
0
100
AcDbCircle
 62
7
  6
BYLAYER
 10
16.3291071579
 20
21.4510917354
 40
4.8
100
AcDbArc
 50
319.4348845163
 51
325.5651154837
  0
ARC
  5
29F
100
AcDbEntity
  8
0
100
AcDbCircle
 62
7
  6
BYLAYER
 10
16.3291071579
 20
21.4510917354
 40
4.8
100
AcDbArc
 50
334.4348845163
 51
340.5651154837
  0
ARC
  5
2A0
100
AcDbEntity
  8
0
100
AcDbCircle
 62
7
  6
BYLAYER
 10
16.3291071579
 20
21.4510917354
 40
4.8
100
AcDbArc
 50
199.4348845163
 51
205.5651154837
  0
ARC
  5
2A1
100
AcDbEntity
  8
0
100
AcDbCircle
 62
7
  6
BYLAYER
 10
16.3291071579
 20
21.4510917354
 40
4.8
100
AcDbArc
 50
154.4348845163
 51
160.5651154837
  0
ARC
  5
2A2
100
AcDbEntity
  8
0
100
AcDbCircle
 62
7
  6
BYLAYER
 10
16.3291071579
 20
21.4510917354
 40
4.8
100
AcDbArc
 50
34.4348845163
 51
40.5651154837
  0
ARC
  5
2A3
100
AcDbEntity
  8
0
100
AcDbCircle
 62
7
  6
BYLAYER
 10
16.3291071579
 20
21.4510917354
 40
4.8
100
AcDbArc
 50
94.4348845163
 51
100.5651154837
  0
ARC
  5
2A4
100
AcDbEntity
  8
0
100
AcDbCircle
 62
7
  6
BYLAYER
 10
16.3291071579
 20
21.4510917354
 40
4.8
100
AcDbArc
 50
289.4348845163
 51
295.5651154837
  0
ARC
  5
2A5
100
AcDbEntity
  8
0
100
AcDbCircle
 62
7
  6
BYLAYER
 10
16.3291071579
 20
21.4510917354
 40
4.8
100
AcDbArc
 50
49.4348845163
 51
55.5651154837
  0
ARC
  5
2A6
100
AcDbEntity
  8
0
100
AcDbCircle
 62
7
  6
BYLAYER
 10
16.3291071579
 20
21.4510917354
 40
4.8
100
AcDbArc
 50
229.4348845163
 51
235.5651154837
  0
ARC
  5
2A7
100
AcDbEntity
  8
0
100
AcDbCircle
 62
7
  6
BYLAYER
 10
16.3291071579
 20
21.4510917354
 40
4.8
100
AcDbArc
 50
259.4348845163
 51
265.5651154837
  0
ARC
  5
2A8
100
AcDbEntity
  8
0
100
AcDbCircle
 62
7
  6
BYLAYER
 10
16.3291071579
 20
21.4510917354
 40
4.8
100
AcDbArc
 50
139.4348845163
 51
145.5651154837
  0
ARC
  5
2A9
100
AcDbEntity
  8
0
100
AcDbCircle
 62
7
  6
BYLAYER
 10
16.3291071579
 20
21.4510917354
 40
4.8
100
AcDbArc
 50
79.4348845163
 51
85.5651154837
  0
ARC
  5
2AA
100
AcDbEntity
  8
0
100
AcDbCircle
 62
7
  6
BYLAYER
 10
16.3291071579
 20
21.4510917354
 40
4.8
100
AcDbArc
 50
184.4348845163
 51
190.5651154837
  0
ARC
  5
2AB
100
AcDbEntity
  8
0
100
AcDbCircle
 62
7
  6
BYLAYER
 10
16.3291071579
 20
21.4510917354
 40
4.8
100
AcDbArc
 50
4.4348845163
 51
10.5651154837
  0
ARC
  5
2AC
100
AcDbEntity
  8
0
100
AcDbCircle
 62
7
  6
BYLAYER
 10
16.3291071579
 20
21.4510917354
 40
4.8
100
AcDbArc
 50
304.4348845163
 51
310.5651154837
  0
ARC
  5
2AD
100
AcDbEntity
  8
0
100
AcDbCircle
 62
7
  6
BYLAYER
 10
16.3291071579
 20
21.4510917354
 40
4.8
100
AcDbArc
 50
19.4348845163
 51
25.5651154837
  0
ARC
  5
2AE
100
AcDbEntity
  8
0
100
AcDbCircle
 62
7
  6
BYLAYER
 10
16.3291071579
 20
21.4510917354
 40
4.8
100
AcDbArc
 50
124.4348845163
 51
130.5651154837
  0
ARC
  5
2AF
100
AcDbEntity
  8
0
100
AcDbCircle
 62
7
  6
BYLAYER
 10
16.3291071579
 20
21.4510917354
 40
4.2
100
AcDbArc
 50
29.0009074316
 51
30.9991014793
  0
ARC
  5
2B0
100
AcDbEntity
  8
0
100
AcDbCircle
 62
7
  6
BYLAYER
 10
16.3291071579
 20
21.4510917354
 40
4.2
100
AcDbArc
 50
14.0009074319
 51
15.9991014802
  0
ARC
  5
2B1
100
AcDbEntity
  8
0
100
AcDbCircle
 62
7
  6
BYLAYER
 10
16.3291071579
 20
21.4510917354
 40
4.2
100
AcDbArc
 50
359.0009074325
 51
0.9991014794
  0
ARC
  5
2B2
100
AcDbEntity
  8
0
100
AcDbCircle
 62
7
  6
BYLAYER
 10
16.3291071579
 20
21.4510917354
 40
4.2
100
AcDbArc
 50
344.0009074331
 51
345.9991014784
  0
ARC
  5
2B3
100
AcDbEntity
  8
0
100
AcDbCircle
 62
7
  6
BYLAYER
 10
16.3291071579
 20
21.4510917354
 40
4.2
100
AcDbArc
 50
329.0009074334
 51
330.9991014775
  0
ARC
  5
2B4
100
AcDbEntity
  8
0
100
AcDbCircle
 62
7
  6
BYLAYER
 10
16.3291071579
 20
21.4510917354
 40
4.2
100
AcDbArc
 50
299.0009074341
 51
300.9991014762
  0
ARC
  5
2B5
100
AcDbEntity
  8
0
100
AcDbCircle
 62
7
  6
BYLAYER
 10
16.3291071579
 20
21.4510917354
 40
4.2
100
AcDbArc
 50
284.0009074344
 51
285.9991014755
  0
ARC
  5
2B6
100
AcDbEntity
  8
0
100
AcDbCircle
 62
7
  6
BYLAYER
 10
16.3291071579
 20
21.4510917354
 40
4.2
100
AcDbArc
 50
269.0009074346
 51
270.999101475
  0
ARC
  5
2B7
100
AcDbEntity
  8
0
100
AcDbCircle
 62
7
  6
BYLAYER
 10
16.3291071579
 20
21.4510917354
 40
4.2
100
AcDbArc
 50
254.0009074546
 51
255.9991014346
  0
ARC
  5
2B8
100
AcDbEntity
  8
0
100
AcDbCircle
 62
7
  6
BYLAYER
 10
16.3291071579
 20
21.4510917354
 40
4.2
100
AcDbArc
 50
239.0009074622
 51
240.9991014229
  0
ARC
  5
2B9
100
AcDbEntity
  8
0
100
AcDbCircle
 62
7
  6
BYLAYER
 10
16.3291071579
 20
21.4510917354
 40
4.2
100
AcDbArc
 50
209.0009074618
 51
210.9991014334
  0
ARC
  5
2BA
100
AcDbEntity
  8
0
100
AcDbCircle
 62
7
  6
BYLAYER
 10
16.3291071579
 20
21.4510917354
 40
4.2
100
AcDbArc
 50
194.0009074559
 51
195.9991014505
  0
ARC
  5
2BB
100
AcDbEntity
  8
0
100
AcDbCircle
 62
7
  6
BYLAYER
 10
16.3291071579
 20
21.4510917354
 40
4.2
100
AcDbArc
 50
179.0009074473
 51
180.9991014731
  0
ARC
  5
2BC
100
AcDbEntity
  8
0
100
AcDbCircle
 62
7
  6
BYLAYER
 10
16.3291071579
 20
21.4510917354
 40
4.2
100
AcDbArc
 50
164.0009074368
 51
165.9991014996
  0
ARC
  5
2BD
100
AcDbEntity
  8
0
100
AcDbCircle
 62
7
  6
BYLAYER
 10
16.3291071579
 20
21.4510917354
 40
4.2
100
AcDbArc
 50
149.0009074248
 51
150.9991015288
  0
ARC
  5
2BE
100
AcDbEntity
  8
0
100
AcDbCircle
 62
7
  6
BYLAYER
 10
16.3291071579
 20
21.4510917354
 40
4.2
100
AcDbArc
 50
119.0009073983
 51
120.9991015923
  0
ARC
  5
2BF
100
AcDbEntity
  8
0
100
AcDbCircle
 62
7
  6
BYLAYER
 10
16.3291071579
 20
21.4510917354
 40
4.2
100
AcDbArc
 50
104.0009073843
 51
105.9991016251
  0
ARC
  5
2C0
100
AcDbEntity
  8
0
100
AcDbCircle
 62
7
  6
BYLAYER
 10
16.3291071579
 20
21.4510917354
 40
4.2
100
AcDbArc
 50
89.0009073701
 51
90.9991016582
  0
ARC
  5
2C1
100
AcDbEntity
  8
0
100
AcDbCircle
 62
7
  6
BYLAYER
 10
16.3291071579
 20
21.4510917354
 40
4.2
100
AcDbArc
 50
74.0009073561
 51
75.999101691
  0
ARC
  5
2C2
100
AcDbEntity
  8
0
100
AcDbCircle
 62
7
  6
BYLAYER
 10
16.3291071579
 20
21.4510917354
 40
4.2
100
AcDbArc
 50
59.0009073744
 51
60.9991016597
  0
ARC
  5
2C3
100
AcDbEntity
  8
0
100
AcDbCircle
 62
7
  6
BYLAYER
 10
16.3291071579
 20
21.4510917354
 40
4.2
100
AcDbArc
 50
134.0009074118
 51
135.99910156
  0
ARC
  5
2C4
100
AcDbEntity
  8
0
100
AcDbCircle
 62
7
  6
BYLAYER
 10
16.3291071579
 20
21.4510917354
 40
4.2
100
AcDbArc
 50
44.0009071061
 51
45.9991011715
  0
ARC
  5
2C5
100
AcDbEntity
  8
0
100
AcDbCircle
 62
7
  6
BYLAYER
 10
16.3291071579
 20
21.4510917354
 40
4.2
100
AcDbArc
 50
314.0009074338
 51
315.9991014768
  0
ARC
  5
2C6
100
AcDbEntity
  8
0
100
AcDbCircle
 62
7
  6
BYLAYER
 10
16.3291071579
 20
21.4510917354
 40
4.2
100
AcDbArc
 50
224.0009071045
 51
225.9991010648
  0
CIRCLE
  5
2C7
100
AcDbEntity
  8
0
100
AcDbCircle
 62
7
  6
BYLAYER
 10
16.3291071579
 20
21.4510917354
 40
2.1
  0
CIRCLE
  5
2C8
100
AcDbEntity
  8
0
100
AcDbCircle
 62
7
  6
BYLAYER
 10
16.3291071579
 20
21.4510917354
 40
1.62
  0
ARC
  5
2C9
100
AcDbEntity
  8
0
100
AcDbCircle
 62
7
  6
BYLAYER
 10
18.5952146971
 20
17.6795195671
 40
0.2
100
AcDbArc
 50
43.0000000006
 51
120.9988193779
  0
ARC
  5
2CA
100
AcDbEntity
  8
0
100
AcDbCircle
 62
7
  6
BYLAYER
 10
18.4623306981
 20
17.6027989545
 40
0.2
100
AcDbArc
 50
119.0009935057
 51
197.0000000002
  0
ARC
  5
2CB
100
AcDbEntity
  8
0
100
AcDbCircle
 62
7
  6
BYLAYER
 10
17.5418442481
 20
17.2215209829
 40
0.2
100
AcDbArc
 50
28.0000000012
 51
105.9988193916
  0
ARC
  5
2CC
100
AcDbEntity
  8
0
100
AcDbCircle
 62
7
  6
BYLAYER
 10
16.4058277704
 20
25.8504228149
 40
0.2
100
AcDbArc
 50
269.0009948503
 51
346.9999999999
  0
ARC
  5
2CD
100
AcDbEntity
  8
0
100
AcDbCircle
 62
7
  6
BYLAYER
 10
17.3936314058
 20
25.7203759992
 40
0.2
100
AcDbArc
 50
178.0000000005
 51
255.9988148663
  0
ARC
  5
2CE
100
AcDbEntity
  8
0
100
AcDbCircle
 62
7
  6
BYLAYER
 10
17.5418442481
 20
25.6806624878
 40
0.2
100
AcDbArc
 50
254.0009951454
 51
332.0000000004
  0
ARC
  5
2CF
100
AcDbEntity
  8
0
100
AcDbCircle
 62
7
  6
BYLAYER
 10
18.4623306981
 20
25.2993845162
 40
0.2
100
AcDbArc
 50
162.9999999991
 51
240.9988155232
  0
ARC
  5
2D0
100
AcDbEntity
  8
0
100
AcDbCircle
 62
7
  6
BYLAYER
 10
18.5952146971
 20
25.2226639037
 40
0.2
100
AcDbArc
 50
239.0009947604
 51
316.9999999992
  0
ARC
  5
2D1
100
AcDbEntity
  8
0
100
AcDbCircle
 62
7
  6
BYLAYER
 10
16.8791071579
 20
24.0010917354
 40
0.15
100
AcDbArc
 50
270.000000002
 51
26.5650511779
  0
ARC
  5
2D2
100
AcDbEntity
  8
0
100
AcDbCircle
 62
7
  6
BYLAYER
 10
16.3291071579
 20
25.1010917354
 40
0.15
100
AcDbArc
 50
26.5650511773
 51
157.7509763424
  0
ARC
  5
2D3
100
AcDbEntity
  8
0
100
AcDbCircle
 62
7
  6
BYLAYER
 10
20.7284382374
 20
21.527812348
 40
0.2
100
AcDbArc
 50
103.0
 51
180.9988193101
  0
ARC
  5
2D4
100
AcDbEntity
  8
0
100
AcDbCircle
 62
7
  6
BYLAYER
 10
20.7284382374
 20
21.3743711228
 40
0.2
100
AcDbArc
 50
179.0009935407
 51
256.9999999999
  0
ARC
  5
2D5
100
AcDbEntity
  8
0
100
AcDbCircle
 62
7
  6
BYLAYER
 10
20.5983914217
 20
20.3865674874
 40
0.2
100
AcDbArc
 50
88.0000000005
 51
165.9988193311
  0
ARC
  5
2D6
100
AcDbEntity
  8
0
100
AcDbCircle
 62
7
  6
BYLAYER
 10
20.5586779103
 20
20.2383546452
 40
0.2
100
AcDbArc
 50
164.0009935279
 51
242.0000000004
  0
ARC
  5
2D7
100
AcDbEntity
  8
0
100
AcDbCircle
 62
7
  6
BYLAYER
 10
20.1773999387
 20
19.3178681951
 40
0.2
100
AcDbArc
 50
72.9999999991
 51
150.9988193498
  0
ARC
  5
2D8
100
AcDbEntity
  8
0
100
AcDbCircle
 62
7
  6
BYLAYER
 10
20.1006793261
 20
19.1849841961
 40
0.2
100
AcDbArc
 50
149.0009935202
 51
226.9999999992
  0
ARC
  5
2D9
100
AcDbEntity
  8
0
100
AcDbCircle
 62
7
  6
BYLAYER
 10
19.4941536623
 20
18.3945445618
 40
0.2
100
AcDbArc
 50
57.9999999999
 51
135.9988193641
  0
ARC
  5
2DA
100
AcDbEntity
  8
0
100
AcDbCircle
 62
7
  6
BYLAYER
 10
19.3856543315
 20
18.2860452309
 40
0.2
100
AcDbArc
 50
134.0009935131
 51
211.9999999997
  0
ARC
  5
2DB
100
AcDbEntity
  8
0
100
AcDbCircle
 62
7
  6
BYLAYER
 10
22.3291071579
 20
27.8387179706
 40
2.0
100
AcDbArc
 50
0.0
 51
78.3448801338
  0
ARC
  5
2DC
100
AcDbEntity
  8
0
100
AcDbCircle
 62
7
  6
BYLAYER
 10
19.3856543315
 20
24.6161382398
 40
0.2
100
AcDbArc
 50
147.9999999999
 51
225.998825776
  0
ARC
  5
2DD
100
AcDbEntity
  8
0
100
AcDbCircle
 62
7
  6
BYLAYER
 10
19.4941536623
 20
24.507638909
 40
0.2
100
AcDbArc
 50
224.0010003935
 51
301.9999999997
  0
ARC
  5
2DE
100
AcDbEntity
  8
0
100
AcDbCircle
 62
7
  6
BYLAYER
 10
20.1006793261
 20
23.7171992747
 40
0.2
100
AcDbArc
 50
133.0000000006
 51
210.998819312
  0
ARC
  5
2DF
100
AcDbEntity
  8
0
100
AcDbCircle
 62
7
  6
BYLAYER
 10
20.1773999387
 20
23.5843152757
 40
0.2
100
AcDbArc
 50
209.0009935599
 51
287.0000000002
  0
ARC
  5
2E0
100
AcDbEntity
  8
0
100
AcDbCircle
 62
7
  6
BYLAYER
 10
20.5586779103
 20
22.6638288256
 40
0.2
100
AcDbArc
 50
118.0000000012
 51
195.9988192927
  0
ARC
  5
2E1
100
AcDbEntity
  8
0
100
AcDbCircle
 62
7
  6
BYLAYER
 10
20.5983914217
 20
22.5156159834
 40
0.2
100
AcDbArc
 50
194.0009935526
 51
271.9999999984
  0
SPLINE
  5
2E2
100
AcDbEntity
  8
0
100
AcDbSpline
 62
7
  6
BYLAYER
 70
0
 71
3
 72
15
 73
11
 74
0
 42
0.0000001
 43
0.0000001
 44
0.0000000001
 40
0.0
 40
0.0
 40
0.0
 40
0.0
 40
0.1172954187
 40
0.2397612988
 40
0.3663401355
 40
0.4952987632
 40
0.6249722788
 40
0.6895865441
 40
0.7536733108
 40
1.0
 40
1.0
 40
1.0
 40
1.0
 10
19.9888769316
 20
41.4391227346
 30
0.0
 10
20.1399185666
 20
41.4215674844
 30
0.0
 10
20.4463567221
 20
41.36182651
 30
0.0
 10
20.894890838
 20
41.1999081695
 30
0.0
 10
21.3243201921
 20
40.9592848412
 30
0.0
 10
21.7166548193
 20
40.6466392717
 30
0.0
 10
21.9963046245
 20
40.3316564091
 30
0.0
 10
22.186388228
 20
40.055415513
 30
0.0
 10
22.428091902
 20
39.6334416934
 30
0.0
 10
22.5562024092
 20
39.2417748328
 30
0.0
 10
22.6059281252
 20
38.9263393416
 30
0.0
  0
SPLINE
  5
2E3
100
AcDbEntity
  8
0
100
AcDbSpline
 62
7
  6
BYLAYER
 70
0
 71
3
 72
15
 73
11
 74
0
 42
0.0000001
 43
0.0000001
 44
0.0000000001
 40
0.0
 40
0.0
 40
0.0
 40
0.0
 40
0.1172954187
 40
0.2397612988
 40
0.3663401355
 40
0.4952987632
 40
0.6249722788
 40
0.6895865441
 40
0.7536733108
 40
1.0
 40
1.0
 40
1.0
 40
1.0
 10
12.6693373841
 20
41.4391227346
 30
0.0
 10
12.5182957491
 20
41.4215674844
 30
0.0
 10
12.2118575936
 20
41.36182651
 30
0.0
 10
11.7633234777
 20
41.1999081695
 30
0.0
 10
11.3338941236
 20
40.9592848412
 30
0.0
 10
10.9415594964
 20
40.6466392717
 30
0.0
 10
10.6619096911
 20
40.3316564091
 30
0.0
 10
10.4718260877
 20
40.055415513
 30
0.0
 10
10.2301224137
 20
39.6334416934
 30
0.0
 10
10.1020119064
 20
39.2417748328
 30
0.0
 10
10.0522861904
 20
38.9263393416
 30
0.0
  0
SPLINE
  5
2E4
100
AcDbEntity
  8
0
100
AcDbSpline
 62
7
  6
BYLAYER
 70
0
 71
3
 72
17
 73
13
 74
0
 42
0.0000001
 43
0.0000001
 44
0.0000000001
 40
0.0
 40
0.0
 40
0.0
 40
0.0
 40
0.1406238527
 40
0.2819535647
 40
0.4206397404
 40
0.4879818201
 40
0.5534616624
 40
0.6778320436
 40
0.7366898915
 40
0.7932534152
 40
0.8998963424
 40
1.0
 40
1.0
 40
1.0
 40
1.0
 10
11.3378801636
 20
32.2684656727
 30
0.0
 10
11.3390961051
 20
32.1246100425
 30
0.0
 10
11.3267700345
 20
31.8358094813
 30
0.0
 10
11.2612759841
 20
31.409551265
 30
0.0
 10
11.1625194527
 20
31.0669219845
 30
0.0
 10
11.0570966062
 20
30.8096741826
 30
0.0
 10
10.9384506455
 20
30.5746124141
 30
0.0
 10
10.7947474631
 20
30.3625856642
 30
0.0
 10
10.628663407
 20
30.18155653
 30
0.0
 10
10.4583614876
 20
30.0306384256
 30
0.0
 10
10.2279401555
 20
29.8864728784
 30
0.0
 10
10.0253626948
 20
29.8181684254
 30
0.0
 10
9.9250663062
 20
29.7974801154
 30
0.0
  0
SPLINE
  5
2E5
100
AcDbEntity
  8
0
100
AcDbSpline
 62
7
  6
BYLAYER
 70
0
 71
3
 72
77
 73
73
 74
0
 42
0.0000001
 43
0.0000001
 44
0.0000000001
 40
0.0
 40
0.0
 40
0.0
 40
0.0
 40
0.0000096047
 40
0.000038187
 40
0.0000857372
 40
0.0001522451
 40
0.0002377006
 40
0.0003420935
 40
0.0006076511
 40
0.0009488369
 40
0.0013655698
 40
0.0018577686
 40
0.0024253523
 40
0.0037863501
 40
0.0054479145
 40
0.0074093969
 40
0.0096699354
 40
0.0122277414
 40
0.0150807747
 40
0.0182269951
 40
0.0216643628
 40
0.0294043825
 40
0.0382830793
 40
0.0482761083
 40
0.0593572496
 40
0.0715001919
 40
0.0846749752
 40
0.0988470899
 40
0.1139817581
 40
0.146991169
 40
0.1833763151
 40
0.2227861002
 40
0.2648380138
 40
0.3091297522
 40
0.3552370035
 40
0.4027202838
 40
0.4999993015
 40
0.5972780862
 40
0.6447610859
 40
0.6908679329
 40
0.7351593024
 40
0.777210868
 40
0.8166205378
 40
0.8530057311
 40
0.8860153715
 40
0.9011502232
 40
0.9153226599
 40
0.928497731
 40
0.9406408589
 40
0.9517223243
 40
0.9617157019
 40
0.9705946188
 40
0.9783348424
 40
0.9817723429
 40
0.9849186973
 40
0.9877718512
 40
0.9903297502
 40
0.9925903393
 40
0.9945518535
 40
0.996213456
 40
0.9975744956
 40
0.9981421008
 40
0.9986343211
 40
0.9990510749
 40
0.999392281
 40
0.9996578579
 40
0.99976226
 40
0.9998477243
 40
0.9999142405
 40
0.9999617986
 40
0.9999903884
 40
1.0
 40
1.0
 40
1.0
 40
1.0
 10
10.0522836736
 20
38.926339737
 30
0.0
 10
10.0523134927
 20
38.9263667215
 30
0.0
 10
10.052497919
 20
38.9263198051
 30
0.0
 10
10.0528322431
 20
38.9263982487
 30
0.0
 10
10.0534419112
 20
38.9264046075
 30
0.0
 10
10.0542696457
 20
38.9264710253
 30
0.0
 10
10.0553432741
 20
38.9265327923
 30
0.0
 10
10.0572453155
 20
38.9266542229
 30
0.0
 10
10.0602179404
 20
38.9268373903
 30
0.0
 10
10.0644948739
 20
38.9271032553
 30
0.0
 10
10.0697194585
 20
38.9274259514
 30
0.0
 10
10.075890102
 20
38.9278066192
 30
0.0
 10
10.0860071709
 20
38.9284292696
 30
0.0
 10
10.1010114534
 20
38.9293500613
 30
0.0
 10
10.1218415264
 20
38.9306241119
 30
0.0
 10
10.1464313743
 20
38.9321234623
 30
0.0
 10
10.1747672938
 20
38.9338459759
 30
0.0
 10
10.2068299541
 20
38.9357858973
 30
0.0
 10
10.2425950933
 20
38.9379372684
 30
0.0
 10
10.2820373992
 20
38.9402940101
 30
0.0
 10
10.3419074311
 20
38.9438450711
 30
0.0
 10
10.4257417662
 20
38.9487562402
 30
0.0
 10
10.5369853424
 20
38.9551589544
 30
0.0
 10
10.6622043235
 20
38.9622128886
 30
0.0
 10
10.8010801554
 20
38.9698459005
 30
0.0
 10
10.9532706312
 20
38.9779852086
 30
0.0
 10
11.1183989524
 20
38.9865519067
 30
0.0
 10
11.2960530412
 20
38.9954592756
 30
0.0
 10
11.5566775006
 20
39.0080426139
 30
0.0
 10
11.910254238
 20
39.0240422479
 30
0.0
 10
12.3654563007
 20
39.0426643985
 30
0.0
 10
12.85857921
 20
39.0605086554
 30
0.0
 10
13.3848759754
 20
39.0769083292
 30
0.0
 10
13.9392865134
 20
39.0912468577
 30
0.0
 10
14.5165056162
 20
39.1029838062
 30
0.0
 10
15.3156249955
 20
39.1146937686
 30
0.0
 10
16.3290973944
 20
39.1206490904
 30
0.0
 10
17.3425686162
 20
39.1146936241
 30
0.0
 10
18.1416841534
 20
39.1029836316
 30
0.0
 10
18.7188988298
 20
39.091246128
 30
0.0
 10
19.2733046976
 20
39.076908594
 30
0.0
 10
19.7995979624
 20
39.0605084337
 30
0.0
 10
20.2927191428
 20
39.0426646056
 30
0.0
 10
20.7479218963
 20
39.0240428417
 30
0.0
 10
21.1015006141
 20
39.0080443425
 30
0.0
 10
21.3621281544
 20
38.9954609988
 30
0.0
 10
21.5397855619
 20
38.9865534835
 30
0.0
 10
21.7049172143
 20
38.9779867119
 30
0.0
 10
21.8571110455
 20
38.9698476184
 30
0.0
 10
21.9959904769
 20
38.9622146143
 30
0.0
 10
22.1212131976
 20
38.9551606029
 30
0.0
 10
22.2324600211
 20
38.9487580027
 30
0.0
 10
22.3162966837
 20
38.9438466955
 30
0.0
 10
22.3761686703
 20
38.9402953007
 30
0.0
 10
22.4156125849
 20
38.9379382842
 30
0.0
 10
22.4513791668
 20
38.9357866649
 30
0.0
 10
22.4834429244
 20
38.9338465667
 30
0.0
 10
22.5117795778
 20
38.932124025
 30
0.0
 10
22.5363699347
 20
38.9306247228
 30
0.0
 10
22.5572004777
 20
38.9293506862
 30
0.0
 10
22.5722051849
 20
38.9284298832
 30
0.0
 10
22.5823226068
 20
38.9278071984
 30
0.0
 10
22.5884935161
 20
38.9274264939
 30
0.0
 10
22.5937183609
 20
38.9271037481
 30
0.0
 10
22.5979955452
 20
38.9268378224
 30
0.0
 10
22.60096837
 20
38.9266545853
 30
0.0
 10
22.6028705645
 20
38.9265330954
 30
0.0
 10
22.6039442982
 20
38.9264712687
 30
0.0
 10
22.6047721395
 20
38.926404827
 30
0.0
 10
22.605381893
 20
38.9263983519
 30
0.0
 10
22.6057163222
 20
38.9263199558
 30
0.0
 10
22.6059007962
 20
38.9263667357
 30
0.0
 10
22.6059306421
 20
38.9263397376
 30
0.0
  0
SPLINE
  5
2E6
100
AcDbEntity
  8
0
100
AcDbSpline
 62
7
  6
BYLAYER
 70
0
 71
3
 72
17
 73
13
 74
0
 42
0.0000001
 43
0.0000001
 44
0.0000000001
 40
0.0
 40
0.0
 40
0.0
 40
0.0
 40
0.1229777181
 40
0.2461709672
 40
0.3698053745
 40
0.4937755469
 40
0.6181886621
 40
0.7433370443
 40
0.8064457
 40
0.8700789065
 40
0.934504288
 40
1.0
 40
1.0
 40
1.0
 40
1.0
 10
8.3535017109
 20
28.1501390915
 30
0.0
 10
8.3876903018
 20
28.3666149826
 30
0.0
 10
8.4766797815
 20
28.7970150111
 30
0.0
 10
8.6730583104
 20
29.4271928977
 30
0.0
 10
8.933217368
 20
30.0359840584
 30
0.0
 10
9.2609356312
 20
30.6140558352
 30
0.0
 10
9.6591543829
 20
31.1497720524
 30
0.0
 10
10.0539662106
 20
31.5465827366
 30
0.0
 10
10.4090123512
 20
31.8221459382
 30
0.0
 10
10.6973008568
 20
32.0047779118
 30
0.0
 10
11.0069859474
 20
32.1581621349
 30
0.0
 10
11.2256954404
 20
32.236240979
 30
0.0
 10
11.3378837354
 20
32.268449291
 30
0.0
  0
SPLINE
  5
2E7
100
AcDbEntity
  8
0
100
AcDbSpline
 62
7
  6
BYLAYER
 70
0
 71
3
 72
19
 73
15
 74
0
 42
0.0000001
 43
0.0000001
 44
0.0000000001
 40
0.0
 40
0.0
 40
0.0
 40
0.0
 40
0.1110804064
 40
0.2339271366
 40
0.2986369623
 40
0.3648900016
 40
0.4321844543
 40
0.4999999059
 40
0.5678153494
 40
0.6351097873
 40
0.7013628084
 40
0.7660725687
 40
0.8889190671
 40
1.0
 40
1.0
 40
1.0
 40
1.0
 10
11.3378797777
 20
32.2684655619
 30
0.0
 10
11.6979140062
 20
32.3718364589
 30
0.0
 10
12.462731259
 20
32.5670501246
 30
0.0
 10
13.4528533525
 20
32.7553545362
 30
0.0
 10
14.3011853111
 20
32.8700878143
 30
0.0
 10
14.9667414641
 20
32.9350553069
 30
0.0
 10
15.6447689786
 20
32.9748641614
 30
0.0
 10
16.3291061041
 20
32.9884847617
 30
0.0
 10
17.013443188
 20
32.9748645258
 30
0.0
 10
17.6914705794
 20
32.9350558733
 30
0.0
 10
18.3570263937
 20
32.8700882974
 30
0.0
 10
19.2053572761
 20
32.7553550312
 30
0.0
 10
20.1954801855
 20
32.5670507711
 30
0.0
 10
20.9602983718
 20
32.3718367442
 30
0.0
 10
21.3203343512
 20
32.2684655122
 30
0.0
  0
SPLINE
  5
2E8
100
AcDbEntity
  8
0
100
AcDbSpline
 62
7
  6
BYLAYER
 70
0
 71
3
 72
17
 73
13
 74
0
 42
0.0000001
 43
0.0000001
 44
0.0000000001
 40
0.0
 40
0.0
 40
0.0
 40
0.0
 40
0.0654958374
 40
0.1299220869
 40
0.1935552361
 40
0.2566634186
 40
0.3818117839
 40
0.5062249184
 40
0.6301949604
 40
0.7538292899
 40
0.877022576
 40
1.0
 40
1.0
 40
1.0
 40
1.0
 10
21.3203305698
 20
32.2684493656
 30
0.0
 10
21.4325190422
 20
32.2362408509
 30
0.0
 10
21.6512299367
 20
32.1581607188
 30
0.0
 10
21.9609168454
 20
32.0047764492
 30
0.0
 10
22.2492058953
 20
31.8221440821
 30
0.0
 10
22.6042501897
 20
31.5465800961
 30
0.0
 10
22.9990615484
 20
31.1497702488
 30
0.0
 10
23.3972800991
 20
30.6140540836
 30
0.0
 10
23.7249979613
 20
30.0359824571
 30
0.0
 10
23.9851565642
 20
29.4271914116
 30
0.0
 10
24.181534661
 20
28.7970140124
 30
0.0
 10
24.2705241453
 20
28.3666144439
 30
0.0
 10
24.3047126101
 20
28.1501390582
 30
0.0
  0
SPLINE
  5
2E9
100
AcDbEntity
  8
0
100
AcDbSpline
 62
7
  6
BYLAYER
 70
0
 71
3
 72
19
 73
15
 74
0
 42
0.0000001
 43
0.0000001
 44
0.0000000001
 40
0.0
 40
0.0
 40
0.0
 40
0.0
 40
0.1433861888
 40
0.2866317674
 40
0.42624148
 40
0.4936951132
 40
0.5590657616
 40
0.6826283483
 40
0.7408630744
 40
0.7966942664
 40
0.8502307269
 40
0.9017721431
 40
0.9516136783
 40
1.0
 40
1.0
 40
1.0
 40
1.0
 10
21.320341606
 20
32.2684637236
 30
0.0
 10
21.31910145
 20
32.1217316091
 30
0.0
 10
21.3319703042
 20
31.8280262774
 30
0.0
 10
21.3996599791
 20
31.3961103153
 30
0.0
 10
21.5010937209
 20
31.0509378122
 30
0.0
 10
21.6086169716
 20
30.7934234927
 30
0.0
 10
21.7286231037
 20
30.5598757122
 30
0.0
 10
21.8731744354
 20
30.3502152177
 30
0.0
 10
22.0392783526
 20
30.1721424777
 30
0.0
 10
22.168807489
 20
30.059183891
 30
0.0
 10
22.3044922787
 20
29.965265009
 30
0.0
 10
22.4445381069
 20
29.8902143288
 30
0.0
 10
22.5873126786
 20
29.8335988072
 30
0.0
 10
22.6846563643
 20
29.8074728514
 30
0.0
 10
22.7331525522
 20
29.7974692682
 30
0.0
  0
ENDSEC
  0
SECTION
  2
OBJECTS
  0
DICTIONARY
  5
C
100
AcDbDictionary
280
0
281
1
  3
ACAD_GROUP
350
D
  3
ACAD_MLINESTYLE
350
17
  3
ACAD_LAYOUT
350
1A
  3
ACAD_PLOTSETTINGS
350
19
  3
ACAD_PLOTSTYLENAME
350
E
  0
DICTIONARY
  5
D
102
{ACAD_REACTORS
330
C
102
}
100
AcDbDictionary
280
0
281
1
  0
ACDBDICTIONARYWDFLT
  5
E
102
{ACAD_REACTORS
330
C
102
}
100
AcDbDictionary
281
1
  3
Normal
350
F
100
AcDbDictionaryWithDefault
340
F
  0
DICTIONARY
  5
17
102
{ACAD_REACTORS
330
C
102
}
100
AcDbDictionary
280
0
281
1
  3
Standard
350
18
  0
DICTIONARY
  5
19
102
{ACAD_REACTORS
330
C
102
}
100
AcDbDictionary
281
1
  0
DICTIONARY
  5
1A
102
{ACAD_REACTORS
330
C
102
}
100
AcDbDictionary
281
1
  3
Model
350
2EA
  3
Layout1
350
2EB
  0
ACDBPLACEHOLDER
  5
F
102
{ACAD_REACTORS
330
E
102
}
  0
MLINESTYLE
  5
18
102
{ACAD_REACTORS
330
17
102
}
100
AcDbMlineStyle
  2
STANDARD
 70
0
  3

 62
256
 51
90.0
 52
90.0
 71
2
 49
0.5
 62
256
  6
BYLAYER
 49
-0.5
 62
256
  6
BYLAYER
  0
LAYOUT
  5
2EA
102
{ACAD_REACTORS
330
1A
102
}
100
AcDbPlotSettings
  1

  2
none_device
  4

  6

 40
0.0
 41
0.0
 42
0.0
 43
0.0
 44
210.0
 45
297.0
 46
0.0
 47
0.0
 48
0.0
 49
0.0
140
0.0
141
0.0
142
1.0
143
1.0
 70
1024
 72
1
 73
0
 74
0
  7

 75
0
147
1.0
148
0.0
149
0.0
100
AcDbLayout
  1
Model
 70
0
 71
0
 10
0.0
 20
0.0
 11
210.0
 21
297.0
 12
0.0
 22
0.0
 32
0.0
 14
0.0
 24
0.0
 34
0.0
 15
0.0
 25
0.0
 35
0.0
146
0.0
 13
0.0
 23
0.0
 33
0.0
 16
1.0
 26
0.0
 36
0.0
 17
0.0
 27
1.0
 37
0.0
 76
0
330
210
345
0
346
0
  0
LAYOUT
  5
2EB
102
{ACAD_REACTORS
330
1A
102
}
100
AcDbPlotSettings
  1

  2
none_device
  4

  6

 40
0.0
 41
0.0
 42
0.0
 43
0.0
 44
210.0
 45
297.0
 46
0.0
 47
0.0
 48
0.0
 49
0.0
140
0.0
141
0.0
142
1.0
143
1.0
 70
0
 72
1
 73
0
 74
0
  7

 75
0
147
1.0
148
0.0
149
0.0
100
AcDbLayout
  1
Layout1
 70
0
 71
1
 10
0.0
 20
0.0
 11
210.0
 21
297.0
 12
0.0
 22
0.0
 32
0.0
 14
0.0
 24
0.0
 34
0.0
 15
0.0
 25
0.0
 35
0.0
146
0.0
 13
0.0
 23
0.0
 33
0.0
 16
1.0
 26
0.0
 36
0.0
 17
0.0
 27
1.0
 37
0.0
 76
0
330
211
345
0
346
0
  0
ENDSEC
  0
EOF
