999
DXF file: C:\Users\sesa63760\Dev\_Creo\CAD\MCADID0004768_3D-CAD\drw0001_5.dxf
999
Pro/ENGINEER 2019471 by Parametric Technology Corporation
  0
SECTION
  2
HEADER
  9
$ACADVER
  1
AC1024
  9
$DWGCODEPAGE
  3
ANSI_1252
  9
$EXTMAX
 10
55.7307398267
 20
78.8191891835
 30
0.0
  9
$EXTMIN
 10
0.0
 20
0.0
 30
0.0
  9
$LIMMIN
 10
0.0
 20
0.0
  9
$LIMMAX
 10
55.7307398267
 20
78.8191891835
  9
$VIEWCTR
 10
27.8653699134
 20
39.4095945918
  9
$VIEWSIZE
 40
78.8191891835
  9
$CLAYER
  8
0
  9
$LTSCALE
 40
5.1378434431
  9
$CELTYPE
  6
BYLAYER
  9
$DIMSCALE
 40
1.0
  9
$DIMASZ
 40
0.6634611884
  9
$DIMEXO
 40
1.0
  9
$DIMDLI
 40
3.5497827425
  9
$DIMEXE
 40
1.0
  9
$DIMCEN
 40
0.840738018
  9
$DIMLFAC
 40
1.0
  9
$DIMBLK
  1
_FILLED
  9
$DIMALT
 70
0
  9
$DIMALTF
 40
0.0393700787
  9
$DIMTXT
 40
0.9288456638
  9
$DIMTOL
 70
1
  9
$DIMLIM
 70
0
  9
$DIMTFAC
 40
1.0
  9
$DIMTP
 40
0.01
  9
$DIMTM
 40
0.01
  9
$DIMGAP
 40
0.625
  9
$DIMDSEP
 70
46
  9
$AUNITS
 70
0
  9
$PDMODE
 70
3
  9
$PDSIZE
 40
0.3125
  9
$HANDSEED
  5
2DD
  9
$TILEMODE
 70
1
  9
$MEASUREMENT
 70
1
  9
$INSUNITS
 70
4
  0
ENDSEC
  0
SECTION
  2
CLASSES
  0
CLASS
  1
ACDBDICTIONARYWDFLT
  2
AcDbDictionaryWithDefault
  3
AutoCAD 2000
 90
0
 91
1
280
0
281
0
  0
CLASS
  1
ACDBPLACEHOLDER
  2
AcDbPlaceHolder
  3
AutoCAD 2000
 90
0
 91
1
280
0
281
0
  0
CLASS
  1
LAYOUT
  2
AcDbLayout
  3
AutoCAD 2000
 90
0
 91
0
280
0
281
0
  0
ENDSEC
  0
SECTION
  2
TABLES
  0
TABLE
  2
VPORT
  5
8
100
AcDbSymbolTable
 70
2
  0
VPORT
  5
1F4
100
AcDbSymbolTableRecord
100
AcDbViewportTableRecord
  2
*ACTIVE
 70
0
 10
0.0
 20
0.0
 11
1.0
 21
1.0
 12
27.8653699134
 22
39.4095945918
 13
0.0
 23
0.0
 14
1.0
 24
1.0
 15
0.0
 25
0.0
 16
0.0
 26
0.0
 36
1.0
 17
0.0
 27
0.0
 37
0.0
 40
78.8191891835
 41
0.7070707071
 42
50.0
 43
0.0
 44
0.0
 50
0.0
 51
0.0
 71
0
 72
100
 73
1
 74
1
 75
0
 76
0
 77
0
 78
0
  0
ENDTAB
  0
TABLE
  2
LTYPE
  5
5
100
AcDbSymbolTable
 70
6
  0
LTYPE
  5
14
100
AcDbSymbolTableRecord
100
AcDbLinetypeTableRecord
  2
BYBLOCK
 70
0
  3

 72
65
 73
0
 40
0.0
  0
LTYPE
  5
15
100
AcDbSymbolTableRecord
100
AcDbLinetypeTableRecord
  2
BYLAYER
 70
0
  3

 72
65
 73
0
 40
0.0
  0
LTYPE
  5
16
100
AcDbSymbolTableRecord
100
AcDbLinetypeTableRecord
  2
CONTINUOUS
 70
64
  3
Solid line
 72
65
 73
0
 40
0.0
  0
LTYPE
  5
1F5
100
AcDbSymbolTableRecord
100
AcDbLinetypeTableRecord
  2
CENTER
 70
64
  3
____ _ ____ _ ____ _ ____ _ ____ _ ____ _ ____
 72
65
 73
4
 40
0.6
 49
0.375
 74
0
 49
-0.075
 74
0
 49
0.075
 74
0
 49
-0.075
 74
0
  0
LTYPE
  5
1F6
100
AcDbSymbolTableRecord
100
AcDbLinetypeTableRecord
  2
HIDDEN
 70
64
  3
- - - - - - - - - - - - - - - - - - - -
 72
65
 73
2
 40
0.2
 49
0.1
 74
0
 49
-0.1
 74
0
  0
LTYPE
  5
1F7
100
AcDbSymbolTableRecord
100
AcDbLinetypeTableRecord
  2
PHANTOM
 70
64
  3
_____ _ _ _____ _ _ _____ _ _ _____
 72
65
 73
6
 40
0.8
 49
0.45
 74
0
 49
-0.05
 74
0
 49
0.1
 74
0
 49
-0.05
 74
0
 49
0.1
 74
0
 49
-0.05
 74
0
  0
LTYPE
  5
1F8
100
AcDbSymbolTableRecord
100
AcDbLinetypeTableRecord
  2
DOT
 70
64
  3
. . . . . . . . . . . . . . . . . . . .
 72
65
 73
2
 40
0.2
 49
0.1
 74
0
 49
-0.1
 74
0
  0
LTYPE
  5
1F9
100
AcDbSymbolTableRecord
100
AcDbLinetypeTableRecord
  2
DASHED
 70
64
  3
- - - - - - - - - - - - - - - - - - - -
 72
65
 73
2
 40
0.2
 49
0.1
 74
0
 49
-0.1
 74
0
  0
ENDTAB
  0
TABLE
  2
LAYER
  5
2
100
AcDbSymbolTable
 70
36
  0
LAYER
  5
10
100
AcDbSymbolTableRecord
100
AcDbLayerTableRecord
  2
0
 70
0
 62
7
  6
CONTINUOUS
370
-3
390
F
  0
LAYER
  5
1FA
100
AcDbSymbolTableRecord
100
AcDbLayerTableRecord
  2
DEFAULT_1
 70
0
 62
7
  6
CENTER
370
-3
390
F
  0
LAYER
  5
1FB
100
AcDbSymbolTableRecord
100
AcDbLayerTableRecord
  2
DEFAULT_2
 70
0
 62
7
  6
HIDDEN
370
-3
390
F
  0
LAYER
  5
1FC
100
AcDbSymbolTableRecord
100
AcDbLayerTableRecord
  2
DEFAULT_3
 70
0
 62
7
  6
PHANTOM
370
-3
390
F
  0
LAYER
  5
1FD
100
AcDbSymbolTableRecord
100
AcDbLayerTableRecord
  2
00_COMPONENTS
 70
0
 62
7
  6
CONTINUOUS
370
-3
390
F
  0
LAYER
  5
1FE
100
AcDbSymbolTableRecord
100
AcDbLayerTableRecord
  2
01_1_DEFAULT_DATUMS
 70
0
 62
7
  6
CONTINUOUS
370
-3
390
F
  0
LAYER
  5
1FF
100
AcDbSymbolTableRecord
100
AcDbLayerTableRecord
  2
01_PLANES
 70
0
 62
7
  6
CONTINUOUS
370
-3
390
F
  0
LAYER
  5
200
100
AcDbSymbolTableRecord
100
AcDbLayerTableRecord
  2
02_COORD_SYS
 70
0
 62
7
  6
CONTINUOUS
370
-3
390
F
  0
LAYER
  5
201
100
AcDbSymbolTableRecord
100
AcDbLayerTableRecord
  2
03_AXES
 70
0
 62
7
  6
CONTINUOUS
370
-3
390
F
  0
LAYER
  5
202
100
AcDbSymbolTableRecord
100
AcDbLayerTableRecord
  2
04_POINTS
 70
0
 62
7
  6
CONTINUOUS
370
-3
390
F
  0
LAYER
  5
203
100
AcDbSymbolTableRecord
100
AcDbLayerTableRecord
  2
05_CURVES
 70
0
 62
7
  6
CONTINUOUS
370
-3
390
F
  0
LAYER
  5
204
100
AcDbSymbolTableRecord
100
AcDbLayerTableRecord
  2
06_SURFS
 70
0
 62
7
  6
CONTINUOUS
370
-3
390
F
  0
LAYER
  5
205
100
AcDbSymbolTableRecord
100
AcDbLayerTableRecord
  2
07_COSMETICS
 70
0
 62
7
  6
CONTINUOUS
370
-3
390
F
  0
LAYER
  5
206
100
AcDbSymbolTableRecord
100
AcDbLayerTableRecord
  2
10_NOTES
 70
0
 62
7
  6
CONTINUOUS
370
-3
390
F
  0
LAYER
  5
207
100
AcDbSymbolTableRecord
100
AcDbLayerTableRecord
  2
11_NOTES_PUB
 70
0
 62
7
  6
CONTINUOUS
370
-3
390
F
  0
LAYER
  5
208
100
AcDbSymbolTableRecord
100
AcDbLayerTableRecord
  2
13_REF_GTOL
 70
0
 62
7
  6
CONTINUOUS
370
-3
390
F
  0
LAYER
  5
209
100
AcDbSymbolTableRecord
100
AcDbLayerTableRecord
  2
16_MISC
 70
0
 62
7
  6
CONTINUOUS
370
-3
390
F
  0
LAYER
  5
20A
100
AcDbSymbolTableRecord
100
AcDbLayerTableRecord
  2
17_NO_PRINT
 70
0
 62
7
  6
CONTINUOUS
370
-3
390
F
  0
LAYER
  5
20B
100
AcDbSymbolTableRecord
100
AcDbLayerTableRecord
  2
18_DATUM_CAMS_JOINTS
 70
0
 62
7
  6
CONTINUOUS
370
-3
390
F
  0
LAYER
  5
20C
100
AcDbSymbolTableRecord
100
AcDbLayerTableRecord
  2
19_DATUM_FUNCTIONAL
 70
0
 62
7
  6
CONTINUOUS
370
-3
390
F
  0
LAYER
  5
20D
100
AcDbSymbolTableRecord
100
AcDbLayerTableRecord
  2
20_DATUM_KINEMATIC_SCHEME
 70
0
 62
7
  6
CONTINUOUS
370
-3
390
F
  0
ENDTAB
  0
TABLE
  2
STYLE
  5
3
100
AcDbSymbolTable
 70
1
  0
STYLE
  5
11
100
AcDbSymbolTableRecord
100
AcDbTextStyleTableRecord
  2
STANDARD
 70
0
 40
0.0
 41
1.0
 50
0.0
 71
0
 42
0.2
  3
ARIAL.TTF
  4

  0
STYLE
  5
20E
100
AcDbSymbolTableRecord
100
AcDbTextStyleTableRecord
  2
TEXTSTYLE_1
 70
0
 40
0.0
 41
0.8
 50
0.0
 71
0
 42
0.2
  3
gdt
  4

  0
ENDTAB
  0
TABLE
  2
VIEW
  5
6
100
AcDbSymbolTable
 70
0
  0
ENDTAB
  0
TABLE
  2
UCS
  5
7
100
AcDbSymbolTable
 70
0
  0
ENDTAB
  0
TABLE
  2
APPID
  5
9
100
AcDbSymbolTable
 70
1
  0
APPID
  5
20F
100
AcDbSymbolTableRecord
100
AcDbRegAppTableRecord
  2
ACAD
 70
0
  0
ENDTAB
  0
TABLE
  2
BLOCK_RECORD
  5
1
100
AcDbSymbolTable
 70
0
  0
BLOCK_RECORD
  5
210
100
AcDbSymbolTableRecord
100
AcDbBlockTableRecord
  2
*Model_Space
  0
BLOCK_RECORD
  5
211
100
AcDbSymbolTableRecord
100
AcDbBlockTableRecord
  2
*Paper_Space
  0
BLOCK_RECORD
  5
212
100
AcDbSymbolTableRecord
100
AcDbBlockTableRecord
  2
_FILLED
  0
ENDTAB
  0
TABLE
  2
DIMSTYLE
  5
A
100
AcDbSymbolTable
 70
1
100
AcDbDimStyleTable
 71
0
  0
DIMSTYLE
105
213
100
AcDbSymbolTableRecord
100
AcDbDimStyleTableRecord
  2
STANDARD
 70
0
  3

  4

 40
1.0
 41
0.6634611884
 42
1.0
 43
0.38
 44
1.0
 45
0.0
 46
0.0
 47
0.01
 48
0.01
140
0.9288456638
141
0.09
142
0.0
143
25.4
144
1.0
145
0.0
146
1.0
147
0.625
 71
1
 72
0
 73
0
 74
0
 75
0
 76
0
 77
1
 78
8
 79
2
170
0
171
1
172
0
173
0
174
0
175
0
176
0
177
0
178
0
270
2
179
2
271
2
272
2
273
2
274
2
275
0
280
0
281
0
282
0
283
1
284
8
285
0
286
0
287
3
288
0
340
11
278
46
341
212
342
212
343
212
344
212
  0
ENDTAB
  0
ENDSEC
  0
SECTION
  2
BLOCKS
  0
BLOCK
  5
20
100
AcDbEntity
  8
0
100
AcDbBlockBegin
  2
*Model_Space
 70
0
 10
0.0
 20
0.0
 30
0.0
  3
*Model_Space
  1

  0
ENDBLK
  5
21
100
AcDbEntity
  8
0
100
AcDbBlockEnd
  0
BLOCK
  5
1C
100
AcDbEntity
  8
0
100
AcDbBlockBegin
  2
*Paper_Space
 70
0
 10
0.0
 20
0.0
 30
0.0
  3
*Paper_Space
  1

  0
ENDBLK
  5
1D
100
AcDbEntity
  8
0
100
AcDbBlockEnd
  0
BLOCK
  5
214
100
AcDbEntity
  8
0
100
AcDbBlockBegin
  2
_FILLED
 70
64
 10
0.0
 20
0.0
  3
_FILLED
  1

  0
SOLID
  5
215
100
AcDbEntity
  8
0
  6
BYBLOCK
 62
0
100
AcDbTrace
 10
0.0
 20
0.0
 11
-1.0
 21
0.25
 12
-1.0
 22
-0.25
 13
-1.0
 23
-0.25
  0
ENDBLK
  5
216
100
AcDbEntity
  8
0
  6
BYBLOCK
 62
0
100
AcDbBlockEnd
  0
ENDSEC
  0
SECTION
  2
ENTITIES
  0
LINE
  5
217
100
AcDbEntity
  8
0
100
AcDbLine
 62
7
  6
BYLAYER
 10
31.4640861482
 20
6.4155153987
 11
18.7102363313
 21
6.4155153987
  0
LINE
  5
218
100
AcDbEntity
  8
0
100
AcDbLine
 62
7
  6
BYLAYER
 10
31.8148089744
 20
6.8286913098
 11
30.400595412
 21
6.8286913098
  0
LINE
  5
219
100
AcDbEntity
  8
0
100
AcDbLine
 62
7
  6
BYLAYER
 10
28.5438859651
 20
6.8286913098
 11
21.630436514
 21
6.8286913098
  0
LINE
  5
21A
100
AcDbEntity
  8
0
100
AcDbLine
 62
7
  6
BYLAYER
 10
19.773727067
 20
6.8286913098
 11
18.3595135047
 21
6.8286913098
  0
LINE
  5
21B
100
AcDbEntity
  8
0
100
AcDbLine
 62
7
  6
BYLAYER
 10
21.3115965368
 20
9.3523394875
 11
28.8627259423
 21
9.3523394875
  0
LINE
  5
21C
100
AcDbEntity
  8
0
100
AcDbLine
 62
7
  6
BYLAYER
 10
34.232405556
 20
9.7655153987
 11
15.9422607316
 21
9.7655153987
  0
LINE
  5
21D
100
AcDbEntity
  8
0
100
AcDbLine
 62
7
  6
BYLAYER
 10
34.665473403
 20
10.0155153987
 11
18.677059409
 21
10.0155153987
  0
LINE
  5
21E
100
AcDbEntity
  8
0
100
AcDbLine
 62
7
  6
BYLAYER
 10
17.9699526278
 20
10.0155153987
 11
15.508849076
 21
10.0155153987
  0
LINE
  5
21F
100
AcDbEntity
  8
0
100
AcDbLine
 62
7
  6
BYLAYER
 10
13.7871612395
 20
11.1655153987
 11
13.5871612395
 21
11.3655153987
  0
LINE
  5
220
100
AcDbEntity
  8
0
100
AcDbLine
 62
7
  6
BYLAYER
 10
14.9418118202
 20
10.9976527354
 11
17.5684799771
 21
10.9976527354
  0
LINE
  5
221
100
AcDbEntity
  8
0
100
AcDbLine
 62
7
  6
BYLAYER
 10
18.2755867583
 20
10.9976527354
 11
35.2325106588
 21
10.9976527354
  0
LINE
  5
222
100
AcDbEntity
  8
0
100
AcDbLine
 62
7
  6
BYLAYER
 10
16.3871612395
 20
11.1655153987
 11
13.7871612395
 21
11.1655153987
  0
LINE
  5
223
100
AcDbEntity
  8
0
100
AcDbLine
 62
7
  6
BYLAYER
 10
35.2994218045
 20
11.2389265322
 11
18.227511119
 21
11.2389265322
  0
LINE
  5
224
100
AcDbEntity
  8
0
100
AcDbLine
 62
7
  6
BYLAYER
 10
17.5217487544
 20
11.2389265322
 11
16.4605723731
 21
11.2389265322
  0
LINE
  5
225
100
AcDbEntity
  8
0
100
AcDbLine
 62
7
  6
BYLAYER
 10
16.5871612395
 20
11.3655153987
 11
13.5871612395
 21
11.3655153987
  0
LINE
  5
226
100
AcDbEntity
  8
0
100
AcDbLine
 62
7
  6
BYLAYER
 10
36.3871612395
 20
11.7655153987
 11
33.7871612395
 21
11.7655153987
  0
LINE
  5
227
100
AcDbEntity
  8
0
100
AcDbLine
 62
7
  6
BYLAYER
 10
36.5871612395
 20
11.9655153987
 11
33.5871612395
 21
11.9655153987
  0
LINE
  5
228
100
AcDbEntity
  8
0
100
AcDbLine
 62
7
  6
BYLAYER
 10
16.5871612395
 20
16.1655153987
 11
16.3871612395
 21
16.3655153987
  0
LINE
  5
229
100
AcDbEntity
  8
0
100
AcDbLine
 62
7
  6
BYLAYER
 10
15.508849076
 20
10.0155153987
 11
14.9418118202
 21
10.9976527354
  0
LINE
  5
22A
100
AcDbEntity
  8
0
100
AcDbLine
 62
7
  6
BYLAYER
 10
22.5871612395
 20
67.6186076326
 11
23.0871612395
 21
68.1186076326
  0
LINE
  5
22B
100
AcDbEntity
  8
0
100
AcDbLine
 62
7
  6
BYLAYER
 10
13.5871612395
 20
16.1655153987
 11
16.5871612395
 21
16.1655153987
  0
LINE
  5
22C
100
AcDbEntity
  8
0
100
AcDbLine
 62
7
  6
BYLAYER
 10
33.5871612395
 20
16.2655153987
 11
18.1664540765
 21
16.2655153987
  0
LINE
  5
22D
100
AcDbEntity
  8
0
100
AcDbLine
 62
7
  6
BYLAYER
 10
17.4584343941
 20
16.2655153987
 11
16.4871612395
 21
16.2655153987
  0
LINE
  5
22E
100
AcDbEntity
  8
0
100
AcDbLine
 62
7
  6
BYLAYER
 10
16.3871612395
 20
16.3655153987
 11
13.7871612395
 21
16.3655153987
  0
LINE
  5
22F
100
AcDbEntity
  8
0
100
AcDbLine
 62
7
  6
BYLAYER
 10
37.0871160302
 20
16.6655153987
 11
36.5871612395
 21
16.6655153987
  0
LINE
  5
230
100
AcDbEntity
  8
0
100
AcDbLine
 62
7
  6
BYLAYER
 10
35.8678422138
 20
16.6655153987
 11
30.6195826961
 21
16.6655153987
  0
LINE
  5
231
100
AcDbEntity
  8
0
100
AcDbLine
 62
7
  6
BYLAYER
 10
19.554739783
 20
16.6655153987
 11
14.3064802652
 21
16.6655153987
  0
LINE
  5
232
100
AcDbEntity
  8
0
100
AcDbLine
 62
7
  6
BYLAYER
 10
13.7871612395
 20
16.6655153987
 11
13.0872064489
 21
16.6655153987
  0
LINE
  5
233
100
AcDbEntity
  8
0
100
AcDbLine
 62
7
  6
BYLAYER
 10
35.8678422138
 20
16.7655153987
 11
36.5871612395
 21
16.7655153987
  0
LINE
  5
234
100
AcDbEntity
  8
0
100
AcDbLine
 62
7
  6
BYLAYER
 10
36.3871612395
 20
16.9655153987
 11
35.8678422138
 21
16.9655153987
  0
LINE
  5
235
100
AcDbEntity
  8
0
100
AcDbLine
 62
7
  6
BYLAYER
 10
11.5871622902
 20
17.2655153987
 11
38.5871601839
 21
17.2655153987
  0
LINE
  5
236
100
AcDbEntity
  8
0
100
AcDbLine
 62
7
  6
BYLAYER
 10
11.5871612395
 20
23.7655153987
 11
11.5871612395
 21
17.2655153987
  0
LINE
  5
237
100
AcDbEntity
  8
0
100
AcDbLine
 62
7
  6
BYLAYER
 10
11.6371612395
 20
45.6655153987
 11
11.6371612395
 21
23.7655153987
  0
LINE
  5
238
100
AcDbEntity
  8
0
100
AcDbLine
 62
7
  6
BYLAYER
 10
12.2870624499
 20
17.2655153987
 11
12.287060983
 21
23.7655153987
  0
LINE
  5
239
100
AcDbEntity
  8
0
100
AcDbLine
 62
7
  6
BYLAYER
 10
13.0871612395
 20
16.6655153987
 11
13.0871612395
 21
17.2655153987
  0
LINE
  5
23A
100
AcDbEntity
  8
0
100
AcDbLine
 62
7
  6
BYLAYER
 10
13.2458200934
 20
16.6655153987
 11
13.2458200934
 21
17.2655153987
  0
LINE
  5
23B
100
AcDbEntity
  8
0
100
AcDbLine
 62
7
  6
BYLAYER
 10
13.5871612395
 20
11.3655153987
 11
13.5871612395
 21
16.1655153987
  0
LINE
  5
23C
100
AcDbEntity
  8
0
100
AcDbLine
 62
7
  6
BYLAYER
 10
13.7871612395
 20
16.3655153987
 11
13.7871612395
 21
17.2655153987
  0
LINE
  5
23D
100
AcDbEntity
  8
0
100
AcDbLine
 62
7
  6
BYLAYER
 10
13.4405596046
 20
16.6655153987
 11
13.4487640181
 21
17.2655153987
  0
LINE
  5
23E
100
AcDbEntity
  8
0
100
AcDbLine
 62
7
  6
BYLAYER
 10
12.0871612395
 20
43.1655153987
 11
12.2381795094
 21
44.8916621215
  0
LINE
  5
23F
100
AcDbEntity
  8
0
100
AcDbLine
 62
7
  6
BYLAYER
 10
11.5871622901
 20
23.7655153987
 11
38.587160184
 21
23.7655153987
  0
LINE
  5
240
100
AcDbEntity
  8
0
100
AcDbLine
 62
7
  6
BYLAYER
 10
33.7871612395
 20
11.7655153987
 11
33.5871612395
 21
11.9655153987
  0
LINE
  5
241
100
AcDbEntity
  8
0
100
AcDbLine
 62
7
  6
BYLAYER
 10
14.3064802652
 20
17.2655153987
 11
14.3064802652
 21
16.6655153987
  0
LINE
  5
242
100
AcDbEntity
  8
0
100
AcDbLine
 62
7
  6
BYLAYER
 10
15.6047993298
 20
16.6655153987
 11
15.6047993297
 21
17.2655153987
  0
LINE
  5
243
100
AcDbEntity
  8
0
100
AcDbLine
 62
7
  6
BYLAYER
 10
16.3871612395
 20
16.3655153987
 11
16.3871612395
 21
16.6655153987
  0
LINE
  5
244
100
AcDbEntity
  8
0
100
AcDbLine
 62
7
  6
BYLAYER
 10
38.5371612395
 20
25.7655153987
 11
31.8371612395
 21
25.7655153987
  0
LINE
  5
245
100
AcDbEntity
  8
0
100
AcDbLine
 62
7
  6
BYLAYER
 10
36.8105824361
 20
26.9655153987
 11
37.4133003465
 21
26.9655153987
  0
LINE
  5
246
100
AcDbEntity
  8
0
100
AcDbLine
 62
7
  6
BYLAYER
 10
18.0871612395
 20
43.1655153987
 11
17.9361429697
 21
44.8916621215
  0
LINE
  5
247
100
AcDbEntity
  8
0
100
AcDbLine
 62
7
  6
BYLAYER
 10
17.4590292489
 20
16.2655153987
 11
17.5210683778
 21
11.2389265322
  0
LINE
  5
248
100
AcDbEntity
  8
0
100
AcDbLine
 62
7
  6
BYLAYER
 10
18.228175159
 20
11.2389265322
 11
18.1661360301
 21
16.2655153987
  0
LINE
  5
249
100
AcDbEntity
  8
0
100
AcDbLine
 62
7
  6
BYLAYER
 10
16.5871612395
 20
11.3655153987
 11
16.5871612395
 21
16.1655153987
  0
LINE
  5
24A
100
AcDbEntity
  8
0
100
AcDbLine
 62
7
  6
BYLAYER
 10
17.4590292489
 20
16.2655153987
 11
17.4590186045
 21
16.6655153987
  0
LINE
  5
24B
100
AcDbEntity
  8
0
100
AcDbLine
 62
7
  6
BYLAYER
 10
18.0246798821
 20
16.6655153987
 11
18.0246798821
 21
9.9141450732
  0
LINE
  5
24C
100
AcDbEntity
  8
0
100
AcDbLine
 62
7
  6
BYLAYER
 10
18.1661253857
 20
16.6655153987
 11
18.1661360301
 21
16.2655153987
  0
LINE
  5
24D
100
AcDbEntity
  8
0
100
AcDbLine
 62
7
  6
BYLAYER
 10
18.3371612395
 20
45.6655153987
 11
18.3371612395
 21
43.1655153987
  0
LINE
  5
24E
100
AcDbEntity
  8
0
100
AcDbLine
 62
7
  6
BYLAYER
 10
32.2381795094
 20
27.4916621215
 11
36.7664279505
 21
27.4916621215
  0
LINE
  5
24F
100
AcDbEntity
  8
0
100
AcDbLine
 62
7
  6
BYLAYER
 10
37.3886303817
 20
27.4916621215
 11
37.9361429697
 21
27.4916621215
  0
LINE
  5
250
100
AcDbEntity
  8
0
100
AcDbLine
 62
7
  6
BYLAYER
 10
32.5370379188
 20
27.7655153987
 11
37.6372845603
 21
27.7655153987
  0
LINE
  5
251
100
AcDbEntity
  8
0
100
AcDbLine
 62
7
  6
BYLAYER
 10
36.5871612395
 20
16.7655153987
 11
36.3871612395
 21
16.9655153987
  0
LINE
  5
252
100
AcDbEntity
  8
0
100
AcDbLine
 62
7
  6
BYLAYER
 10
19.554739783
 20
17.2655153987
 11
19.554739783
 21
16.6655153987
  0
LINE
  5
253
100
AcDbEntity
  8
0
100
AcDbLine
 62
7
  6
BYLAYER
 10
39.2871612395
 20
30.1890162857
 11
37.2871612395
 21
30.1890162857
  0
LINE
  5
254
100
AcDbEntity
  8
0
100
AcDbLine
 62
7
  6
BYLAYER
 10
37.2871612395
 20
30.3237220672
 11
39.2871612395
 21
30.3237220672
  0
LINE
  5
255
100
AcDbEntity
  8
0
100
AcDbLine
 62
7
  6
BYLAYER
 10
22.5871612395
 20
58.6186650139
 11
22.5871612395
 21
67.6185502513
  0
LINE
  5
256
100
AcDbEntity
  8
0
100
AcDbLine
 62
7
  6
BYLAYER
 10
23.0871612395
 20
58.1186076326
 11
23.0871612395
 21
68.1186076326
  0
LINE
  5
257
100
AcDbEntity
  8
0
100
AcDbLine
 62
7
  6
BYLAYER
 10
36.7871612395
 20
33.1655153987
 11
37.2871612395
 21
33.1655153987
  0
LINE
  5
258
100
AcDbEntity
  8
0
100
AcDbLine
 62
7
  6
BYLAYER
 10
34.6871580539
 20
33.5405153987
 11
33.3371612395
 21
33.5405153987
  0
LINE
  5
259
100
AcDbEntity
  8
0
100
AcDbLine
 62
7
  6
BYLAYER
 10
41.5252810242
 20
34.1655153987
 11
39.7490414549
 21
34.1655153987
  0
LINE
  5
25A
100
AcDbEntity
  8
0
100
AcDbLine
 62
7
  6
BYLAYER
 10
24.0871612395
 20
68.118604873
 11
24.0871612395
 21
58.1186103922
  0
LINE
  5
25B
100
AcDbEntity
  8
0
100
AcDbLine
 62
7
  6
BYLAYER
 10
24.7871612395
 20
58.6186464963
 11
24.7871612395
 21
67.618568769
  0
LINE
  5
25C
100
AcDbEntity
  8
0
100
AcDbLine
 62
7
  6
BYLAYER
 10
25.2871612395
 20
53.6186867866
 11
25.2871612395
 21
72.6185284786
  0
LINE
  5
25D
100
AcDbEntity
  8
0
100
AcDbLine
 62
7
  6
BYLAYER
 10
34.9871612395
 20
35.0091452424
 11
36.4871599926
 21
35.009145227
  0
LINE
  5
25E
100
AcDbEntity
  8
0
100
AcDbLine
 62
7
  6
BYLAYER
 10
45.287130064
 20
35.6655153987
 11
41.9871612395
 21
35.6655153987
  0
LINE
  5
25F
100
AcDbEntity
  8
0
100
AcDbLine
 62
7
  6
BYLAYER
 10
41.5252810242
 20
36.1655153987
 11
39.7490414549
 21
36.1655153987
  0
LINE
  5
260
100
AcDbEntity
  8
0
100
AcDbLine
 62
7
  6
BYLAYER
 10
39.2871612395
 20
37.5527659391
 11
37.2871612395
 21
37.5527659391
  0
LINE
  5
261
100
AcDbEntity
  8
0
100
AcDbLine
 62
7
  6
BYLAYER
 10
37.2871612395
 20
39.5573549804
 11
39.2871612395
 21
39.5573549804
  0
LINE
  5
262
100
AcDbEntity
  8
0
100
AcDbLine
 62
7
  6
BYLAYER
 10
37.2871612395
 20
39.7486380557
 11
39.2871612395
 21
39.7486380557
  0
LINE
  5
263
100
AcDbEntity
  8
0
100
AcDbLine
 62
7
  6
BYLAYER
 10
30.2871612395
 20
72.6185284786
 11
30.2871612395
 21
53.6186867866
  0
LINE
  5
264
100
AcDbEntity
  8
0
100
AcDbLine
 62
7
  6
BYLAYER
 10
30.6195826961
 20
16.6655153987
 11
30.6195826961
 21
17.2655153987
  0
LINE
  5
265
100
AcDbEntity
  8
0
100
AcDbLine
 62
7
  6
BYLAYER
 10
41.5252810242
 20
40.1655153987
 11
39.7490414549
 21
40.1655153987
  0
LINE
  5
266
100
AcDbEntity
  8
0
100
AcDbLine
 62
7
  6
BYLAYER
 10
45.287130064
 20
40.6655153987
 11
41.9871612395
 21
40.6655153987
  0
LINE
  5
267
100
AcDbEntity
  8
0
100
AcDbLine
 62
7
  6
BYLAYER
 10
41.5252810242
 20
42.1655153987
 11
39.7490414549
 21
42.1655153987
  0
LINE
  5
268
100
AcDbEntity
  8
0
100
AcDbLine
 62
7
  6
BYLAYER
 10
36.4871595411
 20
42.1655153987
 11
34.9871612395
 21
42.1655153987
  0
LINE
  5
269
100
AcDbEntity
  8
0
100
AcDbLine
 62
7
  6
BYLAYER
 10
31.8371612395
 20
45.6655153987
 11
31.8371612395
 21
25.7655153987
  0
LINE
  5
26A
100
AcDbEntity
  8
0
100
AcDbLine
 62
7
  6
BYLAYER
 10
32.2871612395
 20
68.1185297026
 11
32.2871612395
 21
58.6616514708
  0
LINE
  5
26B
100
AcDbEntity
  8
0
100
AcDbLine
 62
7
  6
BYLAYER
 10
33.3371612395
 20
45.6655153987
 11
33.3371612395
 21
27.7655153987
  0
LINE
  5
26C
100
AcDbEntity
  8
0
100
AcDbLine
 62
7
  6
BYLAYER
 10
33.5871612395
 20
11.9655153987
 11
33.5871612395
 21
16.6655153987
  0
LINE
  5
26D
100
AcDbEntity
  8
0
100
AcDbLine
 62
7
  6
BYLAYER
 10
33.7871612395
 20
65.1686049006
 11
33.7871612395
 21
61.0686103646
  0
LINE
  5
26E
100
AcDbEntity
  8
0
100
AcDbLine
 62
7
  6
BYLAYER
 10
32.0871612395
 20
25.7655153987
 11
32.2381795094
 21
27.4916621215
  0
LINE
  5
26F
100
AcDbEntity
  8
0
100
AcDbLine
 62
7
  6
BYLAYER
 10
34.6871580539
 20
42.7905153987
 11
33.3371612395
 21
42.7905153987
  0
LINE
  5
270
100
AcDbEntity
  8
0
100
AcDbLine
 62
7
  6
BYLAYER
 10
37.2871612395
 20
42.9875837661
 11
39.2871612395
 21
42.9875837661
  0
LINE
  5
271
100
AcDbEntity
  8
0
100
AcDbLine
 62
7
  6
BYLAYER
 10
11.6371612395
 20
43.1655153987
 11
18.3371612395
 21
43.1655153987
  0
LINE
  5
272
100
AcDbEntity
  8
0
100
AcDbLine
 62
7
  6
BYLAYER
 10
36.7871612395
 20
43.1655153987
 11
37.2871612395
 21
43.1655153987
  0
LINE
  5
273
100
AcDbEntity
  8
0
100
AcDbLine
 62
7
  6
BYLAYER
 10
16.8105824361
 20
44.3655153987
 11
17.4133003465
 21
44.3655153987
  0
LINE
  5
274
100
AcDbEntity
  8
0
100
AcDbLine
 62
7
  6
BYLAYER
 10
34.5695231493
 20
17.2655153987
 11
34.5695231493
 21
16.6655153987
  0
LINE
  5
275
100
AcDbEntity
  8
0
100
AcDbLine
 62
7
  6
BYLAYER
 10
34.6871588066
 20
42.7905153987
 11
34.6871588066
 21
33.5405153987
  0
LINE
  5
276
100
AcDbEntity
  8
0
100
AcDbLine
 62
7
  6
BYLAYER
 10
34.9871612395
 20
42.4903606618
 11
34.9871612395
 21
33.8406701355
  0
LINE
  5
277
100
AcDbEntity
  8
0
100
AcDbLine
 62
7
  6
BYLAYER
 10
35.8678422138
 20
16.6655153987
 11
35.8678422138
 21
17.2655153987
  0
LINE
  5
278
100
AcDbEntity
  8
0
100
AcDbLine
 62
7
  6
BYLAYER
 10
36.3871612395
 20
16.9655153987
 11
36.3871612395
 21
17.2655153987
  0
LINE
  5
279
100
AcDbEntity
  8
0
100
AcDbLine
 62
7
  6
BYLAYER
 10
35.3086134473
 20
11.7655153987
 11
35.2994218045
 21
11.2389265322
  0
LINE
  5
27A
100
AcDbEntity
  8
0
100
AcDbLine
 62
7
  6
BYLAYER
 10
13.5871612395
 20
16.1655153987
 11
13.7871612395
 21
16.3655153987
  0
LINE
  5
27B
100
AcDbEntity
  8
0
100
AcDbLine
 62
7
  6
BYLAYER
 10
12.2381795094
 20
44.8916621215
 11
16.7664279505
 21
44.8916621215
  0
LINE
  5
27C
100
AcDbEntity
  8
0
100
AcDbLine
 62
7
  6
BYLAYER
 10
17.3886303817
 20
44.8916621215
 11
17.9361429697
 21
44.8916621215
  0
LINE
  5
27D
100
AcDbEntity
  8
0
100
AcDbLine
 62
7
  6
BYLAYER
 10
12.5370379188
 20
45.1655153987
 11
17.6372845603
 21
45.1655153987
  0
LINE
  5
27E
100
AcDbEntity
  8
0
100
AcDbLine
 62
7
  6
BYLAYER
 10
11.6371612395
 20
45.6655153987
 11
33.3371612395
 21
45.6655153987
  0
LINE
  5
27F
100
AcDbEntity
  8
0
100
AcDbLine
 62
7
  6
BYLAYER
 10
34.9871605258
 20
42.4905131334
 11
34.6871588066
 21
42.7905146459
  0
LINE
  5
280
100
AcDbEntity
  8
0
100
AcDbLine
 62
7
  6
BYLAYER
 10
36.7871612395
 20
41.8655138276
 11
36.4871595411
 21
42.1655153987
  0
LINE
  5
281
100
AcDbEntity
  8
0
100
AcDbLine
 62
7
  6
BYLAYER
 10
39.2871612395
 20
34.9655153987
 11
39.7490414549
 21
34.1655153987
  0
LINE
  5
282
100
AcDbEntity
  8
0
100
AcDbLine
 62
7
  6
BYLAYER
 10
38.0871612395
 20
25.7655153987
 11
37.9361429697
 21
27.4916621215
  0
LINE
  5
283
100
AcDbEntity
  8
0
100
AcDbLine
 62
7
  6
BYLAYER
 10
36.7255584609
 20
17.2655153987
 11
36.7337628745
 21
16.6655153987
  0
LINE
  5
284
100
AcDbEntity
  8
0
100
AcDbLine
 62
7
  6
BYLAYER
 10
36.4871595411
 20
42.1655153987
 11
36.4871595411
 21
35.009145329
  0
LINE
  5
285
100
AcDbEntity
  8
0
100
AcDbLine
 62
7
  6
BYLAYER
 10
36.5871612395
 20
11.9655153987
 11
36.5871612395
 21
16.7655153987
  0
LINE
  5
286
100
AcDbEntity
  8
0
100
AcDbLine
 62
7
  6
BYLAYER
 10
36.7871612395
 20
33.1655566998
 11
36.7871612395
 21
43.1654740975
  0
LINE
  5
287
100
AcDbEntity
  8
0
100
AcDbLine
 62
7
  6
BYLAYER
 10
36.9285023856
 20
17.2655153987
 11
36.9285023856
 21
16.6655153987
  0
LINE
  5
288
100
AcDbEntity
  8
0
100
AcDbLine
 62
7
  6
BYLAYER
 10
37.0871612395
 20
16.6655153987
 11
37.0871612395
 21
17.2655153987
  0
LINE
  5
289
100
AcDbEntity
  8
0
100
AcDbLine
 62
7
  6
BYLAYER
 10
37.2871612395
 20
39.5573549804
 11
37.2871612395
 21
37.9757027064
  0
LINE
  5
28A
100
AcDbEntity
  8
0
100
AcDbLine
 62
7
  6
BYLAYER
 10
37.2871612395
 20
30.1890162857
 11
37.2871612395
 21
37.5527659391
  0
LINE
  5
28B
100
AcDbEntity
  8
0
100
AcDbLine
 62
7
  6
BYLAYER
 10
37.2871612395
 20
39.5591818196
 11
37.2871612395
 21
49.6084543962
  0
LINE
  5
28C
100
AcDbEntity
  8
0
100
AcDbLine
 62
7
  6
BYLAYER
 10
37.887259053
 20
23.7655153987
 11
37.8872590526
 21
17.2655153987
  0
LINE
  5
28D
100
AcDbEntity
  8
0
100
AcDbLine
 62
7
  6
BYLAYER
 10
38.5371612395
 20
25.7655153987
 11
38.5371612395
 21
23.7655153987
  0
LINE
  5
28E
100
AcDbEntity
  8
0
100
AcDbLine
 62
7
  6
BYLAYER
 10
38.5871612395
 20
17.2655153987
 11
38.5871612395
 21
23.7655153987
  0
LINE
  5
28F
100
AcDbEntity
  8
0
100
AcDbLine
 62
7
  6
BYLAYER
 10
39.2871612395
 20
41.3655153987
 11
39.7490414549
 21
42.1655153987
  0
LINE
  5
290
100
AcDbEntity
  8
0
100
AcDbLine
 62
7
  6
BYLAYER
 10
34.9871605258
 20
33.8405176639
 11
34.6871588066
 21
33.5405161514
  0
LINE
  5
291
100
AcDbEntity
  8
0
100
AcDbLine
 62
7
  6
BYLAYER
 10
39.2871612395
 20
48.4028702182
 11
37.2871612395
 21
48.4028702182
  0
LINE
  5
292
100
AcDbEntity
  8
0
100
AcDbLine
 62
7
  6
BYLAYER
 10
22.5871612395
 20
58.6186076326
 11
23.0871612395
 21
58.1186076326
  0
LINE
  5
293
100
AcDbEntity
  8
0
100
AcDbLine
 62
7
  6
BYLAYER
 10
39.2871612395
 20
30.1890162857
 11
39.2871612395
 21
50.3350290223
  0
LINE
  5
294
100
AcDbEntity
  8
0
100
AcDbLine
 62
7
  6
BYLAYER
 10
16.3871612395
 20
11.1655153987
 11
16.5871612395
 21
11.3655153987
  0
LINE
  5
295
100
AcDbEntity
  8
0
100
AcDbLine
 62
7
  6
BYLAYER
 10
45.6871492421
 20
40.2655012088
 11
45.2871443251
 21
40.6655011377
  0
LINE
  5
296
100
AcDbEntity
  8
0
100
AcDbLine
 62
7
  6
BYLAYER
 10
37.2871612395
 20
48.996155389
 11
30.2871612395
 21
57.3227778375
  0
LINE
  5
297
100
AcDbEntity
  8
0
100
AcDbLine
 62
7
  6
BYLAYER
 10
41.9871612395
 20
41.3655153987
 11
41.5252810242
 21
42.1655153987
  0
LINE
  5
298
100
AcDbEntity
  8
0
100
AcDbLine
 62
7
  6
BYLAYER
 10
41.9871612395
 20
41.3655136284
 11
41.9871612395
 21
34.9655171689
  0
LINE
  5
299
100
AcDbEntity
  8
0
100
AcDbLine
 62
7
  6
BYLAYER
 10
35.2325106588
 20
10.9976527354
 11
35.2994218045
 21
11.2389265322
  0
LINE
  5
29A
100
AcDbEntity
  8
0
100
AcDbLine
 62
7
  6
BYLAYER
 10
41.9871612395
 20
34.9655153987
 11
41.5252810242
 21
34.1655153987
  0
LINE
  5
29B
100
AcDbEntity
  8
0
100
AcDbLine
 62
7
  6
BYLAYER
 10
45.6871492421
 20
36.0655295885
 11
45.2871443251
 21
35.6655296596
  0
LINE
  5
29C
100
AcDbEntity
  8
0
100
AcDbLine
 62
7
  6
BYLAYER
 10
30.2871612395
 20
53.6186076326
 11
25.2871612395
 21
53.6186076326
  0
LINE
  5
29D
100
AcDbEntity
  8
0
100
AcDbLine
 62
7
  6
BYLAYER
 10
30.2871612395
 20
57.9350768447
 11
37.2871612395
 21
49.6084543962
  0
LINE
  5
29E
100
AcDbEntity
  8
0
100
AcDbLine
 62
7
  6
BYLAYER
 10
39.2871612395
 20
50.3350290223
 11
32.2871612395
 21
58.6616514708
  0
LINE
  5
29F
100
AcDbEntity
  8
0
100
AcDbLine
 62
7
  6
BYLAYER
 10
45.2871443251
 20
40.6655153987
 11
45.2871443251
 21
35.6655153987
  0
LINE
  5
2A0
100
AcDbEntity
  8
0
100
AcDbLine
 62
7
  6
BYLAYER
 10
45.6871612395
 20
40.265379933
 11
45.6871612395
 21
36.0656508643
  0
LINE
  5
2A1
100
AcDbEntity
  8
0
100
AcDbLine
 62
7
  6
BYLAYER
 10
35.2325106588
 20
10.9976527354
 11
34.665473403
 21
10.0155153987
  0
LINE
  5
2A2
100
AcDbEntity
  8
0
100
AcDbLine
 62
7
  6
BYLAYER
 10
23.0871612395
 20
58.1186076326
 11
24.0871612395
 21
58.1186076326
  0
LINE
  5
2A3
100
AcDbEntity
  8
0
100
AcDbLine
 62
7
  6
BYLAYER
 10
25.2871612395
 20
58.6186076326
 11
24.7871612395
 21
58.6186076326
  0
LINE
  5
2A4
100
AcDbEntity
  8
0
100
AcDbLine
 62
7
  6
BYLAYER
 10
24.0871612395
 20
60.1286076326
 11
24.7871612395
 21
60.1286076326
  0
LINE
  5
2A5
100
AcDbEntity
  8
0
100
AcDbLine
 62
7
  6
BYLAYER
 10
32.2871612395
 20
61.0686076326
 11
33.7871612395
 21
61.0686076326
  0
LINE
  5
2A6
100
AcDbEntity
  8
0
100
AcDbLine
 62
7
  6
BYLAYER
 10
36.3871612395
 20
11.7655153987
 11
36.5871612395
 21
11.9655153987
  0
LINE
  5
2A7
100
AcDbEntity
  8
0
100
AcDbLine
 62
7
  6
BYLAYER
 10
30.2871612395
 20
63.4247571362
 11
32.2871612395
 21
63.4247571362
  0
LINE
  5
2A8
100
AcDbEntity
  8
0
100
AcDbLine
 62
7
  6
BYLAYER
 10
32.2871612395
 20
65.1686076326
 11
33.7871612395
 21
65.1686076326
  0
LINE
  5
2A9
100
AcDbEntity
  8
0
100
AcDbLine
 62
7
  6
BYLAYER
 10
24.0871612395
 20
66.1086076326
 11
24.7871612395
 21
66.1086076326
  0
LINE
  5
2AA
100
AcDbEntity
  8
0
100
AcDbLine
 62
7
  6
BYLAYER
 10
25.2871612395
 20
67.6186076326
 11
24.7871612395
 21
67.6186076326
  0
LINE
  5
2AB
100
AcDbEntity
  8
0
100
AcDbLine
 62
7
  6
BYLAYER
 10
23.0871612395
 20
68.1186076326
 11
24.0871612395
 21
68.1186076326
  0
LINE
  5
2AC
100
AcDbEntity
  8
0
100
AcDbLine
 62
7
  6
BYLAYER
 10
30.2871612395
 20
68.1186076326
 11
32.2871612395
 21
68.1186076326
  0
LINE
  5
2AD
100
AcDbEntity
  8
0
100
AcDbLine
 62
7
  6
BYLAYER
 10
30.2871612395
 20
72.6186076326
 11
25.2871612395
 21
72.6186076326
  0
ARC
  5
2AE
100
AcDbEntity
  8
0
100
AcDbCircle
 62
7
  6
BYLAYER
 10
34.2726425183
 20
59.1539546449
 40
24.2461524674
100
AcDbArc
 50
275.2404017745
 51
275.9527309275
  0
ARC
  5
2AF
100
AcDbEntity
  8
0
100
AcDbCircle
 62
7
  6
BYLAYER
 10
15.9418617779
 20
10.2655153987
 40
0.5
100
AcDbArc
 50
210.0
 51
270.0
  0
ARC
  5
2B0
100
AcDbEntity
  8
0
100
AcDbCircle
 62
7
  6
BYLAYER
 10
15.3748245221
 20
11.2476527354
 40
0.5
100
AcDbArc
 50
189.8236804063
 51
210.0
  0
ARC
  5
2B1
100
AcDbEntity
  8
0
100
AcDbCircle
 62
7
  6
BYLAYER
 10
34.2324607011
 20
10.2655153987
 40
0.5
100
AcDbArc
 50
270.0
 51
330.0
  0
ARC
  5
2B2
100
AcDbEntity
  8
0
100
AcDbCircle
 62
7
  6
BYLAYER
 10
32.5370379188
 20
27.4655153987
 40
0.3
100
AcDbArc
 50
90.0
 51
175.0
  0
ARC
  5
2B3
100
AcDbEntity
  8
0
100
AcDbCircle
 62
7
  6
BYLAYER
 10
37.6372845603
 20
27.4655153987
 40
0.3
100
AcDbArc
 50
5.0
 51
90.0
  0
ARC
  5
2B4
100
AcDbEntity
  8
0
100
AcDbCircle
 62
7
  6
BYLAYER
 10
12.5370379188
 20
44.8655153987
 40
0.3
100
AcDbArc
 50
90.0
 51
175.0
  0
ARC
  5
2B5
100
AcDbEntity
  8
0
100
AcDbCircle
 62
7
  6
BYLAYER
 10
17.6372845603
 20
44.8655153987
 40
0.3
100
AcDbArc
 50
5.0
 51
90.0
  0
SPLINE
  5
2B6
100
AcDbEntity
  8
0
100
AcDbSpline
 62
7
  6
BYLAYER
 70
0
 71
3
 72
11
 73
7
 74
0
 42
0.0000001
 43
0.0000001
 44
0.0000000001
 40
0.0
 40
0.0
 40
0.0
 40
0.0
 40
0.2500119043
 40
0.5000143386
 40
0.7500092666
 40
1.0
 40
1.0
 40
1.0
 40
1.0
 10
41.5252810242
 20
40.1655153987
 30
0.0
 10
41.5722064965
 20
40.0029607941
 30
0.0
 10
41.6581857234
 20
39.6754933197
 30
0.0
 10
41.7573036488
 20
39.1773303589
 30
0.0
 10
41.820241794
 20
38.6732169629
 30
0.0
 10
41.8346821009
 20
38.3346932682
 30
0.0
 10
41.8346821009
 20
38.1655153987
 30
0.0
  0
SPLINE
  5
2B7
100
AcDbEntity
  8
0
100
AcDbSpline
 62
7
  6
BYLAYER
 70
0
 71
3
 72
19
 73
15
 74
0
 42
0.0000001
 43
0.0000001
 44
0.0000000001
 40
0.0
 40
0.0
 40
0.0
 40
0.0
 40
0.1307723507
 40
0.2571515726
 40
0.3188539744
 40
0.3797373382
 40
0.4400263652
 40
0.5000007526
 40
0.5599757181
 40
0.620264208
 40
0.6811468007
 40
0.7428501263
 40
0.8692282214
 40
1.0
 40
1.0
 40
1.0
 40
1.0
 10
41.5252810242
 20
42.1655153987
 30
0.0
 10
41.5714334748
 20
42.0855770093
 30
0.0
 10
41.6561898311
 20
41.9247784202
 30
0.0
 10
41.7400580457
 20
41.7152874643
 30
0.0
 10
41.7885730941
 20
41.5462440689
 30
0.0
 10
41.8149601679
 20
41.419757951
 30
0.0
 10
41.8310828659
 20
41.2927726952
 30
0.0
 10
41.8364652323
 20
41.1655136223
 30
0.0
 10
41.8310617997
 20
41.0382568159
 30
0.0
 10
41.8149623925
 20
40.9112698575
 30
0.0
 10
41.7885870716
 20
40.7847804287
 30
0.0
 10
41.740039565
 20
40.615747163
 30
0.0
 10
41.6561938791
 20
40.4062497396
 30
0.0
 10
41.5714332729
 20
40.2454534384
 30
0.0
 10
41.5252810242
 20
40.1655153987
 30
0.0
  0
SPLINE
  5
2B8
100
AcDbEntity
  8
0
100
AcDbSpline
 62
7
  6
BYLAYER
 70
0
 71
3
 72
19
 73
15
 74
0
 42
0.0000001
 43
0.0000001
 44
0.0000000001
 40
0.0
 40
0.0
 40
0.0
 40
0.0
 40
0.1307723645
 40
0.2571515558
 40
0.3188539668
 40
0.3797373368
 40
0.4400263627
 40
0.5000007488
 40
0.5599757157
 40
0.6202642058
 40
0.6811467943
 40
0.7428501181
 40
0.8692282273
 40
1.0
 40
1.0
 40
1.0
 40
1.0
 10
39.7490414549
 20
40.1655153987
 30
0.0
 10
39.7028889995
 20
40.2454537963
 30
0.0
 10
39.6181324427
 20
40.4062522809
 30
0.0
 10
39.5342646184
 20
40.6157433843
 30
0.0
 10
39.48574942
 20
40.7847867174
 30
0.0
 10
39.4593622572
 20
40.9112728299
 30
0.0
 10
39.4432395572
 20
41.0382580904
 30
0.0
 10
39.4378572804
 20
41.1655171673
 30
0.0
 10
39.4432607645
 20
41.2927739684
 30
0.0
 10
39.4593601017
 20
41.4197609316
 30
0.0
 10
39.4857353563
 20
41.5462503713
 30
0.0
 10
39.5342828737
 20
41.7152836424
 30
0.0
 10
39.6181286668
 20
41.9247810243
 30
0.0
 10
39.7028892083
 20
42.0855773627
 30
0.0
 10
39.7490414549
 20
42.1655153987
 30
0.0
  0
SPLINE
  5
2B9
100
AcDbEntity
  8
0
100
AcDbSpline
 62
7
  6
BYLAYER
 70
0
 71
3
 72
11
 73
7
 74
0
 42
0.0000001
 43
0.0000001
 44
0.0000000001
 40
0.0
 40
0.0
 40
0.0
 40
0.0
 40
0.249990778
 40
0.4999857227
 40
0.7499881269
 40
1.0
 40
1.0
 40
1.0
 40
1.0
 10
39.4396403781
 20
38.1655153987
 30
0.0
 10
39.4396403781
 20
38.3346932973
 30
0.0
 10
39.4540808771
 20
38.6732170225
 30
0.0
 10
39.5170188667
 20
39.1773304487
 30
0.0
 10
39.6161367487
 20
39.67549339
 30
0.0
 10
39.7021159887
 20
40.0029608154
 30
0.0
 10
39.7490414549
 20
40.1655153987
 30
0.0
  0
SPLINE
  5
2BA
100
AcDbEntity
  8
0
100
AcDbSpline
 62
7
  6
BYLAYER
 70
0
 71
3
 72
11
 73
7
 74
0
 42
0.0000001
 43
0.0000001
 44
0.0000000001
 40
0.0
 40
0.0
 40
0.0
 40
0.0
 40
0.2500118062
 40
0.5000143479
 40
0.7500092637
 40
1.0
 40
1.0
 40
1.0
 40
1.0
 10
39.7490414549
 20
36.1655153987
 30
0.0
 10
39.7021160021
 20
36.3280699353
 30
0.0
 10
39.6161380576
 20
36.6555377425
 30
0.0
 10
39.5170192237
 20
37.1537004467
 30
0.0
 10
39.4540800078
 20
37.6578138149
 30
0.0
 10
39.4396403781
 20
37.9963375315
 30
0.0
 10
39.4396403781
 20
38.1655153987
 30
0.0
  0
SPLINE
  5
2BB
100
AcDbEntity
  8
0
100
AcDbSpline
 62
7
  6
BYLAYER
 70
0
 71
3
 72
19
 73
15
 74
0
 42
0.0000001
 43
0.0000001
 44
0.0000000001
 40
0.0
 40
0.0
 40
0.0
 40
0.0
 40
0.1307723645
 40
0.2571515558
 40
0.3188539668
 40
0.3797373368
 40
0.4400263627
 40
0.5000007488
 40
0.5599757157
 40
0.6202642058
 40
0.6811467943
 40
0.7428501181
 40
0.8692282273
 40
1.0
 40
1.0
 40
1.0
 40
1.0
 10
39.7490414549
 20
34.1655153987
 30
0.0
 10
39.7028889995
 20
34.2454537963
 30
0.0
 10
39.6181324427
 20
34.4062522809
 30
0.0
 10
39.5342646184
 20
34.6157433843
 30
0.0
 10
39.48574942
 20
34.7847867174
 30
0.0
 10
39.4593622572
 20
34.9112728299
 30
0.0
 10
39.4432395572
 20
35.0382580904
 30
0.0
 10
39.4378572804
 20
35.1655171673
 30
0.0
 10
39.4432607645
 20
35.2927739684
 30
0.0
 10
39.4593601017
 20
35.4197609316
 30
0.0
 10
39.4857353563
 20
35.5462503713
 30
0.0
 10
39.5342828737
 20
35.7152836424
 30
0.0
 10
39.6181286668
 20
35.9247810243
 30
0.0
 10
39.7028892083
 20
36.0855773627
 30
0.0
 10
39.7490414549
 20
36.1655153987
 30
0.0
  0
SPLINE
  5
2BC
100
AcDbEntity
  8
0
100
AcDbSpline
 62
7
  6
BYLAYER
 70
0
 71
3
 72
19
 73
15
 74
0
 42
0.0000001
 43
0.0000001
 44
0.0000000001
 40
0.0
 40
0.0
 40
0.0
 40
0.0
 40
0.1307723507
 40
0.2571515726
 40
0.3188539744
 40
0.3797373382
 40
0.4400263652
 40
0.5000007526
 40
0.5599757181
 40
0.620264208
 40
0.6811468007
 40
0.7428501263
 40
0.8692282214
 40
1.0
 40
1.0
 40
1.0
 40
1.0
 10
41.5252810242
 20
36.1655153987
 30
0.0
 10
41.5714334748
 20
36.0855770093
 30
0.0
 10
41.6561898311
 20
35.9247784202
 30
0.0
 10
41.7400580457
 20
35.7152874643
 30
0.0
 10
41.7885730941
 20
35.5462440689
 30
0.0
 10
41.8149601679
 20
35.419757951
 30
0.0
 10
41.8310828659
 20
35.2927726952
 30
0.0
 10
41.8364652323
 20
35.1655136223
 30
0.0
 10
41.8310617997
 20
35.0382568159
 30
0.0
 10
41.8149623925
 20
34.9112698575
 30
0.0
 10
41.7885870716
 20
34.7847804287
 30
0.0
 10
41.740039565
 20
34.615747163
 30
0.0
 10
41.6561938791
 20
34.4062497396
 30
0.0
 10
41.5714332729
 20
34.2454534384
 30
0.0
 10
41.5252810242
 20
34.1655153987
 30
0.0
  0
SPLINE
  5
2BD
100
AcDbEntity
  8
0
100
AcDbSpline
 62
7
  6
BYLAYER
 70
0
 71
3
 72
11
 73
7
 74
0
 42
0.0000001
 43
0.0000001
 44
0.0000000001
 40
0.0
 40
0.0
 40
0.0
 40
0.0
 40
0.2499907822
 40
0.4999857134
 40
0.7499882259
 40
1.0
 40
1.0
 40
1.0
 40
1.0
 10
41.8346821009
 20
38.1655153987
 30
0.0
 10
41.8346821009
 20
37.9963375012
 30
0.0
 10
41.8202423074
 20
37.6578137526
 30
0.0
 10
41.7573032252
 20
37.1537003546
 30
0.0
 10
41.6581844224
 20
36.6555376737
 30
0.0
 10
41.5722064707
 20
36.3280699137
 30
0.0
 10
41.5252810242
 20
36.1655153987
 30
0.0
  0
SPLINE
  5
2BE
100
AcDbEntity
  8
0
100
AcDbSpline
 62
7
  6
BYLAYER
 70
0
 71
3
 72
14
 73
10
 74
0
 42
0.0000001
 43
0.0000001
 44
0.0000000001
 40
0.0
 40
0.0
 40
0.0
 40
0.0
 40
0.2867233189
 40
0.4231521399
 40
0.5525171901
 40
0.6740528291
 40
0.7880176694
 40
0.8958870982
 40
1.0
 40
1.0
 40
1.0
 40
1.0
 10
36.7664279505
 20
27.4916621215
 30
0.0
 10
36.7633621857
 20
27.5281483097
 30
0.0
 10
36.7517548592
 20
27.5818638544
 30
0.0
 10
36.7221691488
 20
27.6461401425
 30
0.0
 10
36.6945663267
 20
27.6874736481
 30
0.0
 10
36.6620903115
 20
27.7212586438
 30
0.0
 10
36.6257589224
 20
27.7464063518
 30
0.0
 10
36.5867433933
 20
27.7619526781
 30
0.0
 10
36.5595591414
 20
27.7655153987
 30
0.0
 10
36.5462638531
 20
27.7655153987
 30
0.0
  0
LINE
  5
2BF
100
AcDbEntity
  8
0
100
AcDbLine
 62
7
  6
BYLAYER
 10
36.8105824361
 20
26.9655153987
 11
36.7664279505
 21
27.4916621215
  0
SPLINE
  5
2C0
100
AcDbEntity
  8
0
100
AcDbSpline
 62
7
  6
BYLAYER
 70
0
 71
3
 72
14
 73
10
 74
0
 42
0.0000001
 43
0.0000001
 44
0.0000000001
 40
0.0
 40
0.0
 40
0.0
 40
0.0
 40
0.1048995872
 40
0.2127236991
 40
0.3261106281
 40
0.4468884979
 40
0.5756408254
 40
0.7118594986
 40
1.0
 40
1.0
 40
1.0
 40
1.0
 10
37.1786077519
 20
27.7655153987
 30
0.0
 10
37.191840829
 20
27.7655153987
 30
0.0
 10
37.2187970706
 20
27.7619976511
 30
0.0
 10
37.2573116388
 20
27.7464573011
 30
0.0
 10
37.2927803372
 20
27.7212763942
 30
0.0
 10
37.3240460826
 20
27.68744311
 30
0.0
 10
37.3501325855
 20
27.6460649387
 30
0.0
 10
37.3773928454
 20
27.581602433
 30
0.0
 10
37.3869241253
 20
27.5279709609
 30
0.0
 10
37.3886303817
 20
27.4916621215
 30
0.0
  0
LINE
  5
2C1
100
AcDbEntity
  8
0
100
AcDbLine
 62
7
  6
BYLAYER
 10
37.3886303817
 20
27.4916621215
 11
37.4133003465
 21
26.9655153987
  0
LINE
  5
2C2
100
AcDbEntity
  8
0
100
AcDbLine
 62
7
  6
BYLAYER
 10
16.8105824361
 20
44.3655153987
 11
16.7664279505
 21
44.8916621215
  0
SPLINE
  5
2C3
100
AcDbEntity
  8
0
100
AcDbSpline
 62
7
  6
BYLAYER
 70
0
 71
3
 72
13
 73
9
 74
0
 42
0.0000001
 43
0.0000001
 44
0.0000000001
 40
0.0
 40
0.0
 40
0.0
 40
0.0
 40
0.1041504866
 40
0.2121602127
 40
0.3262366457
 40
0.4478799713
 40
0.7130491128
 40
1.0
 40
1.0
 40
1.0
 40
1.0
 10
16.5462638531
 20
45.1655153987
 30
0.0
 10
16.5595526258
 20
45.1655153987
 30
0.0
 10
16.5867343394
 20
45.1619417851
 30
0.0
 10
16.6257569194
 20
45.1464148477
 30
0.0
 10
16.6621010898
 20
45.1212593269
 30
0.0
 10
16.7065946997
 20
45.074891719
 30
0.0
 10
16.7483367945
 20
44.9979435855
 30
0.0
 10
16.7633623628
 20
44.9281462025
 30
0.0
 10
16.7664279505
 20
44.8916621215
 30
0.0
  0
LINE
  5
2C4
100
AcDbEntity
  8
0
100
AcDbLine
 62
7
  6
BYLAYER
 10
17.3886303817
 20
44.8916621215
 11
17.4133003465
 21
44.3655153987
  0
SPLINE
  5
2C5
100
AcDbEntity
  8
0
100
AcDbSpline
 62
7
  6
BYLAYER
 70
0
 71
3
 72
13
 73
9
 74
0
 42
0.0000001
 43
0.0000001
 44
0.0000000001
 40
0.0
 40
0.0
 40
0.0
 40
0.0
 40
0.2884090348
 40
0.5527062706
 40
0.6735903094
 40
0.7870891537
 40
0.8950568245
 40
1.0
 40
1.0
 40
1.0
 40
1.0
 10
17.3886303817
 20
44.8916621215
 30
0.0
 10
17.3869240783
 20
44.9279719609
 30
0.0
 10
17.374625949
 20
44.9975134086
 30
0.0
 10
17.3356640659
 20
45.0748081977
 30
0.0
 10
17.2927863467
 20
45.1212762688
 30
0.0
 10
17.257308706
 20
45.1464663319
 30
0.0
 10
17.2187877243
 20
45.1619873067
 30
0.0
 10
17.1918343657
 20
45.1655153987
 30
0.0
 10
17.1786077519
 20
45.1655153987
 30
0.0
  0
SPLINE
  5
2C6
100
AcDbEntity
  8
0
100
AcDbSpline
 62
7
  6
BYLAYER
 70
0
 71
3
 72
9
 73
5
 74
0
 42
0.0000001
 43
0.0000001
 44
0.0000000001
 40
0.0
 40
0.0
 40
0.0
 40
0.0
 40
0.2558873972
 40
1.0
 40
1.0
 40
1.0
 40
1.0
 10
18.228175159
 20
11.2389265322
 30
0.0
 10
18.2284351414
 20
11.217887855
 30
0.0
 10
18.2331833317
 20
11.1357884408
 30
0.0
 10
18.2524370842
 20
11.054288718
 30
0.0
 10
18.2755867583
 20
10.9976527354
 30
0.0
  0
LINE
  5
2C7
100
AcDbEntity
  8
0
100
AcDbLine
 62
7
  6
BYLAYER
 10
18.2755867583
 20
10.9976527354
 11
18.6770590791
 21
10.0155162055
  0
SPLINE
  5
2C8
100
AcDbEntity
  8
0
100
AcDbSpline
 62
7
  6
BYLAYER
 70
0
 71
3
 72
9
 73
5
 74
0
 42
0.0000001
 43
0.0000001
 44
0.0000000001
 40
0.0
 40
0.0
 40
0.0
 40
0.0
 40
0.2571257864
 40
1.0
 40
1.0
 40
1.0
 40
1.0
 10
18.6770590791
 20
10.0155162055
 30
0.0
 10
18.6807995769
 20
10.0063663866
 30
0.0
 10
18.6962534481
 20
9.9711643248
 30
0.0
 10
18.7154183085
 20
9.9375479473
 30
0.0
 10
18.7317866633
 20
9.9141453131
 30
0.0
  0
LINE
  5
2C9
100
AcDbEntity
  8
0
100
AcDbLine
 62
7
  6
BYLAYER
 10
31.8148089744
 20
6.8286913098
 11
32.1833502157
 21
9.7655153987
  0
SPLINE
  5
2CA
100
AcDbEntity
  8
0
100
AcDbSpline
 62
7
  6
BYLAYER
 70
0
 71
3
 72
13
 73
9
 74
0
 42
0.0000001
 43
0.0000001
 44
0.0000000001
 40
0.0
 40
0.0
 40
0.0
 40
0.0
 40
0.1054791018
 40
0.2141153206
 40
0.3281177535
 40
0.4491367898
 40
0.7126322928
 40
1.0
 40
1.0
 40
1.0
 40
1.0
 10
31.4640861475
 20
6.4155153987
 30
0.0
 10
31.4847768177
 20
6.4155153987
 30
0.0
 10
31.5269419212
 20
6.4207706677
 30
0.0
 10
31.5876234683
 20
6.4438057633
 30
0.0
 10
31.644283577
 20
6.4812560155
 30
0.0
 10
31.7140816217
 20
6.5504986733
 30
0.0
 10
31.7812129981
 20
6.6666418961
 30
0.0
 10
31.8077874853
 20
6.7727605734
 30
0.0
 10
31.8148089744
 20
6.8286913098
 30
0.0
  0
LINE
  5
2CB
100
AcDbEntity
  8
0
100
AcDbLine
 62
7
  6
BYLAYER
 10
17.9909722633
 20
9.7655153987
 11
18.3595135047
 21
6.8286913098
  0
SPLINE
  5
2CC
100
AcDbEntity
  8
0
100
AcDbSpline
 62
7
  6
BYLAYER
 70
0
 71
3
 72
13
 73
9
 74
0
 42
0.0000001
 43
0.0000001
 44
0.0000000001
 40
0.0
 40
0.0
 40
0.0
 40
0.0
 40
0.2873719025
 40
0.5508652922
 40
0.6718822544
 40
0.7858834551
 40
0.8945201858
 40
1.0
 40
1.0
 40
1.0
 40
1.0
 10
18.3595135047
 20
6.8286913098
 30
0.0
 10
18.3665350966
 20
6.7727597546
 30
0.0
 10
18.3931098795
 20
6.6666406966
 30
0.0
 10
18.4602415323
 20
6.5504975803
 30
0.0
 10
18.5300391159
 20
6.4812560397
 30
0.0
 10
18.5866985739
 20
6.4438057666
 30
0.0
 10
18.6473802563
 20
6.4207710493
 30
0.0
 10
18.6895455413
 20
6.4155153987
 30
0.0
 10
18.7102363522
 20
6.4155153987
 30
0.0
  0
SPLINE
  5
2CD
100
AcDbEntity
  8
0
100
AcDbSpline
 62
7
  6
BYLAYER
 70
0
 71
3
 72
9
 73
5
 74
0
 42
0.0000001
 43
0.0000001
 44
0.0000000001
 40
0.0
 40
0.0
 40
0.0
 40
0.0
 40
0.2432903293
 40
1.0
 40
1.0
 40
1.0
 40
1.0
 10
17.5684799771
 20
10.9976527354
 30
0.0
 10
17.5609102193
 20
11.0161722475
 30
0.0
 10
17.5337553342
 20
11.0938768099
 30
0.0
 10
17.5218372875
 20
11.176703706
 30
0.0
 10
17.5210683778
 20
11.2389265322
 30
0.0
  0
LINE
  5
2CE
100
AcDbEntity
  8
0
100
AcDbLine
 62
7
  6
BYLAYER
 10
17.9699539667
 20
10.0155121234
 11
17.5684799771
 21
10.9976527354
  0
SPLINE
  5
2CF
100
AcDbEntity
  8
0
100
AcDbSpline
 62
7
  6
BYLAYER
 70
0
 71
3
 72
9
 73
5
 74
0
 42
0.0000001
 43
0.0000001
 44
0.0000000001
 40
0.0
 40
0.0
 40
0.0
 40
0.0
 40
0.2429925142
 40
1.0
 40
1.0
 40
1.0
 40
1.0
 10
18.0246798821
 20
9.9141450142
 30
0.0
 10
18.0193257902
 20
9.9218000201
 30
0.0
 10
17.9982489672
 20
9.9539676394
 30
0.0
 10
17.9809664972
 20
9.9885738211
 30
0.0
 10
17.9699539667
 20
10.0155121234
 30
0.0
  0
SPLINE
  5
2D0
100
AcDbEntity
  8
0
100
AcDbSpline
 62
7
  6
BYLAYER
 70
0
 71
3
 72
9
 73
5
 74
0
 42
0.0000001
 43
0.0000001
 44
0.0000000001
 40
0.0
 40
0.0
 40
0.0
 40
0.0
 40
0.4999999911
 40
1.0
 40
1.0
 40
1.0
 40
1.0
 10
18.7317866633
 20
9.9141450732
 30
0.0
 10
18.6141909735
 20
9.9052846799
 30
0.0
 10
18.3782332748
 20
9.897293215
 30
0.0
 10
18.1422755761
 20
9.9052846797
 30
0.0
 10
18.0246798821
 20
9.9141450732
 30
0.0
  0
LINE
  5
2D1
100
AcDbEntity
  8
0
100
AcDbLine
 62
7
  6
BYLAYER
 10
21.3115965368
 20
9.3523394875
 11
21.630436514
 21
6.8286913098
  0
LINE
  5
2D2
100
AcDbEntity
  8
0
100
AcDbLine
 62
7
  6
BYLAYER
 10
28.5438859651
 20
6.8286913098
 11
28.8627259423
 21
9.3523394875
  0
SPLINE
  5
2D3
100
AcDbEntity
  8
0
100
AcDbSpline
 62
7
  6
BYLAYER
 70
0
 71
3
 72
13
 73
9
 74
0
 42
0.0000001
 43
0.0000001
 44
0.0000000001
 40
0.0
 40
0.0
 40
0.0
 40
0.0
 40
0.2875188556
 40
0.5508578925
 40
0.6717723328
 40
0.7857282947
 40
0.8944099007
 40
1.0
 40
1.0
 40
1.0
 40
1.0
 10
21.630436514
 20
6.8286913098
 30
0.0
 10
21.6375384197
 20
6.7725351539
 30
0.0
 10
21.6644598024
 20
6.6660615065
 30
0.0
 10
21.7324226861
 20
6.549831877
 30
0.0
 10
21.8028525341
 20
6.4808084795
 30
0.0
 10
21.8599157849
 20
6.4435692646
 30
0.0
 10
21.9209309422
 20
6.4207188803
 30
0.0
 10
21.9632759178
 20
6.4155153987
 30
0.0
 10
21.9840632996
 20
6.4155153987
 30
0.0
  0
SPLINE
  5
2D4
100
AcDbEntity
  8
0
100
AcDbSpline
 62
7
  6
BYLAYER
 70
0
 71
3
 72
13
 73
9
 74
0
 42
0.0000001
 43
0.0000001
 44
0.0000000001
 40
0.0
 40
0.0
 40
0.0
 40
0.0
 40
0.1055882994
 40
0.2142679185
 40
0.3282254969
 40
0.4491441011
 40
0.7124887242
 40
1.0
 40
1.0
 40
1.0
 40
1.0
 10
28.1902601011
 20
6.4155153987
 30
0.0
 10
28.2110470968
 20
6.4155153987
 30
0.0
 10
28.2533913932
 20
6.4207181091
 30
0.0
 10
28.3144056899
 20
6.4435692894
 30
0.0
 10
28.3714699394
 20
6.4808080634
 30
0.0
 10
28.4419007798
 20
6.5498335995
 30
0.0
 10
28.5098634442
 20
6.6660635458
 30
0.0
 10
28.5367842574
 20
6.7725367202
 30
0.0
 10
28.5438859651
 20
6.8286913098
 30
0.0
  0
LINE
  5
2D5
100
AcDbEntity
  8
0
100
AcDbLine
 62
7
  6
BYLAYER
 10
30.7691366534
 20
9.7655153987
 11
30.400595412
 21
6.8286913098
  0
SPLINE
  5
2D6
100
AcDbEntity
  8
0
100
AcDbSpline
 62
7
  6
BYLAYER
 70
0
 71
3
 72
13
 73
9
 74
0
 42
0.0000001
 43
0.0000001
 44
0.0000000001
 40
0.0
 40
0.0
 40
0.0
 40
0.0
 40
0.2873719025
 40
0.5508652922
 40
0.6718822544
 40
0.7858834551
 40
0.8945201858
 40
1.0
 40
1.0
 40
1.0
 40
1.0
 10
30.400595412
 20
6.8286913098
 30
0.0
 10
30.3935738201
 20
6.7727597546
 30
0.0
 10
30.3669990372
 20
6.6666406966
 30
0.0
 10
30.2998673843
 20
6.5504975803
 30
0.0
 10
30.2300698008
 20
6.4812560397
 30
0.0
 10
30.1734103428
 20
6.4438057666
 30
0.0
 10
30.1127286604
 20
6.4207710493
 30
0.0
 10
30.0705633754
 20
6.4155153987
 30
0.0
 10
30.0498725645
 20
6.4155153987
 30
0.0
  0
SPLINE
  5
2D7
100
AcDbEntity
  8
0
100
AcDbSpline
 62
7
  6
BYLAYER
 70
0
 71
3
 72
13
 73
9
 74
0
 42
0.0000001
 43
0.0000001
 44
0.0000000001
 40
0.0
 40
0.0
 40
0.0
 40
0.0
 40
0.1055355586
 40
0.2142058223
 40
0.3282019093
 40
0.4491781882
 40
0.7125808823
 40
1.0
 40
1.0
 40
1.0
 40
1.0
 10
20.9594216913
 20
9.7655153987
 30
0.0
 10
20.9801579822
 20
9.7655153987
 30
0.0
 10
21.0224096957
 20
9.7602686208
 30
0.0
 10
21.0832385248
 20
9.7372831656
 30
0.0
 10
21.1400768955
 20
9.699908688
 30
0.0
 10
21.2101682713
 20
9.6307717971
 30
0.0
 10
21.2777381255
 20
9.5146346157
 30
0.0
 10
21.3045243073
 20
9.4083688274
 30
0.0
 10
21.3115965368
 20
9.3523394875
 30
0.0
  0
SPLINE
  5
2D8
100
AcDbEntity
  8
0
100
AcDbSpline
 62
7
  6
BYLAYER
 70
0
 71
3
 72
13
 73
9
 74
0
 42
0.0000001
 43
0.0000001
 44
0.0000000001
 40
0.0
 40
0.0
 40
0.0
 40
0.0
 40
0.2874240281
 40
0.5508230873
 40
0.6717964533
 40
0.7857913666
 40
0.8944631315
 40
1.0
 40
1.0
 40
1.0
 40
1.0
 10
28.8627259423
 20
9.3523394875
 30
0.0
 10
28.8697982948
 20
9.4083698019
 30
0.0
 10
28.89658483
 20
9.5146358144
 30
0.0
 10
28.9641546961
 20
9.6307727049
 30
0.0
 10
29.0342452779
 20
9.6999081623
 30
0.0
 10
29.0910828736
 20
9.7372829965
 30
0.0
 10
29.1519122442
 20
9.7602679614
 30
0.0
 10
29.1941644221
 20
9.7655153987
 30
0.0
 10
29.2149009768
 20
9.7655153987
 30
0.0
  0
LINE
  5
2D9
100
AcDbEntity
  8
0
100
AcDbLine
 62
7
  6
BYLAYER
 10
19.773727067
 20
6.8286913098
 11
19.4051858257
 21
9.7655153987
  0
SPLINE
  5
2DA
100
AcDbEntity
  8
0
100
AcDbSpline
 62
7
  6
BYLAYER
 70
0
 71
3
 72
13
 73
9
 74
0
 42
0.0000001
 43
0.0000001
 44
0.0000000001
 40
0.0
 40
0.0
 40
0.0
 40
0.0
 40
0.1054791018
 40
0.2141153206
 40
0.3281177535
 40
0.4491367898
 40
0.7126322928
 40
1.0
 40
1.0
 40
1.0
 40
1.0
 10
20.124449894
 20
6.4155153987
 30
0.0
 10
20.1037592237
 20
6.4155153987
 30
0.0
 10
20.0615941202
 20
6.4207706677
 30
0.0
 10
20.0009125731
 20
6.4438057633
 30
0.0
 10
19.9442524644
 20
6.4812560155
 30
0.0
 10
19.8744544198
 20
6.5504986733
 30
0.0
 10
19.8073230434
 20
6.6666418961
 30
0.0
 10
19.7807485562
 20
6.7727605734
 30
0.0
 10
19.773727067
 20
6.8286913098
 30
0.0
  0
ENDSEC
  0
SECTION
  2
OBJECTS
  0
DICTIONARY
  5
C
100
AcDbDictionary
280
0
281
1
  3
ACAD_GROUP
350
D
  3
ACAD_MLINESTYLE
350
17
  3
ACAD_LAYOUT
350
1A
  3
ACAD_PLOTSETTINGS
350
19
  3
ACAD_PLOTSTYLENAME
350
E
  0
DICTIONARY
  5
D
102
{ACAD_REACTORS
330
C
102
}
100
AcDbDictionary
280
0
281
1
  0
ACDBDICTIONARYWDFLT
  5
E
102
{ACAD_REACTORS
330
C
102
}
100
AcDbDictionary
281
1
  3
Normal
350
F
100
AcDbDictionaryWithDefault
340
F
  0
DICTIONARY
  5
17
102
{ACAD_REACTORS
330
C
102
}
100
AcDbDictionary
280
0
281
1
  3
Standard
350
18
  0
DICTIONARY
  5
19
102
{ACAD_REACTORS
330
C
102
}
100
AcDbDictionary
281
1
  0
DICTIONARY
  5
1A
102
{ACAD_REACTORS
330
C
102
}
100
AcDbDictionary
281
1
  3
Model
350
2DB
  3
Layout1
350
2DC
  0
ACDBPLACEHOLDER
  5
F
102
{ACAD_REACTORS
330
E
102
}
  0
MLINESTYLE
  5
18
102
{ACAD_REACTORS
330
17
102
}
100
AcDbMlineStyle
  2
STANDARD
 70
0
  3

 62
256
 51
90.0
 52
90.0
 71
2
 49
0.5
 62
256
  6
BYLAYER
 49
-0.5
 62
256
  6
BYLAYER
  0
LAYOUT
  5
2DB
102
{ACAD_REACTORS
330
1A
102
}
100
AcDbPlotSettings
  1

  2
none_device
  4

  6

 40
0.0
 41
0.0
 42
0.0
 43
0.0
 44
210.0
 45
297.0
 46
0.0
 47
0.0
 48
0.0
 49
0.0
140
0.0
141
0.0
142
1.0
143
1.0
 70
1024
 72
1
 73
0
 74
0
  7

 75
0
147
1.0
148
0.0
149
0.0
100
AcDbLayout
  1
Model
 70
0
 71
0
 10
0.0
 20
0.0
 11
210.0
 21
297.0
 12
0.0
 22
0.0
 32
0.0
 14
0.0
 24
0.0
 34
0.0
 15
0.0
 25
0.0
 35
0.0
146
0.0
 13
0.0
 23
0.0
 33
0.0
 16
1.0
 26
0.0
 36
0.0
 17
0.0
 27
1.0
 37
0.0
 76
0
330
210
345
0
346
0
  0
LAYOUT
  5
2DC
102
{ACAD_REACTORS
330
1A
102
}
100
AcDbPlotSettings
  1

  2
none_device
  4

  6

 40
0.0
 41
0.0
 42
0.0
 43
0.0
 44
210.0
 45
297.0
 46
0.0
 47
0.0
 48
0.0
 49
0.0
140
0.0
141
0.0
142
1.0
143
1.0
 70
0
 72
1
 73
0
 74
0
  7

 75
0
147
1.0
148
0.0
149
0.0
100
AcDbLayout
  1
Layout1
 70
0
 71
1
 10
0.0
 20
0.0
 11
210.0
 21
297.0
 12
0.0
 22
0.0
 32
0.0
 14
0.0
 24
0.0
 34
0.0
 15
0.0
 25
0.0
 35
0.0
146
0.0
 13
0.0
 23
0.0
 33
0.0
 16
1.0
 26
0.0
 36
0.0
 17
0.0
 27
1.0
 37
0.0
 76
0
330
211
345
0
346
0
  0
ENDSEC
  0
EOF
