999
DXF file: C:\Users\sesa63760\Dev\_Creo\CAD\MCADID0004776_3D-CAD\drw0001_2.dxf
999
Pro/ENGINEER 2019471 by Parametric Technology Corporation
  0
SECTION
  2
HEADER
  9
$ACADVER
  1
AC1024
  9
$DWGCODEPAGE
  3
ANSI_1252
  9
$EXTMAX
 10
41.5323166304
 20
58.7385620915
 30
0.0
  9
$EXTMIN
 10
0.0
 20
0.0
 30
0.0
  9
$LIMMIN
 10
0.0
 20
0.0
  9
$LIMMAX
 10
41.5323166304
 20
58.7385620915
  9
$VIEWCTR
 10
20.7661583152
 20
29.3692810458
  9
$VIEWSIZE
 40
58.7385620915
  9
$CLAYER
  8
0
  9
$LTSCALE
 40
3.8288840474
  9
$CELTYPE
  6
BYLAYER
  9
$DIMSCALE
 40
1.0
  9
$DIMASZ
 40
0.4944323408
  9
$DIMEXO
 40
1.0
  9
$DIMDLI
 40
2.6454107964
  9
$DIMEXE
 40
1.0
  9
$DIMCEN
 40
0.6265446623
  9
$DIMLFAC
 40
1.0
  9
$DIMBLK
  1
_FILLED
  9
$DIMALT
 70
0
  9
$DIMALTF
 40
0.0393700787
  9
$DIMTXT
 40
0.6922052772
  9
$DIMTOL
 70
1
  9
$DIMLIM
 70
0
  9
$DIMTFAC
 40
1.0
  9
$DIMTP
 40
0.01
  9
$DIMTM
 40
0.01
  9
$DIMGAP
 40
0.625
  9
$DIMDSEP
 70
46
  9
$AUNITS
 70
0
  9
$PDMODE
 70
3
  9
$PDSIZE
 40
0.3125
  9
$HANDSEED
  5
2BC
  9
$TILEMODE
 70
1
  9
$MEASUREMENT
 70
1
  9
$INSUNITS
 70
4
  0
ENDSEC
  0
SECTION
  2
CLASSES
  0
CLASS
  1
ACDBDICTIONARYWDFLT
  2
AcDbDictionaryWithDefault
  3
AutoCAD 2000
 90
0
 91
1
280
0
281
0
  0
CLASS
  1
ACDBPLACEHOLDER
  2
AcDbPlaceHolder
  3
AutoCAD 2000
 90
0
 91
1
280
0
281
0
  0
CLASS
  1
LAYOUT
  2
AcDbLayout
  3
AutoCAD 2000
 90
0
 91
0
280
0
281
0
  0
ENDSEC
  0
SECTION
  2
TABLES
  0
TABLE
  2
VPORT
  5
8
100
AcDbSymbolTable
 70
2
  0
VPORT
  5
1F4
100
AcDbSymbolTableRecord
100
AcDbViewportTableRecord
  2
*ACTIVE
 70
0
 10
0.0
 20
0.0
 11
1.0
 21
1.0
 12
20.7661583152
 22
29.3692810458
 13
0.0
 23
0.0
 14
1.0
 24
1.0
 15
0.0
 25
0.0
 16
0.0
 26
0.0
 36
1.0
 17
0.0
 27
0.0
 37
0.0
 40
58.7385620915
 41
0.7070707071
 42
50.0
 43
0.0
 44
0.0
 50
0.0
 51
0.0
 71
0
 72
100
 73
1
 74
1
 75
0
 76
0
 77
0
 78
0
  0
ENDTAB
  0
TABLE
  2
LTYPE
  5
5
100
AcDbSymbolTable
 70
6
  0
LTYPE
  5
14
100
AcDbSymbolTableRecord
100
AcDbLinetypeTableRecord
  2
BYBLOCK
 70
0
  3

 72
65
 73
0
 40
0.0
  0
LTYPE
  5
15
100
AcDbSymbolTableRecord
100
AcDbLinetypeTableRecord
  2
BYLAYER
 70
0
  3

 72
65
 73
0
 40
0.0
  0
LTYPE
  5
16
100
AcDbSymbolTableRecord
100
AcDbLinetypeTableRecord
  2
CONTINUOUS
 70
64
  3
Solid line
 72
65
 73
0
 40
0.0
  0
LTYPE
  5
1F5
100
AcDbSymbolTableRecord
100
AcDbLinetypeTableRecord
  2
CENTER
 70
64
  3
____ _ ____ _ ____ _ ____ _ ____ _ ____ _ ____
 72
65
 73
4
 40
0.6
 49
0.375
 74
0
 49
-0.075
 74
0
 49
0.075
 74
0
 49
-0.075
 74
0
  0
LTYPE
  5
1F6
100
AcDbSymbolTableRecord
100
AcDbLinetypeTableRecord
  2
HIDDEN
 70
64
  3
- - - - - - - - - - - - - - - - - - - -
 72
65
 73
2
 40
0.2
 49
0.1
 74
0
 49
-0.1
 74
0
  0
LTYPE
  5
1F7
100
AcDbSymbolTableRecord
100
AcDbLinetypeTableRecord
  2
PHANTOM
 70
64
  3
_____ _ _ _____ _ _ _____ _ _ _____
 72
65
 73
6
 40
0.8
 49
0.45
 74
0
 49
-0.05
 74
0
 49
0.1
 74
0
 49
-0.05
 74
0
 49
0.1
 74
0
 49
-0.05
 74
0
  0
LTYPE
  5
1F8
100
AcDbSymbolTableRecord
100
AcDbLinetypeTableRecord
  2
DOT
 70
64
  3
. . . . . . . . . . . . . . . . . . . .
 72
65
 73
2
 40
0.2
 49
0.1
 74
0
 49
-0.1
 74
0
  0
LTYPE
  5
1F9
100
AcDbSymbolTableRecord
100
AcDbLinetypeTableRecord
  2
DASHED
 70
64
  3
- - - - - - - - - - - - - - - - - - - -
 72
65
 73
2
 40
0.2
 49
0.1
 74
0
 49
-0.1
 74
0
  0
ENDTAB
  0
TABLE
  2
LAYER
  5
2
100
AcDbSymbolTable
 70
36
  0
LAYER
  5
10
100
AcDbSymbolTableRecord
100
AcDbLayerTableRecord
  2
0
 70
0
 62
7
  6
CONTINUOUS
370
-3
390
F
  0
LAYER
  5
1FA
100
AcDbSymbolTableRecord
100
AcDbLayerTableRecord
  2
DEFAULT_1
 70
0
 62
7
  6
CENTER
370
-3
390
F
  0
LAYER
  5
1FB
100
AcDbSymbolTableRecord
100
AcDbLayerTableRecord
  2
DEFAULT_2
 70
0
 62
7
  6
HIDDEN
370
-3
390
F
  0
LAYER
  5
1FC
100
AcDbSymbolTableRecord
100
AcDbLayerTableRecord
  2
DEFAULT_3
 70
0
 62
7
  6
PHANTOM
370
-3
390
F
  0
LAYER
  5
1FD
100
AcDbSymbolTableRecord
100
AcDbLayerTableRecord
  2
00_COMPONENTS
 70
0
 62
7
  6
CONTINUOUS
370
-3
390
F
  0
LAYER
  5
1FE
100
AcDbSymbolTableRecord
100
AcDbLayerTableRecord
  2
01_1_DEFAULT_DATUMS
 70
0
 62
7
  6
CONTINUOUS
370
-3
390
F
  0
LAYER
  5
1FF
100
AcDbSymbolTableRecord
100
AcDbLayerTableRecord
  2
01_PLANES
 70
0
 62
7
  6
CONTINUOUS
370
-3
390
F
  0
LAYER
  5
200
100
AcDbSymbolTableRecord
100
AcDbLayerTableRecord
  2
02_COORD_SYS
 70
0
 62
7
  6
CONTINUOUS
370
-3
390
F
  0
LAYER
  5
201
100
AcDbSymbolTableRecord
100
AcDbLayerTableRecord
  2
03_AXES
 70
0
 62
7
  6
CONTINUOUS
370
-3
390
F
  0
LAYER
  5
202
100
AcDbSymbolTableRecord
100
AcDbLayerTableRecord
  2
04_POINTS
 70
0
 62
7
  6
CONTINUOUS
370
-3
390
F
  0
LAYER
  5
203
100
AcDbSymbolTableRecord
100
AcDbLayerTableRecord
  2
05_CURVES
 70
0
 62
7
  6
CONTINUOUS
370
-3
390
F
  0
LAYER
  5
204
100
AcDbSymbolTableRecord
100
AcDbLayerTableRecord
  2
06_SURFS
 70
0
 62
7
  6
CONTINUOUS
370
-3
390
F
  0
LAYER
  5
205
100
AcDbSymbolTableRecord
100
AcDbLayerTableRecord
  2
07_COSMETICS
 70
0
 62
7
  6
CONTINUOUS
370
-3
390
F
  0
LAYER
  5
206
100
AcDbSymbolTableRecord
100
AcDbLayerTableRecord
  2
10_NOTES
 70
0
 62
7
  6
CONTINUOUS
370
-3
390
F
  0
LAYER
  5
207
100
AcDbSymbolTableRecord
100
AcDbLayerTableRecord
  2
11_NOTES_PUB
 70
0
 62
7
  6
CONTINUOUS
370
-3
390
F
  0
LAYER
  5
208
100
AcDbSymbolTableRecord
100
AcDbLayerTableRecord
  2
13_REF_GTOL
 70
0
 62
7
  6
CONTINUOUS
370
-3
390
F
  0
LAYER
  5
209
100
AcDbSymbolTableRecord
100
AcDbLayerTableRecord
  2
16_MISC
 70
0
 62
7
  6
CONTINUOUS
370
-3
390
F
  0
LAYER
  5
20A
100
AcDbSymbolTableRecord
100
AcDbLayerTableRecord
  2
17_NO_PRINT
 70
0
 62
7
  6
CONTINUOUS
370
-3
390
F
  0
LAYER
  5
20B
100
AcDbSymbolTableRecord
100
AcDbLayerTableRecord
  2
18_DATUM_CAMS_JOINTS
 70
0
 62
7
  6
CONTINUOUS
370
-3
390
F
  0
LAYER
  5
20C
100
AcDbSymbolTableRecord
100
AcDbLayerTableRecord
  2
19_DATUM_FUNCTIONAL
 70
0
 62
7
  6
CONTINUOUS
370
-3
390
F
  0
LAYER
  5
20D
100
AcDbSymbolTableRecord
100
AcDbLayerTableRecord
  2
20_DATUM_KINEMATIC_SCHEME
 70
0
 62
7
  6
CONTINUOUS
370
-3
390
F
  0
ENDTAB
  0
TABLE
  2
STYLE
  5
3
100
AcDbSymbolTable
 70
1
  0
STYLE
  5
11
100
AcDbSymbolTableRecord
100
AcDbTextStyleTableRecord
  2
STANDARD
 70
0
 40
0.0
 41
1.0
 50
0.0
 71
0
 42
0.2
  3
ARIAL.TTF
  4

  0
STYLE
  5
20E
100
AcDbSymbolTableRecord
100
AcDbTextStyleTableRecord
  2
TEXTSTYLE_1
 70
0
 40
0.0
 41
0.8
 50
0.0
 71
0
 42
0.2
  3
gdt
  4

  0
ENDTAB
  0
TABLE
  2
VIEW
  5
6
100
AcDbSymbolTable
 70
0
  0
ENDTAB
  0
TABLE
  2
UCS
  5
7
100
AcDbSymbolTable
 70
0
  0
ENDTAB
  0
TABLE
  2
APPID
  5
9
100
AcDbSymbolTable
 70
1
  0
APPID
  5
20F
100
AcDbSymbolTableRecord
100
AcDbRegAppTableRecord
  2
ACAD
 70
0
  0
ENDTAB
  0
TABLE
  2
BLOCK_RECORD
  5
1
100
AcDbSymbolTable
 70
0
  0
BLOCK_RECORD
  5
210
100
AcDbSymbolTableRecord
100
AcDbBlockTableRecord
  2
*Model_Space
  0
BLOCK_RECORD
  5
211
100
AcDbSymbolTableRecord
100
AcDbBlockTableRecord
  2
*Paper_Space
  0
BLOCK_RECORD
  5
212
100
AcDbSymbolTableRecord
100
AcDbBlockTableRecord
  2
_FILLED
  0
ENDTAB
  0
TABLE
  2
DIMSTYLE
  5
A
100
AcDbSymbolTable
 70
1
100
AcDbDimStyleTable
 71
0
  0
DIMSTYLE
105
213
100
AcDbSymbolTableRecord
100
AcDbDimStyleTableRecord
  2
STANDARD
 70
0
  3

  4

 40
1.0
 41
0.4944323408
 42
1.0
 43
0.38
 44
1.0
 45
0.0
 46
0.0
 47
0.01
 48
0.01
140
0.6922052772
141
0.09
142
0.0
143
25.4
144
1.0
145
0.0
146
1.0
147
0.625
 71
1
 72
0
 73
0
 74
0
 75
0
 76
0
 77
1
 78
8
 79
2
170
0
171
1
172
0
173
0
174
0
175
0
176
0
177
0
178
0
270
2
179
2
271
2
272
2
273
2
274
2
275
0
280
0
281
0
282
0
283
1
284
8
285
0
286
0
287
3
288
0
340
11
278
46
341
212
342
212
343
212
344
212
  0
ENDTAB
  0
ENDSEC
  0
SECTION
  2
BLOCKS
  0
BLOCK
  5
20
100
AcDbEntity
  8
0
100
AcDbBlockBegin
  2
*Model_Space
 70
0
 10
0.0
 20
0.0
 30
0.0
  3
*Model_Space
  1

  0
ENDBLK
  5
21
100
AcDbEntity
  8
0
100
AcDbBlockEnd
  0
BLOCK
  5
1C
100
AcDbEntity
  8
0
100
AcDbBlockBegin
  2
*Paper_Space
 70
0
 10
0.0
 20
0.0
 30
0.0
  3
*Paper_Space
  1

  0
ENDBLK
  5
1D
100
AcDbEntity
  8
0
100
AcDbBlockEnd
  0
BLOCK
  5
214
100
AcDbEntity
  8
0
100
AcDbBlockBegin
  2
_FILLED
 70
64
 10
0.0
 20
0.0
  3
_FILLED
  1

  0
SOLID
  5
215
100
AcDbEntity
  8
0
  6
BYBLOCK
 62
0
100
AcDbTrace
 10
0.0
 20
0.0
 11
-1.0
 21
0.25
 12
-1.0
 22
-0.25
 13
-1.0
 23
-0.25
  0
ENDBLK
  5
216
100
AcDbEntity
  8
0
  6
BYBLOCK
 62
0
100
AcDbBlockEnd
  0
ENDSEC
  0
SECTION
  2
ENTITIES
  0
LINE
  5
217
100
AcDbEntity
  8
0
100
AcDbLine
 62
7
  6
BYLAYER
 10
6.0537400145
 20
4.1114379085
 11
36.0537400145
 21
4.1114379085
  0
LINE
  5
218
100
AcDbEntity
  8
0
100
AcDbLine
 62
7
  6
BYLAYER
 10
24.8037400145
 20
10.3786028268
 11
17.8037400145
 21
10.3786028268
  0
LINE
  5
219
100
AcDbEntity
  8
0
100
AcDbLine
 62
7
  6
BYLAYER
 10
4.5537400145
 20
35.6114379085
 11
4.5537400145
 21
5.6114379085
  0
LINE
  5
21A
100
AcDbEntity
  8
0
100
AcDbLine
 62
7
  6
BYLAYER
 10
5.0537400145
 20
4.4934039197
 11
5.0537400145
 21
36.7294718972
  0
LINE
  5
21B
100
AcDbEntity
  8
0
100
AcDbLine
 62
7
  6
BYLAYER
 10
29.4037400145
 20
12.3786028268
 11
25.6037400145
 21
12.3786028268
  0
LINE
  5
21C
100
AcDbEntity
  8
0
100
AcDbLine
 62
7
  6
BYLAYER
 10
16.6037400145
 20
12.3786028268
 11
12.8037400145
 21
12.3786028268
  0
LINE
  5
21D
100
AcDbEntity
  8
0
100
AcDbLine
 62
7
  6
BYLAYER
 10
25.0537395196
 20
14.8786028268
 11
24.8037400145
 21
14.8786028268
  0
LINE
  5
21E
100
AcDbEntity
  8
0
100
AcDbLine
 62
7
  6
BYLAYER
 10
17.8037400145
 20
14.8786028268
 11
17.5537404169
 21
14.8786028268
  0
LINE
  5
21F
100
AcDbEntity
  8
0
100
AcDbLine
 62
7
  6
BYLAYER
 10
8.3037400145
 20
39.1114379085
 11
8.3037400145
 21
53.4114379085
  0
LINE
  5
220
100
AcDbEntity
  8
0
100
AcDbLine
 62
7
  6
BYLAYER
 10
17.3037400145
 20
16.2471425698
 11
17.0037400145
 21
16.2471425698
  0
LINE
  5
221
100
AcDbEntity
  8
0
100
AcDbLine
 62
7
  6
BYLAYER
 10
17.3037400145
 20
16.5161155567
 11
17.0037400145
 21
16.5161155567
  0
LINE
  5
222
100
AcDbEntity
  8
0
100
AcDbLine
 62
7
  6
BYLAYER
 10
17.3037402477
 20
15.1286034406
 11
17.5537406593
 21
14.8786030693
  0
LINE
  5
223
100
AcDbEntity
  8
0
100
AcDbLine
 62
7
  6
BYLAYER
 10
9.3037400145
 20
40.4114379085
 11
9.3037400145
 21
54.4114379085
  0
LWPOLYLINE
  5
224
100
AcDbEntity
  8
0
100
AcDbPolyline
 62
7
  6
BYLAYER
 90
3
 70
0
 10
16.8205424674
 20
16.2105207462
 10
16.9474622143
 20
16.2442295661
 10
17.0037400125
 20
16.2471599085
  0
LINE
  5
225
100
AcDbEntity
  8
0
100
AcDbLine
 62
7
  6
BYLAYER
 10
25.3037400145
 20
16.2325367669
 11
25.3913277426
 21
16.208224516
  0
LINE
  5
226
100
AcDbEntity
  8
0
100
AcDbLine
 62
7
  6
BYLAYER
 10
12.6037400145
 20
12.5786190599
 11
12.6037400145
 21
28.1785008683
  0
LINE
  5
227
100
AcDbEntity
  8
0
100
AcDbLine
 62
7
  6
BYLAYER
 10
12.8037400145
 20
12.3786028268
 11
12.8037400145
 21
28.3786028268
  0
LINE
  5
228
100
AcDbEntity
  8
0
100
AcDbLine
 62
7
  6
BYLAYER
 10
13.1037400145
 20
54.4114379085
 11
13.1037400145
 21
38.1114379085
  0
LINE
  5
229
100
AcDbEntity
  8
0
100
AcDbLine
 62
7
  6
BYLAYER
 10
13.1037400145
 20
28.3786028268
 11
13.1037400145
 21
27.6040652159
  0
LINE
  5
22A
100
AcDbEntity
  8
0
100
AcDbLine
 62
7
  6
BYLAYER
 10
25.3913277426
 20
16.208224516
 11
25.4046978855
 21
16.2001245593
  0
LINE
  5
22B
100
AcDbEntity
  8
0
100
AcDbLine
 62
7
  6
BYLAYER
 10
13.6037400145
 20
40.6118669462
 11
13.6037400145
 21
54.2110088708
  0
LINE
  5
22C
100
AcDbEntity
  8
0
100
AcDbLine
 62
7
  6
BYLAYER
 10
13.8037400145
 20
40.4114379085
 11
13.8037400145
 21
54.4114379085
  0
LINE
  5
22D
100
AcDbEntity
  8
0
100
AcDbLine
 62
7
  6
BYLAYER
 10
14.1037400145
 20
29.3507799196
 11
14.1037400145
 21
48.7795705101
  0
LINE
  5
22E
100
AcDbEntity
  8
0
100
AcDbLine
 62
7
  6
BYLAYER
 10
14.3037400145
 20
29.5314204966
 11
14.3037400145
 21
50.3697657407
  0
LINE
  5
22F
100
AcDbEntity
  8
0
100
AcDbLine
 62
7
  6
BYLAYER
 10
14.0680380717
 20
29.1132520591
 11
14.1037400145
 21
29.3507830784
  0
LINE
  5
230
100
AcDbEntity
  8
0
100
AcDbLine
 62
7
  6
BYLAYER
 10
16.6037400145
 20
30.9334993523
 11
16.6037400145
 21
12.3786028268
  0
LINE
  5
231
100
AcDbEntity
  8
0
100
AcDbLine
 62
7
  6
BYLAYER
 10
16.8037400145
 20
30.752862791
 11
16.8037400145
 21
12.578716759
  0
LINE
  5
232
100
AcDbEntity
  8
0
100
AcDbLine
 62
7
  6
BYLAYER
 10
17.0037400145
 20
16.2471425698
 11
17.0037400145
 21
30.8059937632
  0
LINE
  5
233
100
AcDbEntity
  8
0
100
AcDbLine
 62
7
  6
BYLAYER
 10
17.3037400145
 20
15.1286034406
 11
17.3037400145
 21
25.6286022131
  0
LINE
  5
234
100
AcDbEntity
  8
0
100
AcDbLine
 62
7
  6
BYLAYER
 10
17.5537404169
 20
14.8786028268
 11
17.5537404169
 21
25.8786028268
  0
LINE
  5
235
100
AcDbEntity
  8
0
100
AcDbLine
 62
7
  6
BYLAYER
 10
17.8037400145
 20
10.3786028268
 11
17.8037400145
 21
30.3786028268
  0
LINE
  5
236
100
AcDbEntity
  8
0
100
AcDbLine
 62
7
  6
BYLAYER
 10
25.0537395196
 20
25.8786028268
 11
24.8037400145
 21
25.8786028268
  0
LINE
  5
237
100
AcDbEntity
  8
0
100
AcDbLine
 62
7
  6
BYLAYER
 10
17.8037400145
 20
25.8786028268
 11
17.5537404169
 21
25.8786028268
  0
LINE
  5
238
100
AcDbEntity
  8
0
100
AcDbLine
 62
7
  6
BYLAYER
 10
17.3037402477
 20
25.6286022131
 11
17.5537406593
 21
25.8786025844
  0
LINE
  5
239
100
AcDbEntity
  8
0
100
AcDbLine
 62
7
  6
BYLAYER
 10
29.1037400145
 20
27.6040652159
 11
25.6037400145
 21
27.6040652159
  0
LINE
  5
23A
100
AcDbEntity
  8
0
100
AcDbLine
 62
7
  6
BYLAYER
 10
16.6037400145
 20
27.6040652158
 11
13.1037400145
 21
27.6040652159
  0
LINE
  5
23B
100
AcDbEntity
  8
0
100
AcDbLine
 62
7
  6
BYLAYER
 10
29.4037400145
 20
28.3786028268
 11
29.1037400145
 21
28.3786028268
  0
LINE
  5
23C
100
AcDbEntity
  8
0
100
AcDbLine
 62
7
  6
BYLAYER
 10
13.1037400145
 20
28.3786028268
 11
12.8037400145
 21
28.3786028268
  0
LINE
  5
23D
100
AcDbEntity
  8
0
100
AcDbLine
 62
7
  6
BYLAYER
 10
24.8037400145
 20
30.3786028268
 11
17.8037400145
 21
30.3786028268
  0
LINE
  5
23E
100
AcDbEntity
  8
0
100
AcDbLine
 62
7
  6
BYLAYER
 10
16.8508484518
 20
30.8957630217
 11
25.356631556
 21
30.8957630217
  0
LINE
  5
23F
100
AcDbEntity
  8
0
100
AcDbLine
 62
7
  6
BYLAYER
 10
14.3037400145
 20
31.0105677173
 11
16.6245425807
 21
31.0105677173
  0
LINE
  5
240
100
AcDbEntity
  8
0
100
AcDbLine
 62
7
  6
BYLAYER
 10
25.5829360563
 20
31.0105677173
 11
27.9037400145
 21
31.0105677173
  0
LINE
  5
241
100
AcDbEntity
  8
0
100
AcDbLine
 62
7
  6
BYLAYER
 10
27.9037400145
 20
31.1680931061
 11
14.3037400145
 21
31.1680931068
  0
LINE
  5
242
100
AcDbEntity
  8
0
100
AcDbLine
 62
7
  6
BYLAYER
 10
25.0537392673
 20
25.8786025745
 11
25.3037397716
 21
25.6286021157
  0
LINE
  5
243
100
AcDbEntity
  8
0
100
AcDbLine
 62
7
  6
BYLAYER
 10
24.8037400145
 20
30.3786028268
 11
24.8037400145
 21
10.3786028268
  0
LINE
  5
244
100
AcDbEntity
  8
0
100
AcDbLine
 62
7
  6
BYLAYER
 10
25.0537395196
 20
25.8786028268
 11
25.0537395196
 21
14.8786028268
  0
LINE
  5
245
100
AcDbEntity
  8
0
100
AcDbLine
 62
7
  6
BYLAYER
 10
25.2037400145
 20
30.8059937632
 11
25.2037400145
 21
25.7286018546
  0
LINE
  5
246
100
AcDbEntity
  8
0
100
AcDbLine
 62
7
  6
BYLAYER
 10
25.3037400145
 20
25.6286021157
 11
25.3037400145
 21
15.1286035379
  0
LINE
  5
247
100
AcDbEntity
  8
0
100
AcDbLine
 62
7
  6
BYLAYER
 10
25.4037400145
 20
12.5787933513
 11
25.4037400145
 21
30.7528627925
  0
LINE
  5
248
100
AcDbEntity
  8
0
100
AcDbLine
 62
7
  6
BYLAYER
 10
25.6037400145
 20
12.3786028268
 11
25.6037400144
 21
30.9334993529
  0
LINE
  5
249
100
AcDbEntity
  8
0
100
AcDbLine
 62
7
  6
BYLAYER
 10
27.9037400145
 20
50.3697657407
 11
27.9037400145
 21
29.5314204966
  0
LINE
  5
24A
100
AcDbEntity
  8
0
100
AcDbLine
 62
7
  6
BYLAYER
 10
28.1037400145
 20
48.7795705101
 11
28.1037400145
 21
29.3507839369
  0
LINE
  5
24B
100
AcDbEntity
  8
0
100
AcDbLine
 62
7
  6
BYLAYER
 10
28.4037400145
 20
54.4114379085
 11
28.4037400145
 21
40.4114379085
  0
LINE
  5
24C
100
AcDbEntity
  8
0
100
AcDbLine
 62
7
  6
BYLAYER
 10
28.6037400145
 20
54.2114005578
 11
28.6037400145
 21
40.6115273047
  0
LINE
  5
24D
100
AcDbEntity
  8
0
100
AcDbLine
 62
7
  6
BYLAYER
 10
29.0037400145
 20
38.1114379085
 11
29.0037400145
 21
54.4114379085
  0
LINE
  5
24E
100
AcDbEntity
  8
0
100
AcDbLine
 62
7
  6
BYLAYER
 10
29.1037400145
 20
27.6040652159
 11
29.1037400145
 21
28.3786028268
  0
LINE
  5
24F
100
AcDbEntity
  8
0
100
AcDbLine
 62
7
  6
BYLAYER
 10
6.0537400145
 20
37.1114379085
 11
14.1037400411
 21
37.1114379091
  0
LINE
  5
250
100
AcDbEntity
  8
0
100
AcDbLine
 62
7
  6
BYLAYER
 10
28.1037400145
 20
37.1114379078
 11
36.0537400145
 21
37.1114379085
  0
LINE
  5
251
100
AcDbEntity
  8
0
100
AcDbLine
 62
7
  6
BYLAYER
 10
28.1542099712
 20
29.064885875
 11
28.1508227939
 21
29.0753722699
  0
LINE
  5
252
100
AcDbEntity
  8
0
100
AcDbLine
 62
7
  6
BYLAYER
 10
29.4037400145
 20
28.3786028268
 11
29.4037400145
 21
12.3786028268
  0
LINE
  5
253
100
AcDbEntity
  8
0
100
AcDbLine
 62
7
  6
BYLAYER
 10
29.6037400145
 20
12.5787251523
 11
29.6037400145
 21
28.1784724763
  0
LINE
  5
254
100
AcDbEntity
  8
0
100
AcDbLine
 62
7
  6
BYLAYER
 10
16.8037400145
 20
16.1992976135
 11
16.8205424674
 21
16.2105207462
  0
LINE
  5
255
100
AcDbEntity
  8
0
100
AcDbLine
 62
7
  6
BYLAYER
 10
32.8037400145
 20
54.4114379085
 11
32.8037400145
 21
40.4114379085
  0
LINE
  5
256
100
AcDbEntity
  8
0
100
AcDbLine
 62
7
  6
BYLAYER
 10
32.8037400145
 20
40.4114379085
 11
29.0037400145
 21
40.4114379085
  0
LINE
  5
257
100
AcDbEntity
  8
0
100
AcDbLine
 62
7
  6
BYLAYER
 10
28.4037400145
 20
40.4114379085
 11
28.1037400145
 21
40.4114379085
  0
LINE
  5
258
100
AcDbEntity
  8
0
100
AcDbLine
 62
7
  6
BYLAYER
 10
14.1037400145
 20
40.4114379085
 11
13.8037400145
 21
40.4114379085
  0
LINE
  5
259
100
AcDbEntity
  8
0
100
AcDbLine
 62
7
  6
BYLAYER
 10
13.1037400145
 20
40.4114379085
 11
9.3037400145
 21
40.4114379085
  0
LINE
  5
25A
100
AcDbEntity
  8
0
100
AcDbLine
 62
7
  6
BYLAYER
 10
33.8037400145
 20
53.4114379085
 11
33.8037400145
 21
39.1114379085
  0
LINE
  5
25B
100
AcDbEntity
  8
0
100
AcDbLine
 62
7
  6
BYLAYER
 10
25.0537392673
 20
14.8786030791
 11
25.3037397716
 21
15.1286035379
  0
LINE
  5
25C
100
AcDbEntity
  8
0
100
AcDbLine
 62
7
  6
BYLAYER
 10
37.0537400145
 20
36.7294718972
 11
37.0537400145
 21
4.4934039197
  0
LINE
  5
25D
100
AcDbEntity
  8
0
100
AcDbLine
 62
7
  6
BYLAYER
 10
37.5537400145
 20
5.6114379085
 11
37.5537400145
 21
35.6114379085
  0
LINE
  5
25E
100
AcDbEntity
  8
0
100
AcDbLine
 62
7
  6
BYLAYER
 10
14.3037400145
 20
50.3697657407
 11
27.9037400145
 21
50.3697657407
  0
LINE
  5
25F
100
AcDbEntity
  8
0
100
AcDbLine
 62
7
  6
BYLAYER
 10
32.8037400145
 20
54.4114379085
 11
29.0037400145
 21
54.4114379085
  0
LINE
  5
260
100
AcDbEntity
  8
0
100
AcDbLine
 62
7
  6
BYLAYER
 10
28.4037400145
 20
54.4114379085
 11
13.8037400145
 21
54.4114379085
  0
LINE
  5
261
100
AcDbEntity
  8
0
100
AcDbLine
 62
7
  6
BYLAYER
 10
13.1037400145
 20
54.4114379085
 11
9.3037400145
 21
54.4114379085
  0
CIRCLE
  5
262
100
AcDbEntity
  8
0
100
AcDbCircle
 62
7
  6
BYLAYER
 10
9.0537400145
 20
8.6114379085
 40
3.75
  0
CIRCLE
  5
263
100
AcDbEntity
  8
0
100
AcDbCircle
 62
7
  6
BYLAYER
 10
9.0537400145
 20
8.6114379085
 40
2.15
  0
CIRCLE
  5
264
100
AcDbEntity
  8
0
100
AcDbCircle
 62
7
  6
BYLAYER
 10
9.0537400145
 20
8.6114379085
 40
1.85
  0
ARC
  5
265
100
AcDbEntity
  8
0
100
AcDbCircle
 62
7
  6
BYLAYER
 10
6.0537400145
 20
5.6114379085
 40
1.5
100
AcDbArc
 50
180.0
 51
270.0
  0
ARC
  5
266
100
AcDbEntity
  8
0
100
AcDbCircle
 62
7
  6
BYLAYER
 10
13.1037400145
 20
29.3786028268
 40
1.0
100
AcDbArc
 50
270.0
 51
342.3485521155
  0
ARC
  5
267
100
AcDbEntity
  8
0
100
AcDbCircle
 62
7
  6
BYLAYER
 10
17.2350202647
 20
16.2295628747
 40
0.4312799247
100
AcDbArc
 50
173.3595952033
 51
179.9450183149
  0
ARC
  5
268
100
AcDbEntity
  8
0
100
AcDbCircle
 62
7
  6
BYLAYER
 10
12.8037400145
 20
12.5786028268
 40
0.2
100
AcDbArc
 50
180.0
 51
270.0
  0
ARC
  5
269
100
AcDbEntity
  8
0
100
AcDbCircle
 62
7
  6
BYLAYER
 10
12.8037400145
 20
28.1786028268
 40
0.2
100
AcDbArc
 50
90.0
 51
180.0
  0
ARC
  5
26A
100
AcDbEntity
  8
0
100
AcDbCircle
 62
7
  6
BYLAYER
 10
16.6037400145
 20
12.5786028268
 40
0.2
100
AcDbArc
 50
270.0
 51
360.0
  0
CIRCLE
  5
26B
100
AcDbEntity
  8
0
100
AcDbCircle
 62
7
  6
BYLAYER
 10
9.0537400145
 20
32.6114379085
 40
3.75
  0
CIRCLE
  5
26C
100
AcDbEntity
  8
0
100
AcDbCircle
 62
7
  6
BYLAYER
 10
9.0537400145
 20
32.6114379085
 40
2.15
  0
ARC
  5
26D
100
AcDbEntity
  8
0
100
AcDbCircle
 62
7
  6
BYLAYER
 10
6.3037400145
 20
39.1114379085
 40
2.0
100
AcDbArc
 50
270.0
 51
360.0
  0
CIRCLE
  5
26E
100
AcDbEntity
  8
0
100
AcDbCircle
 62
7
  6
BYLAYER
 10
9.0537400145
 20
32.6114379085
 40
1.85
  0
ARC
  5
26F
100
AcDbEntity
  8
0
100
AcDbCircle
 62
7
  6
BYLAYER
 10
6.0537400145
 20
35.6114379085
 40
1.5
100
AcDbArc
 50
90.0
 51
180.0
  0
ARC
  5
270
100
AcDbEntity
  8
0
100
AcDbCircle
 62
7
  6
BYLAYER
 10
9.3037400145
 20
53.4114379085
 40
1.0
100
AcDbArc
 50
90.0
 51
180.0
  0
ARC
  5
271
100
AcDbEntity
  8
0
100
AcDbCircle
 62
7
  6
BYLAYER
 10
14.1037400145
 20
38.1114379085
 40
1.0
100
AcDbArc
 50
180.0
 51
270.0000007613
  0
ARC
  5
272
100
AcDbEntity
  8
0
100
AcDbCircle
 62
7
  6
BYLAYER
 10
9.3037400145
 20
41.4114379085
 40
1.0
100
AcDbArc
 50
180.0
 51
270.0
  0
ARC
  5
273
100
AcDbEntity
  8
0
100
AcDbCircle
 62
7
  6
BYLAYER
 10
13.8037400145
 20
54.2114379085
 40
0.2
100
AcDbArc
 50
90.0
 51
180.0
  0
ARC
  5
274
100
AcDbEntity
  8
0
100
AcDbCircle
 62
7
  6
BYLAYER
 10
13.8037400145
 20
40.6114379085
 40
0.2
100
AcDbArc
 50
180.0
 51
270.0
  0
ARC
  5
275
100
AcDbEntity
  8
0
100
AcDbCircle
 62
7
  6
BYLAYER
 10
33.1939056024
 20
12.6871147251
 40
25.0225930969
100
AcDbArc
 50
143.2527137841
 51
143.4061089361
  0
ARC
  5
276
100
AcDbEntity
  8
0
100
AcDbCircle
 62
7
  6
BYLAYER
 10
21.0537400145
 20
20.6114379085
 40
9.5
100
AcDbArc
 50
335.7089408901
 51
27.692990641
  0
ARC
  5
277
100
AcDbEntity
  8
0
100
AcDbCircle
 62
7
  6
BYLAYER
 10
21.0537400145
 20
20.6114379085
 40
9.5
100
AcDbArc
 50
293.513706864
 51
298.9747311514
  0
ARC
  5
278
100
AcDbEntity
  8
0
100
AcDbCircle
 62
7
  6
BYLAYER
 10
21.0537400145
 20
20.6114379085
 40
9.5
100
AcDbArc
 50
241.5637352096
 51
249.9947047718
  0
ARC
  5
279
100
AcDbEntity
  8
0
100
AcDbCircle
 62
7
  6
BYLAYER
 10
21.0537400145
 20
20.6114379085
 40
9.5
100
AcDbArc
 50
153.9322489019
 51
206.0660136933
  0
ARC
  5
27A
100
AcDbEntity
  8
0
100
AcDbCircle
 62
7
  6
BYLAYER
 10
21.0537400145
 20
20.6114379085
 40
8.9226497308
100
AcDbArc
 50
295.2202574364
 51
299.7005781855
  0
ARC
  5
27B
100
AcDbEntity
  8
0
100
AcDbCircle
 62
7
  6
BYLAYER
 10
21.0537400145
 20
20.6114379085
 40
8.9226497308
100
AcDbArc
 50
345.5628049633
 51
14.4872218638
  0
ARC
  5
27C
100
AcDbEntity
  8
0
100
AcDbCircle
 62
7
  6
BYLAYER
 10
21.0537400145
 20
20.6114379085
 40
8.9226497308
100
AcDbArc
 50
160.4984004068
 51
196.3776540851
  0
ARC
  5
27D
100
AcDbEntity
  8
0
100
AcDbCircle
 62
7
  6
BYLAYER
 10
21.0537400145
 20
20.6114379085
 40
8.9226497308
100
AcDbArc
 50
241.4919863899
 51
248.5266648934
  0
ARC
  5
27E
100
AcDbEntity
  8
0
100
AcDbCircle
 62
7
  6
BYLAYER
 10
21.0537400145
 20
20.6114379085
 40
8.425
100
AcDbArc
 50
239.1781825699
 51
247.086906678
  0
ARC
  5
27F
100
AcDbEntity
  8
0
100
AcDbCircle
 62
7
  6
BYLAYER
 10
21.0537400145
 20
20.6114379085
 40
8.425
100
AcDbArc
 50
296.8886093692
 51
301.6227503891
  0
ARC
  5
280
100
AcDbEntity
  8
0
100
AcDbCircle
 62
7
  6
BYLAYER
 10
21.0537400145
 20
20.6114379085
 40
7.5
100
AcDbArc
 50
298.9281295388
 51
304.0417859816
  0
ARC
  5
281
100
AcDbEntity
  8
0
100
AcDbCircle
 62
7
  6
BYLAYER
 10
21.0537400145
 20
20.6114379085
 40
7.5
100
AcDbArc
 50
236.8328862274
 51
245.3773337488
  0
ARC
  5
282
100
AcDbEntity
  8
0
100
AcDbCircle
 62
7
  6
BYLAYER
 10
21.0537400145
 20
20.6114379085
 40
7.0
100
AcDbArc
 50
302.9770283678
 51
306.6544146666
  0
ARC
  5
283
100
AcDbEntity
  8
0
100
AcDbCircle
 62
7
  6
BYLAYER
 10
21.0537400145
 20
20.6114379085
 40
7.0
100
AcDbArc
 50
234.2600057164
 51
243.4042095456
  0
CIRCLE
  5
284
100
AcDbEntity
  8
0
100
AcDbCircle
 62
7
  6
BYLAYER
 10
33.0537400145
 20
8.6114379085
 40
3.75
  0
CIRCLE
  5
285
100
AcDbEntity
  8
0
100
AcDbCircle
 62
7
  6
BYLAYER
 10
33.0537400145
 20
8.6114379085
 40
2.15
  0
CIRCLE
  5
286
100
AcDbEntity
  8
0
100
AcDbCircle
 62
7
  6
BYLAYER
 10
33.0537400145
 20
8.6114379085
 40
1.85
  0
ARC
  5
287
100
AcDbEntity
  8
0
100
AcDbCircle
 62
7
  6
BYLAYER
 10
36.0537400145
 20
5.6114379085
 40
1.5
100
AcDbArc
 50
270.0
 51
360.0
  0
ARC
  5
288
100
AcDbEntity
  8
0
100
AcDbCircle
 62
7
  6
BYLAYER
 10
29.1037400145
 20
29.3786028268
 40
1.0
100
AcDbArc
 50
197.6518827988
 51
270.0
  0
ARC
  5
289
100
AcDbEntity
  8
0
100
AcDbCircle
 62
7
  6
BYLAYER
 10
24.9725065644
 20
16.2295433157
 40
0.4312332163
100
AcDbArc
 50
0.0362349933
 51
6.6129773595
  0
ARC
  5
28A
100
AcDbEntity
  8
0
100
AcDbCircle
 62
7
  6
BYLAYER
 10
29.4037400145
 20
28.1786028268
 40
0.2
100
AcDbArc
 50
0.0
 51
90.0
  0
ARC
  5
28B
100
AcDbEntity
  8
0
100
AcDbCircle
 62
7
  6
BYLAYER
 10
29.4037400145
 20
12.5786028268
 40
0.2
100
AcDbArc
 50
270.0
 51
360.0
  0
ARC
  5
28C
100
AcDbEntity
  8
0
100
AcDbCircle
 62
7
  6
BYLAYER
 10
25.6037400145
 20
12.5786028268
 40
0.2
100
AcDbArc
 50
180.0
 51
270.0
  0
CIRCLE
  5
28D
100
AcDbEntity
  8
0
100
AcDbCircle
 62
7
  6
BYLAYER
 10
33.0537400145
 20
32.6114379085
 40
3.75
  0
CIRCLE
  5
28E
100
AcDbEntity
  8
0
100
AcDbCircle
 62
7
  6
BYLAYER
 10
33.0537400145
 20
32.6114379085
 40
2.15
  0
ARC
  5
28F
100
AcDbEntity
  8
0
100
AcDbCircle
 62
7
  6
BYLAYER
 10
35.8037400145
 20
39.1114379085
 40
2.0
100
AcDbArc
 50
180.0
 51
269.9999992124
  0
CIRCLE
  5
290
100
AcDbEntity
  8
0
100
AcDbCircle
 62
7
  6
BYLAYER
 10
33.0537400145
 20
32.6114379085
 40
1.85
  0
ARC
  5
291
100
AcDbEntity
  8
0
100
AcDbCircle
 62
7
  6
BYLAYER
 10
36.0537400145
 20
35.6114379085
 40
1.5
100
AcDbArc
 50
0.0
 51
90.0
  0
ARC
  5
292
100
AcDbEntity
  8
0
100
AcDbCircle
 62
7
  6
BYLAYER
 10
32.8037400145
 20
41.4114379085
 40
1.0
100
AcDbArc
 50
270.0
 51
360.0
  0
ARC
  5
293
100
AcDbEntity
  8
0
100
AcDbCircle
 62
7
  6
BYLAYER
 10
28.0037400145
 20
38.1114379085
 40
1.0
100
AcDbArc
 50
275.6987477244
 51
360.0
  0
ARC
  5
294
100
AcDbEntity
  8
0
100
AcDbCircle
 62
7
  6
BYLAYER
 10
32.8037400145
 20
53.4114379085
 40
1.0
100
AcDbArc
 50
0.0
 51
90.0
  0
ARC
  5
295
100
AcDbEntity
  8
0
100
AcDbCircle
 62
7
  6
BYLAYER
 10
28.4037400145
 20
54.2114379085
 40
0.2
100
AcDbArc
 50
0.0
 51
90.0
  0
ARC
  5
296
100
AcDbEntity
  8
0
100
AcDbCircle
 62
7
  6
BYLAYER
 10
28.4037400145
 20
40.6114379085
 40
0.2
100
AcDbArc
 50
270.0
 51
360.0
  0
SPLINE
  5
297
100
AcDbEntity
  8
0
100
AcDbSpline
 62
7
  6
BYLAYER
 70
0
 71
3
 72
9
 73
5
 74
0
 42
0.0000001
 43
0.0000001
 44
0.0000000001
 40
0.0
 40
0.0
 40
0.0
 40
0.0
 40
0.2528149101
 40
1.0
 40
1.0
 40
1.0
 40
1.0
 10
28.1508131856
 20
29.0753747039
 30
0.0
 10
28.1480307577
 20
29.0841176708
 30
0.0
 10
28.1374053877
 20
29.1188189568
 30
0.0
 10
28.1283828572
 20
29.1540198016
 30
0.0
 10
28.1227322373
 20
29.1805410136
 30
0.0
  0
SPLINE
  5
298
100
AcDbEntity
  8
0
100
AcDbSpline
 62
7
  6
BYLAYER
 70
0
 71
3
 72
9
 73
5
 74
0
 42
0.0000001
 43
0.0000001
 44
0.0000000001
 40
0.0
 40
0.0
 40
0.0
 40
0.0
 40
0.253180759
 40
1.0
 40
1.0
 40
1.0
 40
1.0
 10
28.1227322373
 20
29.1805410136
 30
0.0
 10
28.1197167767
 20
29.1946940926
 30
0.0
 10
28.1090275917
 20
29.2508369894
 30
0.0
 10
28.1037449544
 20
29.3080988785
 30
0.0
 10
28.1037400145
 20
29.3507839369
 30
0.0
  0
SPLINE
  5
299
100
AcDbEntity
  8
0
100
AcDbSpline
 62
7
  6
BYLAYER
 70
0
 71
3
 72
12
 73
8
 74
0
 42
0.0000001
 43
0.0000001
 44
0.0000000001
 40
0.0
 40
0.0
 40
0.0
 40
0.0
 40
0.2612945197
 40
0.5159443934
 40
0.6401549072
 40
0.7621555369
 40
1.0
 40
1.0
 40
1.0
 40
1.0
 10
27.9037400145
 20
31.0105677173
 30
0.0
 10
27.9296606855
 20
31.0105677173
 30
0.0
 10
27.9812960374
 20
31.0014944659
 30
0.0
 10
28.0372142328
 20
30.9681773796
 30
0.0
 10
28.0708785866
 20
30.9312005204
 30
0.0
 10
28.0956161025
 20
30.8897674149
 30
0.0
 10
28.1037400145
 20
30.8535255602
 30
0.0
 10
28.1037400145
 20
30.8299311576
 30
0.0
  0
SPLINE
  5
29A
100
AcDbEntity
  8
0
100
AcDbSpline
 62
7
  6
BYLAYER
 70
0
 71
3
 72
12
 73
8
 74
0
 42
0.0000001
 43
0.0000001
 44
0.0000000001
 40
0.0
 40
0.0
 40
0.0
 40
0.0
 40
0.2623261276
 40
0.5195255194
 40
0.6446519371
 40
0.7668095203
 40
1.0
 40
1.0
 40
1.0
 40
1.0
 10
29.1037400145
 20
27.6040652159
 30
0.0
 10
28.9977173114
 20
27.7200955932
 30
0.0
 10
28.7875171852
 20
27.9496729772
 30
0.0
 10
28.5356413843
 20
28.2427308907
 30
0.0
 10
28.3509191197
 20
28.482145231
 30
0.0
 10
28.1857436071
 20
28.7178661537
 30
0.0
 10
28.0790297751
 20
28.9035652998
 30
0.0
 10
28.022647871
 20
29.0314016816
 30
0.0
  0
SPLINE
  5
29B
100
AcDbEntity
  8
0
100
AcDbSpline
 62
7
  6
BYLAYER
 70
0
 71
3
 72
9
 73
5
 74
0
 42
0.0000001
 43
0.0000001
 44
0.0000000001
 40
0.0
 40
0.0
 40
0.0
 40
0.0
 40
0.2545535881
 40
1.0
 40
1.0
 40
1.0
 40
1.0
 10
28.022647871
 20
29.0314016816
 30
0.0
 10
28.0133379505
 20
29.0525103435
 30
0.0
 10
27.9782539548
 20
29.1360644076
 30
0.0
 10
27.9497626141
 20
29.2225363318
 30
0.0
 10
27.9339684219
 20
29.288225087
 30
0.0
  0
SPLINE
  5
29C
100
AcDbEntity
  8
0
100
AcDbSpline
 62
7
  6
BYLAYER
 70
0
 71
3
 72
9
 73
5
 74
0
 42
0.0000001
 43
0.0000001
 44
0.0000000001
 40
0.0
 40
0.0
 40
0.0
 40
0.0
 40
0.2523979477
 40
1.0
 40
1.0
 40
1.0
 40
1.0
 10
27.9339684219
 20
29.288225087
 30
0.0
 10
27.9291422529
 20
29.3082973404
 30
0.0
 10
27.9120226216
 20
29.3882747618
 30
0.0
 10
27.9037220155
 20
29.470272125
 30
0.0
 10
27.9037058083
 20
29.531420495
 30
0.0
  0
SPLINE
  5
29D
100
AcDbEntity
  8
0
100
AcDbSpline
 62
7
  6
BYLAYER
 70
0
 71
3
 72
14
 73
10
 74
0
 42
0.0000001
 43
0.0000001
 44
0.0000000001
 40
0.0
 40
0.0
 40
0.0
 40
0.0
 40
0.2742821683
 40
0.4068616618
 40
0.5355698285
 40
0.6597734175
 40
0.778871668
 40
0.8923560978
 40
1.0
 40
1.0
 40
1.0
 40
1.0
 10
29.1037400145
 20
27.6040652159
 30
0.0
 10
29.0084332899
 20
27.7324384802
 30
0.0
 10
28.8649599734
 20
27.9212944673
 30
0.0
 10
28.6781508363
 20
28.1714337562
 30
0.0
 10
28.5465584006
 20
28.3536046857
 30
0.0
 10
28.4246153544
 20
28.5329725989
 30
0.0
 10
28.3154259005
 20
28.7101124312
 30
0.0
 10
28.2227393481
 20
28.8856389564
 30
0.0
 10
28.1737469971
 20
29.005267163
 30
0.0
 10
28.1541995309
 20
29.0648924926
 30
0.0
  0
SPLINE
  5
29E
100
AcDbEntity
  8
0
100
AcDbSpline
 62
7
  6
BYLAYER
 70
0
 71
3
 72
13
 73
9
 74
0
 42
0.0000001
 43
0.0000001
 44
0.0000000001
 40
0.0
 40
0.0
 40
0.0
 40
0.0
 40
0.2280374964
 40
0.3532741801
 40
0.483513644
 40
0.6165288393
 40
0.7492989787
 40
1.0
 40
1.0
 40
1.0
 40
1.0
 10
28.1037184023
 20
29.3507851484
 30
0.0
 10
28.1037184023
 20
29.3734348559
 30
0.0
 10
28.0961210626
 20
29.4090437173
 30
0.0
 10
28.0718233185
 20
29.4507584686
 30
0.0
 10
28.0458826393
 20
29.4797320464
 30
0.0
 10
28.0137992597
 20
29.5029700461
 30
0.0
 10
27.967184053
 20
29.5249091172
 30
0.0
 10
27.9286407649
 20
29.5314144953
 30
0.0
 10
27.9037400148
 20
29.5314179914
 30
0.0
  0
SPLINE
  5
29F
100
AcDbEntity
  8
0
100
AcDbSpline
 62
7
  6
BYLAYER
 70
0
 71
3
 72
15
 73
11
 74
0
 42
0.0000001
 43
0.0000001
 44
0.0000000001
 40
0.0
 40
0.0
 40
0.0
 40
0.0
 40
0.2243479112
 40
0.4264173557
 40
0.5930412478
 40
0.7250071194
 40
0.8265144256
 40
0.9020656659
 40
0.9572112038
 40
1.0
 40
1.0
 40
1.0
 40
1.0
 10
17.0037400145
 20
30.8059938482
 30
0.0
 10
16.9875918627
 20
30.8059939393
 30
0.0
 10
16.9568914313
 20
30.8049770844
 30
0.0
 10
16.9143646811
 20
30.8010054846
 30
0.0
 10
16.878768573
 20
30.7951314693
 30
0.0
 10
16.850843261
 20
30.7879459619
 30
0.0
 10
16.8299425266
 20
30.7801332499
 30
0.0
 10
16.8153616506
 20
30.7718026412
 30
0.0
 10
16.8061563648
 20
30.7630101987
 30
0.0
 10
16.8037403701
 20
30.7559431653
 30
0.0
 10
16.8037398407
 20
30.7528633062
 30
0.0
  0
SPLINE
  5
2A0
100
AcDbEntity
  8
0
100
AcDbSpline
 62
7
  6
BYLAYER
 70
0
 71
3
 72
13
 73
9
 74
0
 42
0.0000001
 43
0.0000001
 44
0.0000000001
 40
0.0
 40
0.0
 40
0.0
 40
0.0
 40
0.2598596631
 40
0.3949952017
 40
0.5286296267
 40
0.6576409255
 40
0.7802242979
 40
1.0
 40
1.0
 40
1.0
 40
1.0
 10
16.6037400145
 20
30.9335001982
 30
0.0
 10
16.6295533775
 20
30.9335001402
 30
0.0
 10
16.6693010396
 20
30.926549121
 30
0.0
 10
16.7166775696
 20
30.9033625491
 30
0.0
 10
16.7484891439
 20
30.8794443429
 30
0.0
 10
16.7736800859
 20
30.850242636
 30
0.0
 10
16.7966603269
 20
30.8091715456
 30
0.0
 10
16.8037398255
 20
30.7746943867
 30
0.0
 10
16.8037398407
 20
30.7528627953
 30
0.0
  0
SPLINE
  5
2A1
100
AcDbEntity
  8
0
100
AcDbSpline
 62
7
  6
BYLAYER
 70
0
 71
3
 72
13
 73
9
 74
0
 42
0.0000001
 43
0.0000001
 44
0.0000000001
 40
0.0
 40
0.0
 40
0.0
 40
0.0
 40
0.2598604079
 40
0.3949961497
 40
0.5286306166
 40
0.6576417929
 40
0.7802249195
 40
1.0
 40
1.0
 40
1.0
 40
1.0
 10
25.6037400145
 20
30.9334991619
 30
0.0
 10
25.5779266453
 20
30.9334991014
 30
0.0
 10
25.538178995
 20
30.9265481281
 30
0.0
 10
25.4908024538
 20
30.9033616715
 30
0.0
 10
25.4589908978
 20
30.879443595
 30
0.0
 10
25.4337999797
 20
30.8502420429
 30
0.0
 10
25.4108197839
 20
30.8091711798
 30
0.0
 10
25.4037403201
 20
30.7746941862
 30
0.0
 10
25.4037403324
 20
30.7528627139
 30
0.0
  0
SPLINE
  5
2A2
100
AcDbEntity
  8
0
100
AcDbSpline
 62
7
  6
BYLAYER
 70
0
 71
3
 72
14
 73
10
 74
0
 42
0.0000001
 43
0.0000001
 44
0.0000000001
 40
0.0
 40
0.0
 40
0.0
 40
0.0
 40
0.2192758769
 40
0.4469095787
 40
0.5677843435
 40
0.6971988282
 40
0.8403080686
 40
0.9185827774
 40
1.0
 40
1.0
 40
1.0
 40
1.0
 10
16.8066335963
 20
16.2794350696
 30
0.0
 10
16.8094854247
 20
16.3037893601
 30
0.0
 10
16.8196830954
 20
16.353030212
 30
0.0
 10
16.8455793485
 20
16.411772567
 30
0.0
 10
16.8771847926
 20
16.4551424755
 30
0.0
 10
16.9093447128
 20
16.4856016668
 30
0.0
 10
16.9440162618
 20
16.5051549363
 30
0.0
 10
16.9767195838
 20
16.5145164712
 30
0.0
 10
16.9946354712
 20
16.5161164683
 30
0.0
 10
17.0037400145
 20
16.5161155567
 30
0.0
  0
SPLINE
  5
2A3
100
AcDbEntity
  8
0
100
AcDbSpline
 62
7
  6
BYLAYER
 70
0
 71
3
 72
12
 73
8
 74
0
 42
0.0000001
 43
0.0000001
 44
0.0000000001
 40
0.0
 40
0.0
 40
0.0
 40
0.0
 40
0.2612945204
 40
0.515944395
 40
0.6401549088
 40
0.7621555381
 40
1.0
 40
1.0
 40
1.0
 40
1.0
 10
25.6037400145
 20
27.6040652159
 30
0.0
 10
25.5778193434
 20
27.6040652159
 30
0.0
 10
25.5261839914
 20
27.5949919644
 30
0.0
 10
25.4702657958
 20
27.5616748779
 30
0.0
 10
25.4366014422
 20
27.5246980186
 30
0.0
 10
25.4118639264
 20
27.4832649132
 30
0.0
 10
25.4037400145
 20
27.4470230586
 30
0.0
 10
25.4037400145
 20
27.4234286561
 30
0.0
  0
SPLINE
  5
2A4
100
AcDbEntity
  8
0
100
AcDbSpline
 62
7
  6
BYLAYER
 70
0
 71
3
 72
16
 73
12
 74
0
 42
0.0000001
 43
0.0000001
 44
0.0000000001
 40
0.0
 40
0.0
 40
0.0
 40
0.0
 40
0.072725357
 40
0.1568010055
 40
0.2582547079
 40
0.3785655564
 40
0.4455375198
 40
0.5165998706
 40
0.6691997013
 40
0.8323055007
 40
1.0
 40
1.0
 40
1.0
 40
1.0
 10
28.1037400145
 20
31.0835694538
 30
0.0
 10
28.1037400145
 20
31.0892031379
 30
0.0
 10
28.1005964511
 20
31.1014285057
 30
0.0
 10
28.0882337394
 20
31.1175945532
 30
0.0
 10
28.0691804421
 20
31.1319913765
 30
0.0
 10
28.0490932456
 20
31.1420395023
 30
0.0
 10
28.0303812108
 20
31.1491614288
 30
0.0
 10
28.008873929
 20
31.1558623559
 30
0.0
 10
27.9795677995
 20
31.1623651665
 30
0.0
 10
27.9423684901
 20
31.167023181
 30
0.0
 10
27.9167305021
 20
31.1680931061
 30
0.0
 10
27.9037400145
 20
31.1680931061
 30
0.0
  0
SPLINE
  5
2A5
100
AcDbEntity
  8
0
100
AcDbSpline
 62
7
  6
BYLAYER
 70
0
 71
3
 72
21
 73
17
 74
0
 42
0.0000001
 43
0.0000001
 44
0.0000000001
 40
0.0
 40
0.0
 40
0.0
 40
0.0
 40
0.1810515939
 40
0.2705013296
 40
0.3584285477
 40
0.5260610616
 40
0.6030180042
 40
0.6739722341
 40
0.7973285785
 40
0.8499532954
 40
0.896323016
 40
0.9355907371
 40
0.9666710113
 40
0.9884329921
 40
0.9955129609
 40
1.0
 40
1.0
 40
1.0
 40
1.0
 10
27.9037400145
 20
31.0105677173
 30
0.0
 10
27.9167979909
 20
31.0116681234
 30
0.0
 10
27.9362858985
 20
31.013868807
 30
0.0
 10
27.9617331337
 20
31.0190213611
 30
0.0
 10
27.98576008
 20
31.0259184006
 30
0.0
 10
28.0082425073
 20
31.0345490928
 30
0.0
 10
28.0296830229
 20
31.0424258416
 30
0.0
 10
28.0483038692
 20
31.0486246279
 30
0.0
 10
28.0653307364
 20
31.0542269157
 30
0.0
 10
28.0797110091
 20
31.0615330544
 30
0.0
 10
28.0881002714
 20
31.0670169022
 30
0.0
 10
28.0947073412
 20
31.0723109999
 30
0.0
 10
28.0994684539
 20
31.0769744596
 30
0.0
 10
28.102255916
 20
31.0803460283
 30
0.0
 10
28.1034470714
 20
31.0824303213
 30
0.0
 10
28.1037400145
 20
31.0832446882
 30
0.0
 10
28.1037400145
 20
31.0835694538
 30
0.0
  0
SPLINE
  5
2A6
100
AcDbEntity
  8
0
100
AcDbSpline
 62
7
  6
BYLAYER
 70
0
 71
3
 72
9
 73
5
 74
0
 42
0.0000001
 43
0.0000001
 44
0.0000000001
 40
0.0
 40
0.0
 40
0.0
 40
0.0
 40
0.5137721175
 40
1.0
 40
1.0
 40
1.0
 40
1.0
 10
16.6245425807
 20
31.0105677173
 30
0.0
 10
16.6178269602
 20
30.9985300035
 30
0.0
 10
16.6073589739
 20
30.9734879634
 30
0.0
 10
16.6037408438
 20
30.9465446235
 30
0.0
 10
16.6037400145
 20
30.9334993523
 30
0.0
  0
SPLINE
  5
2A7
100
AcDbEntity
  8
0
100
AcDbSpline
 62
7
  6
BYLAYER
 70
0
 71
3
 72
11
 73
7
 74
0
 42
0.0000001
 43
0.0000001
 44
0.0000000001
 40
0.0
 40
0.0
 40
0.0
 40
0.0
 40
0.2874114237
 40
0.5350398895
 40
0.7674198381
 40
1.0
 40
1.0
 40
1.0
 40
1.0
 10
17.0037400145
 20
30.8059937632
 30
0.0
 10
16.9877238389
 20
30.8117804938
 30
0.0
 10
16.9586610063
 20
30.8248327219
 30
0.0
 10
16.9200812166
 20
30.849004594
 30
0.0
 10
16.8854029524
 20
30.873078287
 30
0.0
 10
16.8625115693
 20
30.8884227964
 30
0.0
 10
16.8508484518
 20
30.8957630217
 30
0.0
  0
SPLINE
  5
2A8
100
AcDbEntity
  8
0
100
AcDbSpline
 62
7
  6
BYLAYER
 70
0
 71
3
 72
9
 73
5
 74
0
 42
0.0000001
 43
0.0000001
 44
0.0000000001
 40
0.0
 40
0.0
 40
0.0
 40
0.0
 40
0.2486739468
 40
1.0
 40
1.0
 40
1.0
 40
1.0
 10
14.3037822228
 20
29.5314204987
 30
0.0
 10
14.3037877371
 20
29.5110703555
 30
0.0
 10
14.3010822959
 20
29.4292387244
 30
0.0
 10
14.2879106513
 20
29.3479060136
 30
0.0
 10
14.2735244164
 20
29.2881282583
 30
0.0
  0
SPLINE
  5
2A9
100
AcDbEntity
  8
0
100
AcDbSpline
 62
7
  6
BYLAYER
 70
0
 71
3
 72
9
 73
5
 74
0
 42
0.0000001
 43
0.0000001
 44
0.0000000001
 40
0.0
 40
0.0
 40
0.0
 40
0.0
 40
0.245813053
 40
1.0
 40
1.0
 40
1.0
 40
1.0
 10
14.2735244164
 20
29.2881282583
 30
0.0
 10
14.2683123105
 20
29.2664708898
 30
0.0
 10
14.2447047257
 20
29.178944221
 30
0.0
 10
14.2124033537
 20
29.0939066613
 30
0.0
 10
14.1848176492
 20
29.031376288
 30
0.0
  0
SPLINE
  5
2AA
100
AcDbEntity
  8
0
100
AcDbSpline
 62
7
  6
BYLAYER
 70
0
 71
3
 72
12
 73
8
 74
0
 42
0.0000001
 43
0.0000001
 44
0.0000000001
 40
0.0
 40
0.0
 40
0.0
 40
0.0
 40
0.2332006122
 40
0.3553486918
 40
0.4804706437
 40
0.7376714587
 40
1.0
 40
1.0
 40
1.0
 40
1.0
 10
14.1848176492
 20
29.031376288
 30
0.0
 10
14.1284225009
 20
28.9035416095
 30
0.0
 10
14.0217184713
 20
28.7178423564
 30
0.0
 10
13.8565483335
 20
28.4821255546
 30
0.0
 10
13.6718335536
 20
28.2427213175
 30
0.0
 10
13.4199606232
 20
27.9496696628
 30
0.0
 10
13.2097619966
 20
27.7200947303
 30
0.0
 10
13.1037400145
 20
27.6040652159
 30
0.0
  0
SPLINE
  5
2AB
100
AcDbEntity
  8
0
100
AcDbSpline
 62
7
  6
BYLAYER
 70
0
 71
3
 72
15
 73
11
 74
0
 42
0.0000001
 43
0.0000001
 44
0.0000000001
 40
0.0
 40
0.0
 40
0.0
 40
0.0
 40
0.0427893128
 40
0.0979408377
 40
0.173497498
 40
0.2750075628
 40
0.4069717269
 40
0.5735764038
 40
0.7756126162
 40
1.0
 40
1.0
 40
1.0
 40
1.0
 10
25.4037403324
 20
30.7528630735
 30
0.0
 10
25.4037406285
 20
30.7559429759
 30
0.0
 10
25.4013241237
 20
30.7630108591
 30
0.0
 10
25.392117412
 20
30.7718028795
 30
0.0
 10
25.3775356794
 20
30.780134034
 30
0.0
 10
25.356634278
 20
30.78794655
 30
0.0
 10
25.3287100176
 20
30.7951310144
 30
0.0
 10
25.2931178119
 20
30.8010048865
 30
0.0
 10
25.2505920378
 20
30.8049779702
 30
0.0
 10
25.2198910394
 20
30.8059942188
 30
0.0
 10
25.2037400147
 20
30.8059938124
 30
0.0
  0
SPLINE
  5
2AC
100
AcDbEntity
  8
0
100
AcDbSpline
 62
7
  6
BYLAYER
 70
0
 71
3
 72
9
 73
5
 74
0
 42
0.0000001
 43
0.0000001
 44
0.0000000001
 40
0.0
 40
0.0
 40
0.0
 40
0.0
 40
0.5197672305
 40
1.0
 40
1.0
 40
1.0
 40
1.0
 10
25.306055429
 20
16.4769887914
 30
0.0
 10
25.3243184798
 20
16.4617837427
 30
0.0
 10
25.3542389911
 20
16.4260357171
 30
0.0
 10
25.3739011925
 20
16.3843953045
 30
0.0
 10
25.3813422483
 20
16.363738073
 30
0.0
  0
SPLINE
  5
2AD
100
AcDbEntity
  8
0
100
AcDbSpline
 62
7
  6
BYLAYER
 70
0
 71
3
 72
9
 73
5
 74
0
 42
0.0000001
 43
0.0000001
 44
0.0000000001
 40
0.0
 40
0.0
 40
0.0
 40
0.0
 40
0.2532072445
 40
1.0
 40
1.0
 40
1.0
 40
1.0
 10
25.3813422483
 20
16.363738073
 30
0.0
 10
25.3838270901
 20
16.3568398645
 30
0.0
 10
25.3927587598
 20
16.329282173
 30
0.0
 10
25.3983660901
 20
16.3006843475
 30
0.0
 10
25.4008706598
 20
16.2792050575
 30
0.0
  0
SPLINE
  5
2AE
100
AcDbEntity
  8
0
100
AcDbSpline
 62
7
  6
BYLAYER
 70
0
 71
3
 72
13
 73
9
 74
0
 42
0.0000001
 43
0.0000001
 44
0.0000000001
 40
0.0
 40
0.0
 40
0.0
 40
0.0
 40
0.2507037715
 40
0.383474185
 40
0.5164889406
 40
0.6467276979
 40
0.7719635616
 40
1.0
 40
1.0
 40
1.0
 40
1.0
 10
14.3037400142
 20
29.5314175589
 30
0.0
 10
14.2788396431
 20
29.5314132111
 30
0.0
 10
14.2402972842
 20
29.5249068435
 30
0.0
 10
14.1936836345
 20
29.5029670385
 30
0.0
 10
14.1616016921
 20
29.4797289886
 30
0.0
 10
14.1356623772
 20
29.4507558393
 30
0.0
 10
14.1113659523
 20
29.4090420951
 30
0.0
 10
14.1037690973
 20
29.3734343704
 30
0.0
 10
14.1037690934
 20
29.3507853613
 30
0.0
  0
SPLINE
  5
2AF
100
AcDbEntity
  8
0
100
AcDbSpline
 62
7
  6
BYLAYER
 70
0
 71
3
 72
11
 73
7
 74
0
 42
0.0000001
 43
0.0000001
 44
0.0000000001
 40
0.0
 40
0.0
 40
0.0
 40
0.0
 40
0.2325268974
 40
0.4643907231
 40
0.7124692209
 40
1.0
 40
1.0
 40
1.0
 40
1.0
 10
25.356631556
 20
30.8957630217
 30
0.0
 10
25.3449709298
 20
30.8884246928
 30
0.0
 10
25.3220772901
 20
30.8731444535
 30
0.0
 10
25.2874927568
 20
30.8489425094
 30
0.0
 10
25.2488253645
 20
30.8249042767
 30
0.0
 10
25.2197581132
 20
30.811796102
 30
0.0
 10
25.2037400145
 20
30.8059937632
 30
0.0
  0
SPLINE
  5
2B0
100
AcDbEntity
  8
0
100
AcDbSpline
 62
7
  6
BYLAYER
 70
0
 71
3
 72
13
 73
9
 74
0
 42
0.0000001
 43
0.0000001
 44
0.0000000001
 40
0.0
 40
0.0
 40
0.0
 40
0.0
 40
0.2857361554
 40
0.563016917
 40
0.6920246364
 40
0.8097374445
 40
0.912377939
 40
1.0
 40
1.0
 40
1.0
 40
1.0
 10
25.5829355207
 20
31.010567806
 30
0.0
 10
25.55820159
 20
31.0105679809
 30
0.0
 10
25.509126044
 20
31.0023281582
 30
0.0
 10
25.455121462
 20
30.9747862017
 30
0.0
 10
25.4187415788
 20
30.9476348709
 30
0.0
 10
25.3958283877
 20
30.9278692614
 30
0.0
 10
25.3760208081
 20
30.9100572281
 30
0.0
 10
25.3630509027
 20
30.8998028801
 30
0.0
 10
25.356631556
 20
30.8957630217
 30
0.0
  0
SPLINE
  5
2B1
100
AcDbEntity
  8
0
100
AcDbSpline
 62
7
  6
BYLAYER
 70
0
 71
3
 72
9
 73
5
 74
0
 42
0.0000001
 43
0.0000001
 44
0.0000000001
 40
0.0
 40
0.0
 40
0.0
 40
0.0
 40
0.486226552
 40
1.0
 40
1.0
 40
1.0
 40
1.0
 10
25.6037400144
 20
30.9334993529
 30
0.0
 10
25.6037405814
 20
30.9465446504
 30
0.0
 10
25.6001197804
 20
30.9734881548
 30
0.0
 10
25.5896516482
 20
30.9985298718
 30
0.0
 10
25.5829360563
 20
31.0105677173
 30
0.0
  0
SPLINE
  5
2B2
100
AcDbEntity
  8
0
100
AcDbSpline
 62
7
  6
BYLAYER
 70
0
 71
3
 72
13
 73
9
 74
0
 42
0.0000001
 43
0.0000001
 44
0.0000000001
 40
0.0
 40
0.0
 40
0.0
 40
0.0
 40
0.2858285746
 40
0.5629389914
 40
0.6919446295
 40
0.8095990628
 40
0.9122587106
 40
1.0
 40
1.0
 40
1.0
 40
1.0
 10
16.6245431139
 20
31.0105678084
 30
0.0
 10
16.6492846804
 20
31.0105681175
 30
0.0
 10
16.6983585181
 20
31.0023437766
 30
0.0
 10
16.7523389902
 20
30.9747674667
 30
0.0
 10
16.7886960717
 20
30.9476229972
 30
0.0
 10
16.8116258602
 20
30.9278829518
 30
0.0
 10
16.8314411114
 20
30.9100696008
 30
0.0
 10
16.8444205464
 20
30.8998084474
 30
0.0
 10
16.8508484518
 20
30.8957630217
 30
0.0
  0
SPLINE
  5
2B3
100
AcDbEntity
  8
0
100
AcDbSpline
 62
7
  6
BYLAYER
 70
0
 71
3
 72
15
 73
11
 74
0
 42
0.0000001
 43
0.0000001
 44
0.0000000001
 40
0.0
 40
0.0
 40
0.0
 40
0.0
 40
0.1677005014
 40
0.3308056091
 40
0.4834114861
 40
0.6213924028
 40
0.7417169128
 40
0.8431827474
 40
0.927268209
 40
1.0
 40
1.0
 40
1.0
 40
1.0
 10
14.3037400145
 20
31.1680931061
 30
0.0
 10
14.2907499289
 20
31.1680931061
 30
0.0
 10
14.2651139591
 20
31.1670234756
 30
0.0
 10
14.2279130819
 20
31.1623665244
 30
0.0
 10
14.1935488147
 20
31.154735818
 30
0.0
 10
14.1633266814
 20
31.144506316
 30
0.0
 10
14.1383025159
 20
31.1319940915
 30
0.0
 10
14.1192472419
 20
31.1175954637
 30
0.0
 10
14.1068843164
 20
31.1014289904
 30
0.0
 10
14.1037400145
 20
31.0892032604
 30
0.0
 10
14.1037400145
 20
31.0835694538
 30
0.0
  0
SPLINE
  5
2B4
100
AcDbEntity
  8
0
100
AcDbSpline
 62
7
  6
BYLAYER
 70
0
 71
3
 72
20
 73
16
 74
0
 42
0.0000001
 43
0.0000001
 44
0.0000000001
 40
0.0
 40
0.0
 40
0.0
 40
0.0
 40
0.181843854
 40
0.3609813261
 40
0.5295827806
 40
0.606840019
 40
0.6780393529
 40
0.7422547642
 40
0.799484363
 40
0.8505461382
 40
0.8965679818
 40
0.9366718996
 40
0.968226189
 40
0.9892450495
 40
1.0
 40
1.0
 40
1.0
 40
1.0
 10
14.3037400145
 20
31.0105677173
 30
0.0
 10
14.2905411054
 20
31.0105677173
 30
0.0
 10
14.264295975
 20
31.0129912153
 30
0.0
 10
14.2269116999
 20
31.0223030454
 30
0.0
 10
14.197765063
 20
31.0324596571
 30
0.0
 10
14.1762408839
 20
31.0406021647
 30
0.0
 10
14.1618732458
 20
31.0462471926
 30
0.0
 10
14.1488390525
 20
31.0513100289
 30
0.0
 10
14.13723996
 20
31.0560280498
 30
0.0
 10
14.1271502999
 20
31.0609394236
 30
0.0
 10
14.1188742147
 20
31.0665571366
 30
0.0
 10
14.1124964651
 20
31.0722273079
 30
0.0
 10
14.1078211014
 20
31.0771586271
 30
0.0
 10
14.1050779728
 20
31.080701736
 30
0.0
 10
14.1037400858
 20
31.0827883145
 30
0.0
 10
14.1037400145
 20
31.0835689492
 30
0.0
  0
SPLINE
  5
2B5
100
AcDbEntity
  8
0
100
AcDbSpline
 62
7
  6
BYLAYER
 70
0
 71
3
 72
12
 73
8
 74
0
 42
0.0000001
 43
0.0000001
 44
0.0000000001
 40
0.0
 40
0.0
 40
0.0
 40
0.0
 40
0.2378444626
 40
0.3598450917
 40
0.4840556051
 40
0.7387054796
 40
1.0
 40
1.0
 40
1.0
 40
1.0
 10
14.1037400145
 20
30.8299311576
 30
0.0
 10
14.1037400145
 20
30.8535255601
 30
0.0
 10
14.1118639265
 20
30.8897674147
 30
0.0
 10
14.1366014422
 20
30.9312005202
 30
0.0
 10
14.1702657959
 20
30.9681773793
 30
0.0
 10
14.2261839914
 20
31.0014944659
 30
0.0
 10
14.2778193434
 20
31.0105677173
 30
0.0
 10
14.3037400145
 20
31.0105677173
 30
0.0
  0
SPLINE
  5
2B6
100
AcDbEntity
  8
0
100
AcDbSpline
 62
7
  6
BYLAYER
 70
0
 71
3
 72
13
 73
9
 74
0
 42
0.0000001
 43
0.0000001
 44
0.0000000001
 40
0.0
 40
0.0
 40
0.0
 40
0.0
 40
0.2743986874
 40
0.5355387038
 40
0.6596576786
 40
0.7786982989
 40
0.8922011497
 40
1.0
 40
1.0
 40
1.0
 40
1.0
 10
13.1437483792
 20
27.6577980968
 30
0.0
 10
13.2363753235
 20
27.7818666026
 30
0.0
 10
13.4192015686
 20
28.0224409553
 30
0.0
 10
13.6404103883
 20
28.3219220953
 30
0.0
 10
13.7991079283
 20
28.5581898355
 30
0.0
 10
13.9034988291
 20
28.7303793691
 30
0.0
 10
13.9917936507
 20
28.9011082169
 30
0.0
 10
14.0382311135
 20
29.0174117933
 30
0.0
 10
14.0566683809
 20
29.0753764276
 30
0.0
  0
SPLINE
  5
2B7
100
AcDbEntity
  8
0
100
AcDbSpline
 62
7
  6
BYLAYER
 70
0
 71
3
 72
11
 73
7
 74
0
 42
0.0000001
 43
0.0000001
 44
0.0000000001
 40
0.0
 40
0.0
 40
0.0
 40
0.0
 40
0.2425216133
 40
0.4905798156
 40
0.7433636131
 40
1.0
 40
1.0
 40
1.0
 40
1.0
 10
14.3037400145
 20
50.3697657407
 30
0.0
 10
14.2799557481
 20
50.2422395182
 30
0.0
 10
14.2325119422
 20
49.984149306
 30
0.0
 10
14.1687965045
 20
49.5915913255
 30
0.0
 10
14.1194223853
 20
49.1893361172
 30
0.0
 10
14.1037400145
 20
48.9168457302
 30
0.0
 10
14.1037400145
 20
48.7795705101
 30
0.0
  0
SPLINE
  5
2B8
100
AcDbEntity
  8
0
100
AcDbSpline
 62
7
  6
BYLAYER
 70
0
 71
3
 72
11
 73
7
 74
0
 42
0.0000001
 43
0.0000001
 44
0.0000000001
 40
0.0
 40
0.0
 40
0.0
 40
0.0
 40
0.2566359612
 40
0.5094186563
 40
0.7574777705
 40
1.0
 40
1.0
 40
1.0
 40
1.0
 10
28.1037400145
 20
48.7795705101
 30
0.0
 10
28.1037400145
 20
48.9168455038
 30
0.0
 10
28.0880573363
 20
49.189335041
 30
0.0
 10
28.0386844296
 20
49.5915900634
 30
0.0
 10
27.9749684261
 20
49.9841482039
 30
0.0
 10
27.9275243416
 20
50.242239193
 30
0.0
 10
27.9037400145
 20
50.3697657407
 30
0.0
  0
SPLINE
  5
2B9
100
AcDbEntity
  8
0
100
AcDbSpline
 62
7
  6
BYLAYER
 70
0
 71
3
 72
12
 73
8
 74
0
 42
0.0000001
 43
0.0000001
 44
0.0000000001
 40
0.0
 40
0.0
 40
0.0
 40
0.0
 40
0.2378444619
 40
0.3598450912
 40
0.484055605
 40
0.7387054796
 40
1.0
 40
1.0
 40
1.0
 40
1.0
 10
16.8037400145
 20
27.4234286561
 30
0.0
 10
16.8037400145
 20
27.4470230586
 30
0.0
 10
16.7956161027
 20
27.4832649132
 30
0.0
 10
16.7708785868
 20
27.5246980186
 30
0.0
 10
16.7372142332
 20
27.5616748779
 30
0.0
 10
16.6812960376
 20
27.5949919644
 30
0.0
 10
16.6296606856
 20
27.6040652159
 30
0.0
 10
16.6037400145
 20
27.6040652159
 30
0.0
  0
ENDSEC
  0
SECTION
  2
OBJECTS
  0
DICTIONARY
  5
C
100
AcDbDictionary
280
0
281
1
  3
ACAD_GROUP
350
D
  3
ACAD_MLINESTYLE
350
17
  3
ACAD_LAYOUT
350
1A
  3
ACAD_PLOTSETTINGS
350
19
  3
ACAD_PLOTSTYLENAME
350
E
  0
DICTIONARY
  5
D
102
{ACAD_REACTORS
330
C
102
}
100
AcDbDictionary
280
0
281
1
  0
ACDBDICTIONARYWDFLT
  5
E
102
{ACAD_REACTORS
330
C
102
}
100
AcDbDictionary
281
1
  3
Normal
350
F
100
AcDbDictionaryWithDefault
340
F
  0
DICTIONARY
  5
17
102
{ACAD_REACTORS
330
C
102
}
100
AcDbDictionary
280
0
281
1
  3
Standard
350
18
  0
DICTIONARY
  5
19
102
{ACAD_REACTORS
330
C
102
}
100
AcDbDictionary
281
1
  0
DICTIONARY
  5
1A
102
{ACAD_REACTORS
330
C
102
}
100
AcDbDictionary
281
1
  3
Model
350
2BA
  3
Layout1
350
2BB
  0
ACDBPLACEHOLDER
  5
F
102
{ACAD_REACTORS
330
E
102
}
  0
MLINESTYLE
  5
18
102
{ACAD_REACTORS
330
17
102
}
100
AcDbMlineStyle
  2
STANDARD
 70
0
  3

 62
256
 51
90.0
 52
90.0
 71
2
 49
0.5
 62
256
  6
BYLAYER
 49
-0.5
 62
256
  6
BYLAYER
  0
LAYOUT
  5
2BA
102
{ACAD_REACTORS
330
1A
102
}
100
AcDbPlotSettings
  1

  2
none_device
  4

  6

 40
0.0
 41
0.0
 42
0.0
 43
0.0
 44
210.0
 45
297.0
 46
0.0
 47
0.0
 48
0.0
 49
0.0
140
0.0
141
0.0
142
1.0
143
1.0
 70
1024
 72
1
 73
0
 74
0
  7

 75
0
147
1.0
148
0.0
149
0.0
100
AcDbLayout
  1
Model
 70
0
 71
0
 10
0.0
 20
0.0
 11
210.0
 21
297.0
 12
0.0
 22
0.0
 32
0.0
 14
0.0
 24
0.0
 34
0.0
 15
0.0
 25
0.0
 35
0.0
146
0.0
 13
0.0
 23
0.0
 33
0.0
 16
1.0
 26
0.0
 36
0.0
 17
0.0
 27
1.0
 37
0.0
 76
0
330
210
345
0
346
0
  0
LAYOUT
  5
2BB
102
{ACAD_REACTORS
330
1A
102
}
100
AcDbPlotSettings
  1

  2
none_device
  4

  6

 40
0.0
 41
0.0
 42
0.0
 43
0.0
 44
210.0
 45
297.0
 46
0.0
 47
0.0
 48
0.0
 49
0.0
140
0.0
141
0.0
142
1.0
143
1.0
 70
0
 72
1
 73
0
 74
0
  7

 75
0
147
1.0
148
0.0
149
0.0
100
AcDbLayout
  1
Layout1
 70
0
 71
1
 10
0.0
 20
0.0
 11
210.0
 21
297.0
 12
0.0
 22
0.0
 32
0.0
 14
0.0
 24
0.0
 34
0.0
 15
0.0
 25
0.0
 35
0.0
146
0.0
 13
0.0
 23
0.0
 33
0.0
 16
1.0
 26
0.0
 36
0.0
 17
0.0
 27
1.0
 37
0.0
 76
0
330
211
345
0
346
0
  0
ENDSEC
  0
EOF
