999
DXF file: C:\Users\sesa63760\Dev\_Creo\CAD\MCADID0004828_3D-CAD\drw0001_2.dxf
999
Pro/ENGINEER 2019471 by Parametric Technology Corporation
  0
SECTION
  2
HEADER
  9
$ACADVER
  1
AC1024
  9
$DWGCODEPAGE
  3
ANSI_1252
  9
$EXTMAX
 10
38.7943535
 20
54.86629995
 30
0.0
  9
$EXTMIN
 10
0.0
 20
0.0
 30
0.0
  9
$LIMMIN
 10
0.0
 20
0.0
  9
$LIMMAX
 10
38.7943535
 20
54.86629995
  9
$VIEWCTR
 10
19.39717675
 20
27.433149975
  9
$VIEWSIZE
 40
54.86629995
  9
$CLAYER
  8
0
  9
$LTSCALE
 40
3.5764699227
  9
$CELTYPE
  6
BYLAYER
  9
$DIMSCALE
 40
1.0
  9
$DIMASZ
 40
0.4618375417
  9
$DIMEXO
 40
1.0
  9
$DIMDLI
 40
2.4710155829
  9
$DIMEXE
 40
1.0
  9
$DIMCEN
 40
0.5852405328
  9
$DIMLFAC
 40
1.0
  9
$DIMBLK
  1
_FILLED
  9
$DIMALT
 70
0
  9
$DIMALTF
 40
0.0393700787
  9
$DIMTXT
 40
0.6465725583
  9
$DIMTOL
 70
1
  9
$DIMLIM
 70
0
  9
$DIMTFAC
 40
1.0
  9
$DIMTP
 40
0.01
  9
$DIMTM
 40
0.01
  9
$DIMGAP
 40
0.625
  9
$DIMDSEP
 70
46
  9
$AUNITS
 70
0
  9
$PDMODE
 70
3
  9
$PDSIZE
 40
0.3125
  9
$HANDSEED
  5
284
  9
$TILEMODE
 70
1
  9
$MEASUREMENT
 70
1
  9
$INSUNITS
 70
4
  0
ENDSEC
  0
SECTION
  2
CLASSES
  0
CLASS
  1
ACDBDICTIONARYWDFLT
  2
AcDbDictionaryWithDefault
  3
AutoCAD 2000
 90
0
 91
1
280
0
281
0
  0
CLASS
  1
ACDBPLACEHOLDER
  2
AcDbPlaceHolder
  3
AutoCAD 2000
 90
0
 91
1
280
0
281
0
  0
CLASS
  1
LAYOUT
  2
AcDbLayout
  3
AutoCAD 2000
 90
0
 91
0
280
0
281
0
  0
ENDSEC
  0
SECTION
  2
TABLES
  0
TABLE
  2
VPORT
  5
8
100
AcDbSymbolTable
 70
2
  0
VPORT
  5
1F4
100
AcDbSymbolTableRecord
100
AcDbViewportTableRecord
  2
*ACTIVE
 70
0
 10
0.0
 20
0.0
 11
1.0
 21
1.0
 12
19.39717675
 22
27.433149975
 13
0.0
 23
0.0
 14
1.0
 24
1.0
 15
0.0
 25
0.0
 16
0.0
 26
0.0
 36
1.0
 17
0.0
 27
0.0
 37
0.0
 40
54.86629995
 41
0.7070707071
 42
50.0
 43
0.0
 44
0.0
 50
0.0
 51
0.0
 71
0
 72
100
 73
1
 74
1
 75
0
 76
0
 77
0
 78
0
  0
ENDTAB
  0
TABLE
  2
LTYPE
  5
5
100
AcDbSymbolTable
 70
6
  0
LTYPE
  5
14
100
AcDbSymbolTableRecord
100
AcDbLinetypeTableRecord
  2
BYBLOCK
 70
0
  3

 72
65
 73
0
 40
0.0
  0
LTYPE
  5
15
100
AcDbSymbolTableRecord
100
AcDbLinetypeTableRecord
  2
BYLAYER
 70
0
  3

 72
65
 73
0
 40
0.0
  0
LTYPE
  5
16
100
AcDbSymbolTableRecord
100
AcDbLinetypeTableRecord
  2
CONTINUOUS
 70
64
  3
Solid line
 72
65
 73
0
 40
0.0
  0
LTYPE
  5
1F5
100
AcDbSymbolTableRecord
100
AcDbLinetypeTableRecord
  2
CENTER
 70
64
  3
____ _ ____ _ ____ _ ____ _ ____ _ ____ _ ____
 72
65
 73
4
 40
0.6
 49
0.375
 74
0
 49
-0.075
 74
0
 49
0.075
 74
0
 49
-0.075
 74
0
  0
LTYPE
  5
1F6
100
AcDbSymbolTableRecord
100
AcDbLinetypeTableRecord
  2
HIDDEN
 70
64
  3
- - - - - - - - - - - - - - - - - - - -
 72
65
 73
2
 40
0.2
 49
0.1
 74
0
 49
-0.1
 74
0
  0
LTYPE
  5
1F7
100
AcDbSymbolTableRecord
100
AcDbLinetypeTableRecord
  2
PHANTOM
 70
64
  3
_____ _ _ _____ _ _ _____ _ _ _____
 72
65
 73
6
 40
0.8
 49
0.45
 74
0
 49
-0.05
 74
0
 49
0.1
 74
0
 49
-0.05
 74
0
 49
0.1
 74
0
 49
-0.05
 74
0
  0
LTYPE
  5
1F8
100
AcDbSymbolTableRecord
100
AcDbLinetypeTableRecord
  2
DOT
 70
64
  3
. . . . . . . . . . . . . . . . . . . .
 72
65
 73
2
 40
0.2
 49
0.1
 74
0
 49
-0.1
 74
0
  0
LTYPE
  5
1F9
100
AcDbSymbolTableRecord
100
AcDbLinetypeTableRecord
  2
DASHED
 70
64
  3
- - - - - - - - - - - - - - - - - - - -
 72
65
 73
2
 40
0.2
 49
0.1
 74
0
 49
-0.1
 74
0
  0
ENDTAB
  0
TABLE
  2
LAYER
  5
2
100
AcDbSymbolTable
 70
36
  0
LAYER
  5
10
100
AcDbSymbolTableRecord
100
AcDbLayerTableRecord
  2
0
 70
0
 62
7
  6
CONTINUOUS
370
-3
390
F
  0
LAYER
  5
1FA
100
AcDbSymbolTableRecord
100
AcDbLayerTableRecord
  2
DEFAULT_1
 70
0
 62
7
  6
CENTER
370
-3
390
F
  0
LAYER
  5
1FB
100
AcDbSymbolTableRecord
100
AcDbLayerTableRecord
  2
DEFAULT_2
 70
0
 62
7
  6
HIDDEN
370
-3
390
F
  0
LAYER
  5
1FC
100
AcDbSymbolTableRecord
100
AcDbLayerTableRecord
  2
DEFAULT_3
 70
0
 62
7
  6
PHANTOM
370
-3
390
F
  0
LAYER
  5
1FD
100
AcDbSymbolTableRecord
100
AcDbLayerTableRecord
  2
00_COMPONENTS
 70
0
 62
7
  6
CONTINUOUS
370
-3
390
F
  0
LAYER
  5
1FE
100
AcDbSymbolTableRecord
100
AcDbLayerTableRecord
  2
01_1_DEFAULT_DATUMS
 70
0
 62
7
  6
CONTINUOUS
370
-3
390
F
  0
LAYER
  5
1FF
100
AcDbSymbolTableRecord
100
AcDbLayerTableRecord
  2
01_PLANES
 70
0
 62
7
  6
CONTINUOUS
370
-3
390
F
  0
LAYER
  5
200
100
AcDbSymbolTableRecord
100
AcDbLayerTableRecord
  2
02_COORD_SYS
 70
0
 62
7
  6
CONTINUOUS
370
-3
390
F
  0
LAYER
  5
201
100
AcDbSymbolTableRecord
100
AcDbLayerTableRecord
  2
03_AXES
 70
0
 62
7
  6
CONTINUOUS
370
-3
390
F
  0
LAYER
  5
202
100
AcDbSymbolTableRecord
100
AcDbLayerTableRecord
  2
04_POINTS
 70
0
 62
7
  6
CONTINUOUS
370
-3
390
F
  0
LAYER
  5
203
100
AcDbSymbolTableRecord
100
AcDbLayerTableRecord
  2
05_CURVES
 70
0
 62
7
  6
CONTINUOUS
370
-3
390
F
  0
LAYER
  5
204
100
AcDbSymbolTableRecord
100
AcDbLayerTableRecord
  2
06_SURFS
 70
0
 62
7
  6
CONTINUOUS
370
-3
390
F
  0
LAYER
  5
205
100
AcDbSymbolTableRecord
100
AcDbLayerTableRecord
  2
07_COSMETICS
 70
0
 62
7
  6
CONTINUOUS
370
-3
390
F
  0
LAYER
  5
206
100
AcDbSymbolTableRecord
100
AcDbLayerTableRecord
  2
10_NOTES
 70
0
 62
7
  6
CONTINUOUS
370
-3
390
F
  0
LAYER
  5
207
100
AcDbSymbolTableRecord
100
AcDbLayerTableRecord
  2
11_NOTES_PUB
 70
0
 62
7
  6
CONTINUOUS
370
-3
390
F
  0
LAYER
  5
208
100
AcDbSymbolTableRecord
100
AcDbLayerTableRecord
  2
13_REF_GTOL
 70
0
 62
7
  6
CONTINUOUS
370
-3
390
F
  0
LAYER
  5
209
100
AcDbSymbolTableRecord
100
AcDbLayerTableRecord
  2
16_MISC
 70
0
 62
7
  6
CONTINUOUS
370
-3
390
F
  0
LAYER
  5
20A
100
AcDbSymbolTableRecord
100
AcDbLayerTableRecord
  2
17_NO_PRINT
 70
0
 62
7
  6
CONTINUOUS
370
-3
390
F
  0
LAYER
  5
20B
100
AcDbSymbolTableRecord
100
AcDbLayerTableRecord
  2
18_DATUM_CAMS_JOINTS
 70
0
 62
7
  6
CONTINUOUS
370
-3
390
F
  0
LAYER
  5
20C
100
AcDbSymbolTableRecord
100
AcDbLayerTableRecord
  2
19_DATUM_FUNCTIONAL
 70
0
 62
7
  6
CONTINUOUS
370
-3
390
F
  0
LAYER
  5
20D
100
AcDbSymbolTableRecord
100
AcDbLayerTableRecord
  2
20_DATUM_KINEMATIC_SCHEME
 70
0
 62
7
  6
CONTINUOUS
370
-3
390
F
  0
ENDTAB
  0
TABLE
  2
STYLE
  5
3
100
AcDbSymbolTable
 70
1
  0
STYLE
  5
11
100
AcDbSymbolTableRecord
100
AcDbTextStyleTableRecord
  2
STANDARD
 70
0
 40
0.0
 41
1.0
 50
0.0
 71
0
 42
0.2
  3
ARIAL.TTF
  4

  0
STYLE
  5
20E
100
AcDbSymbolTableRecord
100
AcDbTextStyleTableRecord
  2
TEXTSTYLE_1
 70
0
 40
0.0
 41
0.8
 50
0.0
 71
0
 42
0.2
  3
gdt
  4

  0
ENDTAB
  0
TABLE
  2
VIEW
  5
6
100
AcDbSymbolTable
 70
0
  0
ENDTAB
  0
TABLE
  2
UCS
  5
7
100
AcDbSymbolTable
 70
0
  0
ENDTAB
  0
TABLE
  2
APPID
  5
9
100
AcDbSymbolTable
 70
1
  0
APPID
  5
20F
100
AcDbSymbolTableRecord
100
AcDbRegAppTableRecord
  2
ACAD
 70
0
  0
ENDTAB
  0
TABLE
  2
BLOCK_RECORD
  5
1
100
AcDbSymbolTable
 70
0
  0
BLOCK_RECORD
  5
210
100
AcDbSymbolTableRecord
100
AcDbBlockTableRecord
  2
*Model_Space
  0
BLOCK_RECORD
  5
211
100
AcDbSymbolTableRecord
100
AcDbBlockTableRecord
  2
*Paper_Space
  0
BLOCK_RECORD
  5
212
100
AcDbSymbolTableRecord
100
AcDbBlockTableRecord
  2
_FILLED
  0
ENDTAB
  0
TABLE
  2
DIMSTYLE
  5
A
100
AcDbSymbolTable
 70
1
100
AcDbDimStyleTable
 71
0
  0
DIMSTYLE
105
213
100
AcDbSymbolTableRecord
100
AcDbDimStyleTableRecord
  2
STANDARD
 70
0
  3

  4

 40
1.0
 41
0.4618375417
 42
1.0
 43
0.38
 44
1.0
 45
0.0
 46
0.0
 47
0.01
 48
0.01
140
0.6465725583
141
0.09
142
0.0
143
25.4
144
1.0
145
0.0
146
1.0
147
0.625
 71
1
 72
0
 73
0
 74
0
 75
0
 76
0
 77
1
 78
8
 79
2
170
0
171
1
172
0
173
0
174
0
175
0
176
0
177
0
178
0
270
2
179
2
271
2
272
2
273
2
274
2
275
0
280
0
281
0
282
0
283
1
284
8
285
0
286
0
287
3
288
0
340
11
278
46
341
212
342
212
343
212
344
212
  0
ENDTAB
  0
ENDSEC
  0
SECTION
  2
BLOCKS
  0
BLOCK
  5
20
100
AcDbEntity
  8
0
100
AcDbBlockBegin
  2
*Model_Space
 70
0
 10
0.0
 20
0.0
 30
0.0
  3
*Model_Space
  1

  0
ENDBLK
  5
21
100
AcDbEntity
  8
0
100
AcDbBlockEnd
  0
BLOCK
  5
1C
100
AcDbEntity
  8
0
100
AcDbBlockBegin
  2
*Paper_Space
 70
0
 10
0.0
 20
0.0
 30
0.0
  3
*Paper_Space
  1

  0
ENDBLK
  5
1D
100
AcDbEntity
  8
0
100
AcDbBlockEnd
  0
BLOCK
  5
214
100
AcDbEntity
  8
0
100
AcDbBlockBegin
  2
_FILLED
 70
64
 10
0.0
 20
0.0
  3
_FILLED
  1

  0
SOLID
  5
215
100
AcDbEntity
  8
0
  6
BYBLOCK
 62
0
100
AcDbTrace
 10
0.0
 20
0.0
 11
-1.0
 21
0.25
 12
-1.0
 22
-0.25
 13
-1.0
 23
-0.25
  0
ENDBLK
  5
216
100
AcDbEntity
  8
0
  6
BYBLOCK
 62
0
100
AcDbBlockEnd
  0
ENDSEC
  0
SECTION
  2
ENTITIES
  0
LINE
  5
217
100
AcDbEntity
  8
0
100
AcDbLine
 62
7
  6
BYLAYER
 10
4.2867788562
 20
25.1325042882
 11
4.2872160596
 21
25.1113878387
  0
LINE
  5
218
100
AcDbEntity
  8
0
100
AcDbLine
 62
7
  6
BYLAYER
 10
4.2867788562
 20
25.1325042882
 11
4.2881911746
 21
25.0327538196
  0
LINE
  5
219
100
AcDbEntity
  8
0
100
AcDbLine
 62
7
  6
BYLAYER
 10
4.2881690789
 20
25.0353446815
 11
4.289163387
 21
24.945119263
  0
LINE
  5
21A
100
AcDbEntity
  8
0
100
AcDbLine
 62
7
  6
BYLAYER
 10
4.3995203274
 20
12.4325054237
 11
4.2942097052
 21
24.499907477
  0
LINE
  5
21B
100
AcDbEntity
  8
0
100
AcDbLine
 62
7
  6
BYLAYER
 10
4.4796845827
 20
12.4325043075
 11
4.48230603
 21
12.1322812781
  0
LINE
  5
21C
100
AcDbEntity
  8
0
100
AcDbLine
 62
7
  6
BYLAYER
 10
4.2705809808
 20
37.1325048841
 11
4.2657423628
 21
37.6866448798
  0
LINE
  5
21D
100
AcDbEntity
  8
0
100
AcDbLine
 62
7
  6
BYLAYER
 10
4.4203713866
 20
25.0913864188
 11
4.3151909071
 21
37.1326998892
  0
LINE
  5
21E
100
AcDbEntity
  8
0
100
AcDbLine
 62
7
  6
BYLAYER
 10
4.2861445011
 20
25.1318744191
 11
4.2669301758
 21
27.3394731304
  0
LINE
  5
21F
100
AcDbEntity
  8
0
100
AcDbLine
 62
7
  6
BYLAYER
 10
4.2697310548
 20
27.0051294754
 11
4.2658027144
 21
27.5023268739
  0
LINE
  5
220
100
AcDbEntity
  8
0
100
AcDbLine
 62
7
  6
BYLAYER
 10
4.2649904175
 20
30.3213089092
 11
4.2657109644
 21
27.5023260732
  0
LINE
  5
221
100
AcDbEntity
  8
0
100
AcDbLine
 62
7
  6
BYLAYER
 10
4.2658009413
 20
21.317438349
 11
4.2658009413
 21
27.3817701826
  0
LINE
  5
222
100
AcDbEntity
  8
0
100
AcDbLine
 62
7
  6
BYLAYER
 10
4.2656781275
 20
37.1325059992
 11
4.2649904175
 21
30.3213089092
  0
LINE
  5
223
100
AcDbEntity
  8
0
100
AcDbLine
 62
7
  6
BYLAYER
 10
4.2632557787
 20
37.6866884787
 11
4.2535407173
 21
37.1325054663
  0
LINE
  5
224
100
AcDbEntity
  8
0
100
AcDbLine
 62
7
  6
BYLAYER
 10
4.4824333957
 20
12.1325054237
 11
34.8491684868
 21
12.1325054237
  0
LINE
  5
225
100
AcDbEntity
  8
0
100
AcDbLine
 62
7
  6
BYLAYER
 10
34.9320815551
 20
12.4325054237
 11
34.8517893946
 21
12.4325054237
  0
LINE
  5
226
100
AcDbEntity
  8
0
100
AcDbLine
 62
7
  6
BYLAYER
 10
24.6658009413
 20
12.4325054237
 11
14.6658009413
 21
12.4325054237
  0
LINE
  5
227
100
AcDbEntity
  8
0
100
AcDbLine
 62
7
  6
BYLAYER
 10
4.4798124879
 20
12.4325054237
 11
4.3995203274
 21
12.4325054237
  0
LINE
  5
228
100
AcDbEntity
  8
0
100
AcDbLine
 62
7
  6
BYLAYER
 10
35.0658009413
 20
21.3173306229
 11
35.0096182499
 21
21.3173306229
  0
LINE
  5
229
100
AcDbEntity
  8
0
100
AcDbLine
 62
7
  6
BYLAYER
 10
4.2658009413
 20
21.3173306229
 11
4.3219836326
 21
21.3173306229
  0
LINE
  5
22A
100
AcDbEntity
  8
0
100
AcDbLine
 62
7
  6
BYLAYER
 10
35.0658009413
 20
21.4169599832
 11
35.0104877022
 21
21.4169599832
  0
LINE
  5
22B
100
AcDbEntity
  8
0
100
AcDbLine
 62
7
  6
BYLAYER
 10
4.3211141803
 20
21.4169599832
 11
4.2658009413
 21
21.4169599832
  0
LINE
  5
22C
100
AcDbEntity
  8
0
100
AcDbLine
 62
7
  6
BYLAYER
 10
14.6658009413
 20
12.1325054237
 11
14.6658009413
 21
12.4325054237
  0
LINE
  5
22D
100
AcDbEntity
  8
0
100
AcDbLine
 62
7
  6
BYLAYER
 10
4.2658009413
 20
22.2869460622
 11
4.3135219268
 21
22.2869460622
  0
LINE
  5
22E
100
AcDbEntity
  8
0
100
AcDbLine
 62
7
  6
BYLAYER
 10
35.0180799557
 20
22.2869460622
 11
35.0658009413
 21
22.2869460622
  0
LINE
  5
22F
100
AcDbEntity
  8
0
100
AcDbLine
 62
7
  6
BYLAYER
 10
35.0658009413
 20
23.407242574
 11
35.0278566352
 21
23.407242574
  0
LINE
  5
230
100
AcDbEntity
  8
0
100
AcDbLine
 62
7
  6
BYLAYER
 10
4.3037452473
 20
23.407242574
 11
4.2658009413
 21
23.407242574
  0
LINE
  5
231
100
AcDbEntity
  8
0
100
AcDbLine
 62
7
  6
BYLAYER
 10
4.2658009413
 20
24.3825054237
 11
4.2952342573
 21
24.3825054237
  0
LINE
  5
232
100
AcDbEntity
  8
0
100
AcDbLine
 62
7
  6
BYLAYER
 10
35.0363676252
 20
24.3825054237
 11
35.0658009413
 21
24.3825054237
  0
LINE
  5
233
100
AcDbEntity
  8
0
100
AcDbLine
 62
7
  6
BYLAYER
 10
17.7889440762
 20
37.1325054237
 11
17.8256681156
 21
39.9349547928
  0
LINE
  5
234
100
AcDbEntity
  8
0
100
AcDbLine
 62
7
  6
BYLAYER
 10
35.0658009413
 20
25.0325054237
 11
35.0434079328
 21
25.0325054237
  0
LINE
  5
235
100
AcDbEntity
  8
0
100
AcDbLine
 62
7
  6
BYLAYER
 10
4.2658009413
 20
25.0325054237
 11
4.2881939302
 21
25.0325054237
  0
LINE
  5
236
100
AcDbEntity
  8
0
100
AcDbLine
 62
7
  6
BYLAYER
 10
35.0658009413
 20
25.169676451
 11
35.0458028457
 21
25.169676451
  0
LINE
  5
237
100
AcDbEntity
  8
0
100
AcDbLine
 62
7
  6
BYLAYER
 10
4.2857989872
 20
25.169676451
 11
4.2658009413
 21
25.169676451
  0
LINE
  5
238
100
AcDbEntity
  8
0
100
AcDbLine
 62
7
  6
BYLAYER
 10
21.5426578696
 20
37.1325054237
 11
21.5059322643
 21
39.9350745567
  0
LINE
  5
239
100
AcDbEntity
  8
0
100
AcDbLine
 62
7
  6
BYLAYER
 10
24.6658009413
 20
12.4325054237
 11
24.6658009413
 21
12.1325054237
  0
LINE
  5
23A
100
AcDbEntity
  8
0
100
AcDbLine
 62
7
  6
BYLAYER
 10
4.2535431548
 20
37.1325054237
 11
35.0780587277
 21
37.1325054237
  0
LINE
  5
23B
100
AcDbEntity
  8
0
100
AcDbLine
 62
7
  6
BYLAYER
 10
35.0780592938
 20
37.1326124138
 11
35.0174223114
 21
40.5915677329
  0
LINE
  5
23C
100
AcDbEntity
  8
0
100
AcDbLine
 62
7
  6
BYLAYER
 10
35.066611433
 20
30.3213089095
 11
35.0659213184
 21
37.1325111857
  0
LINE
  5
23D
100
AcDbEntity
  8
0
100
AcDbLine
 62
7
  6
BYLAYER
 10
35.0658009413
 20
21.317438349
 11
35.0659031375
 21
27.5502027231
  0
LINE
  5
23E
100
AcDbEntity
  8
0
100
AcDbLine
 62
7
  6
BYLAYER
 10
35.0659031375
 20
27.5502027231
 11
35.066611433
 21
30.3213089095
  0
LINE
  5
23F
100
AcDbEntity
  8
0
100
AcDbLine
 62
7
  6
BYLAYER
 10
35.0657993422
 20
27.5023268739
 11
35.0618710002
 21
27.0051294754
  0
LINE
  5
240
100
AcDbEntity
  8
0
100
AcDbLine
 62
7
  6
BYLAYER
 10
35.0164093088
 20
37.132505604
 11
34.9112305232
 21
25.0913864186
  0
LINE
  5
241
100
AcDbEntity
  8
0
100
AcDbLine
 62
7
  6
BYLAYER
 10
35.0609590684
 20
37.1325054237
 11
35.0657997876
 21
37.6865817592
  0
LINE
  5
242
100
AcDbEntity
  8
0
100
AcDbLine
 62
7
  6
BYLAYER
 10
34.8517893946
 20
12.4325054237
 11
34.8491684868
 21
12.1325054237
  0
LINE
  5
243
100
AcDbEntity
  8
0
100
AcDbLine
 62
7
  6
BYLAYER
 10
35.0373921774
 20
24.499907477
 11
34.9320815551
 21
12.4325054237
  0
LINE
  5
244
100
AcDbEntity
  8
0
100
AcDbLine
 62
7
  6
BYLAYER
 10
35.0618710002
 20
27.0051294754
 11
35.0454465346
 21
25.1307772708
  0
LWPOLYLINE
  5
245
100
AcDbEntity
  8
0
100
AcDbPolyline
 62
7
  6
BYLAYER
 90
3
 70
0
 10
35.0424384754
 20
24.9451192631
 10
35.0443858024
 20
25.1113876944
 10
35.0448230164
 20
25.1325053173
  0
LINE
  5
246
100
AcDbEntity
  8
0
100
AcDbLine
 62
7
  6
BYLAYER
 10
35.0435851644
 20
25.0484809487
 11
35.0448230296
 21
25.1325053172
  0
ARC
  5
247
100
AcDbEntity
  8
0
100
AcDbCircle
 62
7
  6
BYLAYER
 10
19.6658009413
 20
-76.5474945763
 40
119.08
100
AcDbArc
 50
82.6039709099
 51
97.3960285346
  0
ARC
  5
248
100
AcDbEntity
  8
0
100
AcDbCircle
 62
7
  6
BYLAYER
 10
21.1603319453
 20
-37.0117876871
 40
78.5916955694
100
AcDbArc
 50
84.5967271571
 51
85.0473414038
  0
ARC
  5
249
100
AcDbEntity
  8
0
100
AcDbCircle
 62
7
  6
BYLAYER
 10
17.3156245039
 20
-27.8348975621
 40
69.3750082579
100
AcDbArc
 50
94.9029556895
 51
95.4134313973
  0
ARC
  5
24A
100
AcDbEntity
  8
0
100
AcDbCircle
 62
7
  6
BYLAYER
 10
24.9029564724
 20
41.0804650789
 40
1.3012608573
100
AcDbArc
 50
99.0595902723
 51
99.8533625354
  0
ARC
  5
24B
100
AcDbEntity
  8
0
100
AcDbCircle
 62
7
  6
BYLAYER
 10
14.4313624757
 20
41.0965700516
 40
1.2849290652
100
AcDbArc
 50
80.1430007533
 51
80.9469550747
  0
ARC
  5
24C
100
AcDbEntity
  8
0
100
AcDbCircle
 62
7
  6
BYLAYER
 10
25.7481990794
 20
40.6111342261
 40
0.7880233695
100
AcDbArc
 50
100.4775006106
 51
101.5223295152
  0
ARC
  5
24D
100
AcDbEntity
  8
0
100
AcDbCircle
 62
7
  6
BYLAYER
 10
13.5854437396
 20
40.6221612812
 40
0.776808981
100
AcDbArc
 50
78.4626815453
 51
79.5226200439
  0
SPLINE
  5
24E
100
AcDbEntity
  8
0
100
AcDbSpline
 62
7
  6
BYLAYER
 70
0
 71
3
 72
29
 73
25
 74
0
 42
0.0000001
 43
0.0000001
 44
0.0000000001
 40
0.0
 40
0.0
 40
0.0
 40
0.0
 40
0.2007070515
 40
0.3927268387
 40
0.482824445
 40
0.5677502096
 40
0.6466766896
 40
0.7188208078
 40
0.7835066727
 40
0.8402933231
 40
0.8887783172
 40
0.9098143578
 40
0.9286831696
 40
0.9453633948
 40
0.9598337087
 40
0.9720746554
 40
0.9820840556
 40
0.9898694286
 40
0.9929306508
 40
0.9954390507
 40
0.9973959936
 40
0.9988033984
 40
0.9996651442
 40
1.0
 40
1.0
 40
1.0
 40
1.0
 10
35.0174223114
 20
40.5915677329
 30
0.0
 10
35.0163077656
 20
40.6551517381
 30
0.0
 10
35.014051213
 20
40.7795663087
 30
0.0
 10
35.0110793498
 20
40.9325198016
 30
0.0
 10
35.008687772
 20
41.0487923748
 30
0.0
 10
35.0069663284
 20
41.1292376544
 30
0.0
 10
35.0052968751
 20
41.203994174
 30
0.0
 10
35.003696451
 20
41.2723376131
 30
0.0
 10
35.0021795932
 20
41.3336660623
 30
0.0
 10
35.0007613252
 20
41.3874982288
 30
0.0
 10
34.9996244968
 20
41.4275025513
 30
0.0
 10
34.9987649807
 20
41.4554955889
 30
0.0
 10
34.9981825109
 20
41.4734150254
 30
0.0
 10
34.9976323738
 20
41.4892541226
 30
0.0
 10
34.997115629
 20
41.5029927752
 30
0.0
 10
34.9966338873
 20
41.5146182944
 30
0.0
 10
34.9961873112
 20
41.5241231033
 30
0.0
 10
34.9958257991
 20
41.5307250522
 30
0.0
 10
34.995543759
 20
41.5349419082
 30
0.0
 10
34.9953630341
 20
41.5373310086
 30
0.0
 10
34.9951837319
 20
41.5391545442
 30
0.0
 10
34.9950400295
 20
41.5405514166
 30
0.0
 10
34.9948709387
 20
41.5412431303
 30
0.0
 10
34.9947901004
 20
41.5417451412
 30
0.0
 10
34.9946849442
 20
41.5417592506
 30
0.0
  0
SPLINE
  5
24F
100
AcDbEntity
  8
0
100
AcDbSpline
 62
7
  6
BYLAYER
 70
0
 71
3
 72
29
 73
25
 74
0
 42
0.0000001
 43
0.0000001
 44
0.0000000001
 40
0.0
 40
0.0
 40
0.0
 40
0.0
 40
0.0003343094
 40
0.0011969415
 40
0.0026062973
 40
0.0045658461
 40
0.0070771011
 40
0.0101410227
 40
0.0179297135
 40
0.027936968
 40
0.0401671815
 40
0.0546244789
 40
0.0713035057
 40
0.090178496
 40
0.1112209811
 40
0.1596944545
 40
0.2164932356
 40
0.2812429366
 40
0.3533550742
 40
0.4322231705
 40
0.5171543743
 40
0.6072726833
 40
0.7994044693
 40
1.0
 40
1.0
 40
1.0
 40
1.0
 10
4.3369171488
 20
41.5417716845
 30
0.0
 10
4.3368120443
 20
41.5417585103
 30
0.0
 10
4.3367312618
 20
41.5412544572
 30
0.0
 10
4.3365623959
 20
41.5405638271
 30
0.0
 10
4.336418769
 20
41.5391641271
 30
0.0
 10
4.3362395353
 20
41.5373386676
 30
0.0
 10
4.3360588352
 20
41.534946765
 30
0.0
 10
4.3357768577
 20
41.5307271139
 30
0.0
 10
4.3354153697
 20
41.5241237994
 30
0.0
 10
4.3349687941
 20
41.514621921
 30
0.0
 10
4.3344869376
 20
41.5030044608
 30
0.0
 10
4.3339699801
 20
41.4892735503
 30
0.0
 10
4.3334197742
 20
41.4734367965
 30
0.0
 10
4.3328371182
 20
41.4555135117
 30
0.0
 10
4.3319775824
 20
41.4275197616
 30
0.0
 10
4.3308405189
 20
41.3875126902
 30
0.0
 10
4.3294222514
 20
41.3336593971
 30
0.0
 10
4.327906019
 20
41.2723161952
 30
0.0
 10
4.3263049195
 20
41.203980293
 30
0.0
 10
4.324635394
 20
41.1292497197
 30
0.0
 10
4.3229144405
 20
41.0488136035
 30
0.0
 10
4.3205216747
 20
40.9324957659
 30
0.0
 10
4.3175507685
 20
40.7795335566
 30
0.0
 10
4.3152935987
 20
40.6551172313
 30
0.0
 10
4.314179565
 20
40.591567733
 30
0.0
  0
LINE
  5
250
100
AcDbEntity
  8
0
100
AcDbLine
 62
7
  6
BYLAYER
 10
4.314179565
 20
40.591567733
 11
4.2632557787
 21
37.6866884787
  0
SPLINE
  5
251
100
AcDbEntity
  8
0
100
AcDbSpline
 62
7
  6
BYLAYER
 70
0
 71
3
 72
12
 73
8
 74
0
 42
0.0000001
 43
0.0000001
 44
0.0000000001
 40
0.0
 40
0.0
 40
0.0
 40
0.0
 40
0.0818651855
 40
0.1764748905
 40
0.4034554159
 40
0.6791489762
 40
1.0
 40
1.0
 40
1.0
 40
1.0
 10
13.7283361528
 20
41.3861123527
 30
0.0
 10
13.7033140842
 20
41.3911357411
 30
0.0
 10
13.6488906478
 20
41.3995671738
 30
0.0
 10
13.52362348
 20
41.4113892528
 30
0.0
 10
13.3372879603
 20
41.4157938626
 30
0.0
 10
13.0806065055
 20
41.4094927359
 30
0.0
 10
12.8948887036
 20
41.3990977494
 30
0.0
 10
12.7950999937
 20
41.3922300492
 30
0.0
  0
LINE
  5
252
100
AcDbEntity
  8
0
100
AcDbLine
 62
7
  6
BYLAYER
 10
10.7706688103
 20
41.2306895689
 11
10.7012834159
 21
41.2240832803
  0
SPLINE
  5
253
100
AcDbEntity
  8
0
100
AcDbSpline
 62
7
  6
BYLAYER
 70
0
 71
3
 72
9
 73
5
 74
0
 42
0.0000001
 43
0.0000001
 44
0.0000000001
 40
0.0
 40
0.0
 40
0.0
 40
0.0
 40
0.4733712376
 40
1.0
 40
1.0
 40
1.0
 40
1.0
 10
10.9121148555
 20
42.2103236081
 30
0.0
 10
10.9074582803
 20
42.2099804016
 30
0.0
 10
10.8976957177
 20
42.2076384912
 30
0.0
 10
10.889059701
 20
42.2026253908
 30
0.0
 10
10.8848657049
 20
42.1995605136
 30
0.0
  0
SPLINE
  5
254
100
AcDbEntity
  8
0
100
AcDbSpline
 62
7
  6
BYLAYER
 70
0
 71
3
 72
18
 73
14
 74
0
 42
0.0000001
 43
0.0000001
 44
0.0000000001
 40
0.0
 40
0.0
 40
0.0
 40
0.0
 40
0.0229486519
 40
0.0512842157
 40
0.0860304565
 40
0.1277438126
 40
0.1763426069
 40
0.231575981
 40
0.3606085217
 40
0.5099205384
 40
0.6714661095
 40
0.8372415159
 40
1.0
 40
1.0
 40
1.0
 40
1.0
 10
10.8848657049
 20
42.1995605136
 30
0.0
 10
10.878735665
 20
42.1950808196
 30
0.0
 10
10.8665756147
 20
42.1829675763
 30
0.0
 10
10.8506882914
 20
42.1592250331
 30
0.0
 10
10.835578782
 20
42.1279222425
 30
0.0
 10
10.8214522005
 20
42.0889832946
 30
0.0
 10
10.8083683593
 20
42.0426076859
 30
0.0
 10
10.7917480239
 20
41.9673451017
 30
0.0
 10
10.7759795497
 20
41.8579742482
 30
0.0
 10
10.7645765572
 20
41.7128258096
 30
0.0
 10
10.7599211053
 20
41.5551445664
 30
0.0
 10
10.7620985637
 20
41.3929799727
 30
0.0
 10
10.7674275456
 20
41.2843920164
 30
0.0
 10
10.771004267
 20
41.2306631984
 30
0.0
  0
SPLINE
  5
255
100
AcDbEntity
  8
0
100
AcDbSpline
 62
7
  6
BYLAYER
 70
0
 71
3
 72
18
 73
14
 74
0
 42
0.0000001
 43
0.0000001
 44
0.0000000001
 40
0.0
 40
0.0
 40
0.0
 40
0.0
 40
0.0298425764
 40
0.0621387722
 40
0.0982263109
 40
0.1393391312
 40
0.1864414877
 40
0.2397728256
 40
0.364508062
 40
0.5108641732
 40
0.6713389378
 40
0.8370765146
 40
1.0
 40
1.0
 40
1.0
 40
1.0
 10
11.6879857113
 20
42.2649663162
 30
0.0
 10
11.6771939164
 20
42.2642392128
 30
0.0
 10
11.654835844
 20
42.2598869907
 30
0.0
 10
11.6221725816
 20
42.2450430087
 30
0.0
 10
11.5899958822
 20
42.2213932934
 30
0.0
 10
11.5588121514
 20
42.1886100791
 30
0.0
 10
11.5291423464
 20
42.1465832307
 30
0.0
 10
11.4898130143
 20
42.0749256953
 30
0.0
 10
11.4482523027
 20
41.9643174119
 30
0.0
 10
11.4129904427
 20
41.8116420552
 30
0.0
 10
11.3903397887
 20
41.6416373867
 30
0.0
 10
11.3814964383
 20
41.46441263
 30
0.0
 10
11.3836677905
 20
41.3452132066
 30
0.0
 10
11.3866797182
 20
41.2862394358
 30
0.0
  0
SPLINE
  5
256
100
AcDbEntity
  8
0
100
AcDbSpline
 62
7
  6
BYLAYER
 70
0
 71
3
 72
15
 73
11
 74
0
 42
0.0000001
 43
0.0000001
 44
0.0000000001
 40
0.0
 40
0.0
 40
0.0
 40
0.0
 40
0.0983846854
 40
0.2050492355
 40
0.3219812781
 40
0.4489339727
 40
0.5843443194
 40
0.7244501793
 40
0.8644064831
 40
1.0
 40
1.0
 40
1.0
 40
1.0
 10
13.4628532788
 20
42.3708084678
 30
0.0
 10
13.4202977996
 20
42.3685885855
 30
0.0
 10
13.3318672979
 20
42.3526707259
 30
0.0
 10
13.2035132719
 20
42.2947082404
 30
0.0
 10
13.0832278254
 20
42.1998895212
 30
0.0
 10
12.9773712112
 20
42.0728002822
 30
0.0
 10
12.8936924852
 20
41.918795619
 30
0.0
 10
12.8339719911
 20
41.7482796381
 30
0.0
 10
12.8007311764
 20
41.570737407
 30
0.0
 10
12.7943147034
 20
41.4511892879
 30
0.0
 10
12.7949325121
 20
41.3924629444
 30
0.0
  0
SPLINE
  5
257
100
AcDbEntity
  8
0
100
AcDbSpline
 62
7
  6
BYLAYER
 70
0
 71
3
 72
14
 73
10
 74
0
 42
0.0000001
 43
0.0000001
 44
0.0000000001
 40
0.0
 40
0.0
 40
0.0
 40
0.0
 40
0.1145659328
 40
0.23584882
 40
0.3628596358
 40
0.4933556168
 40
0.6250157144
 40
0.7552228478
 40
1.0
 40
1.0
 40
1.0
 40
1.0
 10
14.63363423
 20
42.3654987599
 30
0.0
 10
14.578029078
 20
42.3618223837
 30
0.0
 10
14.4640302501
 20
42.343568125
 30
0.0
 10
14.2967946723
 20
42.2839584874
 30
0.0
 10
14.1376176145
 20
42.1889096018
 30
0.0
 10
13.995083999
 20
42.0625775274
 30
0.0
 10
13.8792023619
 20
41.9093788416
 30
0.0
 10
13.7676690772
 20
41.6885405996
 30
0.0
 10
13.7303799423
 20
41.5051503452
 30
0.0
 10
13.7267089392
 20
41.386143749
 30
0.0
  0
SPLINE
  5
258
100
AcDbEntity
  8
0
100
AcDbSpline
 62
7
  6
BYLAYER
 70
0
 71
3
 72
19
 73
15
 74
0
 42
0.0000001
 43
0.0000001
 44
0.0000000001
 40
0.0
 40
0.0
 40
0.0
 40
0.0
 40
0.0174581802
 40
0.0386417665
 40
0.0658219125
 40
0.1004872217
 40
0.1435228891
 40
0.1949011317
 40
0.2542737423
 40
0.3212194641
 40
0.4748306459
 40
0.6461460864
 40
0.8244279442
 40
1.0
 40
1.0
 40
1.0
 40
1.0
 10
10.824649647
 20
42.2038441269
 30
0.0
 10
10.8187524444
 20
42.2034050745
 30
0.0
 10
10.8058776795
 20
42.1990928613
 30
0.0
 10
10.7887903166
 20
42.1842345071
 30
0.0
 10
10.7726358653
 20
42.1609976515
 30
0.0
 10
10.7573955213
 20
42.1287856118
 30
0.0
 10
10.7432726386
 20
42.087342282
 30
0.0
 10
10.7303399265
 20
42.0368430853
 30
0.0
 10
10.7188624514
 20
41.9777287922
 30
0.0
 10
10.705263212
 20
41.8838602135
 30
0.0
 10
10.6942969218
 20
41.7514663781
 30
0.0
 10
10.6890271271
 20
41.5810455506
 30
0.0
 10
10.69151293
 20
41.4031236082
 30
0.0
 10
10.6975565693
 20
41.2833895816
 30
0.0
 10
10.701599993
 20
41.2240565338
 30
0.0
  0
SPLINE
  5
259
100
AcDbEntity
  8
0
100
AcDbSpline
 62
7
  6
BYLAYER
 70
0
 71
3
 72
13
 73
9
 74
0
 42
0.0000001
 43
0.0000001
 44
0.0000000001
 40
0.0
 40
0.0
 40
0.0
 40
0.0
 40
0.3208225923
 40
0.4645776105
 40
0.5965149707
 40
0.8235154467
 40
0.9181282123
 40
1.0
 40
1.0
 40
1.0
 40
1.0
 10
26.5365054809
 20
41.3924582831
 30
0.0
 10
26.4367466121
 20
41.3996336015
 30
0.0
 10
26.2920897762
 20
41.4074663423
 30
0.0
 10
26.1061931044
 20
41.4128758777
 30
0.0
 10
25.9494985888
 20
41.4146472363
 30
0.0
 10
25.8079880069
 20
41.4114252779
 30
0.0
 10
25.6827089625
 20
41.3996236101
 30
0.0
 10
25.6282850846
 20
41.3911628362
 30
0.0
 10
25.6032661895
 20
41.3861123614
 30
0.0
  0
SPLINE
  5
25A
100
AcDbEntity
  8
0
100
AcDbSpline
 62
7
  6
BYLAYER
 70
0
 71
3
 72
10
 73
6
 74
0
 42
0.0000001
 43
0.0000001
 44
0.0000000001
 40
0.0
 40
0.0
 40
0.0
 40
0.0
 40
0.275280541
 40
0.5357118209
 40
1.0
 40
1.0
 40
1.0
 40
1.0
 10
27.945356883
 20
41.2864756976
 30
0.0
 10
27.8161803275
 20
41.2974716786
 30
0.0
 10
27.5647344783
 20
41.3181611838
 30
0.0
 10
27.0952057429
 20
41.3547414354
 30
0.0
 10
26.7547263107
 20
41.3786524956
 30
0.0
 10
26.5365054809
 20
41.3924582831
 30
0.0
  0
SPLINE
  5
25B
100
AcDbEntity
  8
0
100
AcDbSpline
 62
7
  6
BYLAYER
 70
0
 71
3
 72
11
 73
7
 74
0
 42
0.0000001
 43
0.0000001
 44
0.0000000001
 40
0.0
 40
0.0
 40
0.0
 40
0.0
 40
0.2535403134
 40
0.4423060364
 40
0.6297217521
 40
1.0
 40
1.0
 40
1.0
 40
1.0
 10
10.7016034099
 20
41.2243231799
 30
0.0
 10
10.1605139324
 20
41.1849246788
 30
0.0
 10
9.2170400418
 20
41.1096166886
 30
0.0
 10
7.8750960213
 20
40.9875204821
 30
0.0
 10
6.285823007
 20
40.8277456084
 30
0.0
 10
5.1003432544
 20
40.6900881858
 30
0.0
 10
4.3141815311
 20
40.5915256492
 30
0.0
  0
SPLINE
  5
25C
100
AcDbEntity
  8
0
100
AcDbSpline
 62
7
  6
BYLAYER
 70
0
 71
3
 72
11
 73
7
 74
0
 42
0.0000001
 43
0.0000001
 44
0.0000000001
 40
0.0
 40
0.0
 40
0.0
 40
0.0
 40
0.2500005991
 40
0.5000024757
 40
0.7500015498
 40
1.0
 40
1.0
 40
1.0
 40
1.0
 10
10.6628102302
 20
38.3198827172
 30
0.0
 10
10.6656644895
 20
38.5619047937
 30
0.0
 10
10.6730120414
 20
39.0459294116
 30
0.0
 10
10.6853114478
 20
39.7719436505
 30
0.0
 10
10.6929418143
 20
40.4980203055
 30
0.0
 10
10.6978963184
 20
40.982070155
 30
0.0
 10
10.7012834159
 20
41.2240832803
 30
0.0
  0
LINE
  5
25D
100
AcDbEntity
  8
0
100
AcDbLine
 62
7
  6
BYLAYER
 10
28.6303183675
 20
41.2240832747
 11
28.5609332262
 21
41.2306925468
  0
SPLINE
  5
25E
100
AcDbEntity
  8
0
100
AcDbSpline
 62
7
  6
BYLAYER
 70
0
 71
3
 72
11
 73
7
 74
0
 42
0.0000001
 43
0.0000001
 44
0.0000000001
 40
0.0
 40
0.0
 40
0.0
 40
0.0
 40
0.2499984501
 40
0.4999975242
 40
0.7499994008
 40
1.0
 40
1.0
 40
1.0
 40
1.0
 10
28.6303183675
 20
41.2240832747
 30
0.0
 10
28.633705426
 20
40.9820730003
 30
0.0
 10
28.6386598995
 20
40.498028853
 30
0.0
 10
28.6462901109
 20
39.7719607502
 30
0.0
 10
28.6585892787
 20
39.0459550617
 30
0.0
 10
28.6659368696
 20
38.5619361474
 30
0.0
 10
28.6687911486
 20
38.3199169222
 30
0.0
  0
SPLINE
  5
25F
100
AcDbEntity
  8
0
100
AcDbSpline
 62
7
  6
BYLAYER
 70
0
 71
3
 72
14
 73
10
 74
0
 42
0.0000001
 43
0.0000001
 44
0.0000000001
 40
0.0
 40
0.0
 40
0.0
 40
0.0
 40
0.1147620464
 40
0.2362256321
 40
0.3633677891
 40
0.493918427
 40
0.6255413445
 40
0.7556276272
 40
1.0
 40
1.0
 40
1.0
 40
1.0
 10
24.6801849302
 20
42.362536877
 30
0.0
 10
24.7359913286
 20
42.3588654607
 30
0.0
 10
24.8503940946
 20
42.3406221754
 30
0.0
 10
25.0182478929
 20
42.2810278887
 30
0.0
 10
25.1780401699
 20
42.1859876989
 30
0.0
 10
25.3211495975
 20
42.0596577756
 30
0.0
 10
25.4375286261
 20
41.9064436579
 30
0.0
 10
25.5495443289
 20
41.6856333635
 30
0.0
 10
25.5870694229
 20
41.5021705466
 30
0.0
 10
25.5907958788
 20
41.3831387719
 30
0.0
  0
SPLINE
  5
260
100
AcDbEntity
  8
0
100
AcDbSpline
 62
7
  6
BYLAYER
 70
0
 71
3
 72
15
 73
11
 74
0
 42
0.0000001
 43
0.0000001
 44
0.0000000001
 40
0.0
 40
0.0
 40
0.0
 40
0.0
 40
0.0793653295
 40
0.1758504438
 40
0.2871745016
 40
0.4110828642
 40
0.5454901311
 40
0.6889695486
 40
0.8405244451
 40
1.0
 40
1.0
 40
1.0
 40
1.0
 10
14.6514196346
 20
42.3625370425
 30
0.0
 10
14.7611056261
 20
42.3434858716
 30
0.0
 10
15.0032556019
 20
42.2962417404
 30
0.0
 10
15.3969299858
 20
42.2108037905
 30
0.0
 10
15.8502038274
 20
42.1055905795
 30
0.0
 10
16.3540055995
 20
41.9829598284
 30
0.0
 10
16.9004673219
 20
41.8449662718
 30
0.0
 10
17.4835054893
 20
41.6934825681
 30
0.0
 10
18.0996740539
 20
41.5297485304
 30
0.0
 10
18.5207570416
 20
41.4154901218
 30
0.0
 10
18.735986631
 20
41.3545108382
 30
0.0
  0
SPLINE
  5
261
100
AcDbEntity
  8
0
100
AcDbSpline
 62
7
  6
BYLAYER
 70
0
 71
3
 72
13
 73
9
 74
0
 42
0.0000001
 43
0.0000001
 44
0.0000000001
 40
0.0
 40
0.0
 40
0.0
 40
0.0
 40
0.3214151419
 40
0.597194105
 40
0.7168851997
 40
0.8240388027
 40
0.9184550144
 40
1.0
 40
1.0
 40
1.0
 40
1.0
 10
13.4626799259
 20
42.3707994243
 30
0.0
 10
13.5881361708
 20
42.3773446579
 30
0.0
 10
13.8213190304
 20
42.3879643301
 30
0.0
 10
14.1015124332
 20
42.39405942
 30
0.0
 10
14.2979717615
 20
42.3918852109
 30
0.0
 10
14.4234670939
 20
42.3870535129
 30
0.0
 10
14.5338457507
 20
42.3788714798
 30
0.0
 10
14.6021596943
 20
42.370519112
 30
0.0
 10
14.6336341241
 20
42.3654987529
 30
0.0
  0
SPLINE
  5
262
100
AcDbEntity
  8
0
100
AcDbSpline
 62
7
  6
BYLAYER
 70
0
 71
3
 72
13
 73
9
 74
0
 42
0.0000001
 43
0.0000001
 44
0.0000000001
 40
0.0
 40
0.0
 40
0.0
 40
0.0
 40
0.0815444652
 40
0.1759596399
 40
0.283112578
 40
0.4028042739
 40
0.6785878977
 40
1.0
 40
1.0
 40
1.0
 40
1.0
 10
24.6979680232
 20
42.3654987354
 30
0.0
 10
24.7294422375
 20
42.3705190683
 30
0.0
 10
24.7977555304
 20
42.3788714832
 30
0.0
 10
24.9081332666
 20
42.3870535813
 30
0.0
 10
25.0336281159
 20
42.3918852856
 30
0.0
 10
25.23008916
 20
42.3940593812
 30
0.0
 10
25.5102833069
 20
42.387964122
 30
0.0
 10
25.7434667084
 20
42.3773446094
 30
0.0
 10
25.8689217135
 20
42.3707994365
 30
0.0
  0
SPLINE
  5
263
100
AcDbEntity
  8
0
100
AcDbSpline
 62
7
  6
BYLAYER
 70
0
 71
3
 72
15
 73
11
 74
0
 42
0.0000001
 43
0.0000001
 44
0.0000000001
 40
0.0
 40
0.0
 40
0.0
 40
0.0
 40
0.1597261016
 40
0.3115194346
 40
0.4550550145
 40
0.589422344
 40
0.7132675708
 40
0.8244698009
 40
0.9207550234
 40
1.0
 40
1.0
 40
1.0
 40
1.0
 10
20.5955291521
 20
41.3544871681
 30
0.0
 10
20.8110877349
 20
41.4156040701
 30
0.0
 10
21.233018519
 20
41.5293903986
 30
0.0
 10
21.8500438021
 20
41.6928960601
 30
0.0
 10
22.4334378175
 20
41.844457745
 30
0.0
 10
22.9797981915
 20
41.9826094277
 30
0.0
 10
23.4832647318
 20
42.1053091442
 30
0.0
 10
23.9359747059
 20
42.2105854486
 30
0.0
 10
24.328979538
 20
42.2962014119
 30
0.0
 10
24.5706645402
 20
42.3435075766
 30
0.0
 10
24.6801842836
 20
42.3625369159
 30
0.0
  0
LINE
  5
264
100
AcDbEntity
  8
0
100
AcDbLine
 62
7
  6
BYLAYER
 10
20.4479927431
 20
41.3125131408
 11
20.5955298794
 21
41.3544869852
  0
SPLINE
  5
265
100
AcDbEntity
  8
0
100
AcDbSpline
 62
7
  6
BYLAYER
 70
0
 71
3
 72
15
 73
11
 74
0
 42
0.0000001
 43
0.0000001
 44
0.0000000001
 40
0.0
 40
0.0
 40
0.0
 40
0.0
 40
0.1059290221
 40
0.2275296857
 40
0.36051547
 40
0.4999744023
 40
0.6394482152
 40
0.772462628
 40
0.8940756722
 40
1.0
 40
1.0
 40
1.0
 40
1.0
 10
18.8837229357
 20
41.3125319694
 30
0.0
 10
18.9372902709
 20
41.2973087207
 30
0.0
 10
19.0543702163
 20
41.2716950737
 30
0.0
 10
19.24235039
 20
41.2463993451
 30
0.0
 10
19.4492492393
 20
41.2332465335
 30
0.0
 10
19.6658272659
 20
41.2314923207
 30
0.0
 10
19.882420608
 20
41.2332142677
 30
0.0
 10
20.0893505926
 20
41.2463491893
 30
0.0
 10
20.277348898
 20
41.2716589044
 30
0.0
 10
20.3944295555
 20
41.2972872212
 30
0.0
 10
20.4479936314
 20
41.3125129103
 30
0.0
  0
LINE
  5
266
100
AcDbEntity
  8
0
100
AcDbLine
 62
7
  6
BYLAYER
 10
18.7359821745
 20
41.3545097164
 11
18.8837201271
 21
41.3125312396
  0
SPLINE
  5
267
100
AcDbEntity
  8
0
100
AcDbSpline
 62
7
  6
BYLAYER
 70
0
 71
3
 72
14
 73
10
 74
0
 42
0.0000001
 43
0.0000001
 44
0.0000000001
 40
0.0
 40
0.0
 40
0.0
 40
0.0
 40
0.114756635
 40
0.2362167889
 40
0.3633578214
 40
0.4939094158
 40
0.6255347382
 40
0.7556238905
 40
1.0
 40
1.0
 40
1.0
 40
1.0
 10
14.6514197183
 20
42.3625370279
 30
0.0
 10
14.5956166091
 20
42.3588649515
 30
0.0
 10
14.4812196868
 20
42.3406201078
 30
0.0
 10
14.3133737743
 20
42.2810239816
 30
0.0
 10
14.1535867133
 20
42.1859825635
 30
0.0
 10
14.0104792487
 20
42.0596521415
 30
0.0
 10
13.8940984168
 20
41.9064384437
 30
0.0
 10
13.7820760028
 20
41.6856298827
 30
0.0
 10
13.7445404511
 20
41.502168761
 30
0.0
 10
13.7408059744
 20
41.3831366976
 30
0.0
  0
SPLINE
  5
268
100
AcDbEntity
  8
0
100
AcDbSpline
 62
7
  6
BYLAYER
 70
0
 71
3
 72
15
 73
11
 74
0
 42
0.0000001
 43
0.0000001
 44
0.0000000001
 40
0.0
 40
0.0
 40
0.0
 40
0.0
 40
0.2137234231
 40
0.2738746788
 40
0.3363448633
 40
0.4667803316
 40
0.6022047311
 40
0.7387857034
 40
0.8724448322
 40
1.0
 40
1.0
 40
1.0
 40
1.0
 10
18.7360668735
 20
41.3544857214
 30
0.0
 10
18.6101371058
 20
41.3221121254
 30
0.0
 10
18.4562164312
 20
41.2465048633
 30
0.0
 10
18.2935706755
 20
41.1225219269
 30
0.0
 10
18.1786566521
 20
41.0197849145
 30
0.0
 10
18.0452338701
 20
40.8700933907
 30
0.0
 10
17.9097548353
 20
40.6652794166
 30
0.0
 10
17.8004865968
 20
40.4432466336
 30
0.0
 10
17.7216042743
 20
40.213843231
 30
0.0
 10
17.6877439079
 20
40.0581436375
 30
0.0
 10
17.6758715265
 20
39.981455553
 30
0.0
  0
SPLINE
  5
269
100
AcDbEntity
  8
0
100
AcDbSpline
 62
7
  6
BYLAYER
 70
0
 71
3
 72
15
 73
11
 74
0
 42
0.0000001
 43
0.0000001
 44
0.0000000001
 40
0.0
 40
0.0
 40
0.0
 40
0.0
 40
0.2129393622
 40
0.2729978323
 40
0.3354166357
 40
0.4658662564
 40
0.6014316107
 40
0.7382387409
 40
0.87216985
 40
1.0
 40
1.0
 40
1.0
 40
1.0
 10
18.8837203022
 20
41.312533201
 30
0.0
 10
18.7584775239
 20
41.2793800503
 30
0.0
 10
18.6056410247
 20
41.2028718372
 30
0.0
 10
18.4441264443
 20
41.0783276415
 30
0.0
 10
18.32976107
 20
40.9750851374
 30
0.0
 10
18.1968380068
 20
40.8248731705
 30
0.0
 10
18.0615611189
 20
40.6196514482
 30
0.0
 10
17.9520595245
 20
40.3973022969
 30
0.0
 10
17.8725076969
 20
40.1676322652
 30
0.0
 10
17.8379454906
 20
40.0117465977
 30
0.0
 10
17.8256678793
 20
39.9349474195
 30
0.0
  0
SPLINE
  5
26A
100
AcDbEntity
  8
0
100
AcDbSpline
 62
7
  6
BYLAYER
 70
0
 71
3
 72
15
 73
11
 74
0
 42
0.0000001
 43
0.0000001
 44
0.0000000001
 40
0.0
 40
0.0
 40
0.0
 40
0.0
 40
0.2128341098
 40
0.2728709928
 40
0.3352718655
 40
0.4657004364
 40
0.6012705411
 40
0.7381086974
 40
0.8720957488
 40
1.0
 40
1.0
 40
1.0
 40
1.0
 10
20.4479926799
 20
41.3125131228
 30
0.0
 10
20.5731635211
 20
41.279385528
 30
0.0
 10
20.7259236386
 20
41.2029468159
 30
0.0
 10
20.8873790536
 20
41.0785006228
 30
0.0
 10
21.0017279125
 20
40.9753163581
 30
0.0
 10
21.1346536912
 20
40.8251591987
 30
0.0
 10
21.2699552257
 20
40.6199698547
 30
0.0
 10
21.3794962241
 20
40.3976027337
 30
0.0
 10
21.4590820999
 20
40.1678638012
 30
0.0
 10
21.4936541738
 20
40.0119136979
 30
0.0
 10
21.5059321566
 20
39.9350762519
 30
0.0
  0
SPLINE
  5
26B
100
AcDbEntity
  8
0
100
AcDbSpline
 62
7
  6
BYLAYER
 70
0
 71
3
 72
17
 73
13
 74
0
 42
0.0000001
 43
0.0000001
 44
0.0000000001
 40
0.0
 40
0.0
 40
0.0
 40
0.0
 40
0.1628724601
 40
0.3165186872
 40
0.4602361562
 40
0.5933078699
 40
0.7148562347
 40
0.8238141516
 40
0.8732199854
 40
0.9190862921
 40
0.9613452877
 40
1.0
 40
1.0
 40
1.0
 40
1.0
 10
21.6557316853
 20
39.9814514331
 30
0.0
 10
21.8725704996
 20
40.048584801
 30
0.0
 10
22.2912586206
 20
40.1878390708
 30
0.0
 10
22.8941132001
 20
40.4070386094
 30
0.0
 10
23.4538737671
 20
40.6228405541
 30
0.0
 10
23.9693833099
 20
40.8288962451
 30
0.0
 10
24.4395285345
 20
41.0178601559
 30
0.0
 10
24.8037347568
 20
41.1578532915
 30
0.0
 10
25.072831588
 20
41.2507100237
 30
0.0
 10
25.2560007258
 20
41.3073424062
 30
0.0
 10
25.4270232873
 20
41.3519987401
 30
0.0
 10
25.5376385442
 20
41.3743893894
 30
0.0
 10
25.590795895
 20
41.3831387759
 30
0.0
  0
SPLINE
  5
26C
100
AcDbEntity
  8
0
100
AcDbSpline
 62
7
  6
BYLAYER
 70
0
 71
3
 72
15
 73
11
 74
0
 42
0.0000001
 43
0.0000001
 44
0.0000000001
 40
0.0
 40
0.0
 40
0.0
 40
0.0
 40
0.2097654996
 40
0.2691403312
 40
0.3309781063
 40
0.4607068078
 40
0.5963616948
 40
0.7341059902
 40
0.8697975815
 40
1.0
 40
1.0
 40
1.0
 40
1.0
 10
20.5955276426
 20
41.3544867401
 30
0.0
 10
20.7191411102
 20
41.3227287078
 30
0.0
 10
20.8705674307
 20
41.2490816744
 30
0.0
 10
21.0313825543
 20
41.1280445581
 30
0.0
 10
21.1460128246
 20
41.0269123181
 30
0.0
 10
21.2799558344
 20
40.8785683269
 30
0.0
 10
21.4168934893
 20
40.6741868314
 30
0.0
 10
21.5282049696
 20
40.4507903792
 30
0.0
 10
21.6089653331
 20
40.2182240237
 30
0.0
 10
21.6436286667
 20
40.0597448532
 30
0.0
 10
21.655731095
 20
39.9814555802
 30
0.0
  0
LINE
  5
26D
100
AcDbEntity
  8
0
100
AcDbLine
 62
7
  6
BYLAYER
 10
21.6557316853
 20
39.9814514331
 11
21.5059322401
 21
39.9350762839
  0
LINE
  5
26E
100
AcDbEntity
  8
0
100
AcDbLine
 62
7
  6
BYLAYER
 10
25.6526972288
 20
37.1325378272
 11
25.5891324499
 21
41.3831069853
  0
SPLINE
  5
26F
100
AcDbEntity
  8
0
100
AcDbSpline
 62
7
  6
BYLAYER
 70
0
 71
3
 72
14
 73
10
 74
0
 42
0.0000001
 43
0.0000001
 44
0.0000000001
 40
0.0
 40
0.0
 40
0.0
 40
0.0
 40
0.1141120316
 40
0.2350296536
 40
0.3618000908
 40
0.4922008441
 40
0.6239386758
 40
0.7543793853
 40
1.0
 40
1.0
 40
1.0
 40
1.0
 10
24.69796815
 20
42.3654987556
 30
0.0
 10
24.7533524998
 20
42.3618369533
 30
0.0
 10
24.8669563976
 20
42.3436946385
 30
0.0
 10
25.0337532272
 20
42.2844204389
 30
0.0
 10
25.1927709509
 20
42.1897860518
 30
0.0
 10
25.3354132503
 20
42.0637703858
 30
0.0
 10
25.4516029282
 20
41.9106725779
 30
0.0
 10
25.5637001588
 20
41.6894867887
 30
0.0
 10
25.6012093236
 20
41.50555935
 30
0.0
 10
25.6048929484
 20
41.3861437488
 30
0.0
  0
SPLINE
  5
270
100
AcDbEntity
  8
0
100
AcDbSpline
 62
7
  6
BYLAYER
 70
0
 71
3
 72
15
 73
11
 74
0
 42
0.0000001
 43
0.0000001
 44
0.0000000001
 40
0.0
 40
0.0
 40
0.0
 40
0.0
 40
0.0981324913
 40
0.2045774059
 40
0.3213372883
 40
0.4481909292
 40
0.5836149757
 40
0.7238548162
 40
0.864065332
 40
1.0
 40
1.0
 40
1.0
 40
1.0
 10
25.8686888927
 20
42.370841181
 30
0.0
 10
25.9111384383
 20
42.3686317671
 30
0.0
 10
25.9993741429
 20
42.3527924663
 30
0.0
 10
26.1275283967
 20
42.2950581894
 30
0.0
 10
26.2477649536
 20
42.2005098492
 30
0.0
 10
26.3537015086
 20
42.0736165201
 30
0.0
 10
26.4375459173
 20
41.9196622576
 30
0.0
 10
26.4974599495
 20
41.7490130466
 30
0.0
 10
26.5308389744
 20
41.5711591203
 30
0.0
 10
26.537290385
 20
41.4513437588
 30
0.0
 10
26.5366699737
 20
41.3924656572
 30
0.0
  0
SPLINE
  5
271
100
AcDbEntity
  8
0
100
AcDbSpline
 62
7
  6
BYLAYER
 70
0
 71
3
 72
18
 73
14
 74
0
 42
0.0000001
 43
0.0000001
 44
0.0000000001
 40
0.0
 40
0.0
 40
0.0
 40
0.0
 40
0.0297823319
 40
0.0620133822
 40
0.0980277619
 40
0.1390598375
 40
0.1860768629
 40
0.239324337
 40
0.3639285083
 40
0.5102525138
 40
0.6708171551
 40
0.8367710476
 40
1.0
 40
1.0
 40
1.0
 40
1.0
 10
27.6435869296
 20
42.2649682831
 30
0.0
 10
27.6543573765
 20
42.2642450517
 30
0.0
 10
27.6766721422
 20
42.2599132435
 30
0.0
 10
27.7092826914
 20
42.2451276736
 30
0.0
 10
27.7414193196
 20
42.2215568507
 30
0.0
 10
27.7725765394
 20
42.1888669456
 30
0.0
 10
27.8022348333
 20
42.1469414008
 30
0.0
 10
27.8415737986
 20
42.0754107504
 30
0.0
 10
27.8831745338
 20
41.964908704
 30
0.0
 10
27.9185006546
 20
41.8122707013
 30
0.0
 10
27.9412203566
 20
41.6421697192
 30
0.0
 10
27.9501059111
 20
41.4647198104
 30
0.0
 10
27.9479397311
 20
41.3453275809
 30
0.0
 10
27.9449221722
 20
41.2862417271
 30
0.0
  0
SPLINE
  5
272
100
AcDbEntity
  8
0
100
AcDbSpline
 62
7
  6
BYLAYER
 70
0
 71
3
 72
9
 73
5
 74
0
 42
0.0000001
 43
0.0000001
 44
0.0000000001
 40
0.0
 40
0.0
 40
0.0
 40
0.0
 40
0.468679763
 40
1.0
 40
1.0
 40
1.0
 40
1.0
 10
28.4194875185
 20
42.2103235719
 30
0.0
 10
28.4246668158
 20
42.2099418037
 30
0.0
 10
28.4356234405
 20
42.2070920162
 30
0.0
 10
28.4450751713
 20
42.2010146252
 30
0.0
 10
28.4496555999
 20
42.1973157332
 30
0.0
  0
SPLINE
  5
273
100
AcDbEntity
  8
0
100
AcDbSpline
 62
7
  6
BYLAYER
 70
0
 71
3
 72
17
 73
13
 74
0
 42
0.0000001
 43
0.0000001
 44
0.0000000001
 40
0.0
 40
0.0
 40
0.0
 40
0.0
 40
0.0235989902
 40
0.0526742849
 40
0.0881679893
 40
0.1305181455
 40
0.2351213821
 40
0.3643563698
 40
0.5132065465
 40
0.6738122732
 40
0.8384209898
 40
1.0
 40
1.0
 40
1.0
 40
1.0
 10
28.4496555999
 20
42.1973157332
 30
0.0
 10
28.4557072087
 20
42.1924288001
 30
0.0
 10
28.4676495269
 20
42.1795856376
 30
0.0
 10
28.4832520266
 20
42.1549569191
 30
0.0
 10
28.4980628735
 20
42.1228904004
 30
0.0
 10
28.5179343392
 20
42.0660683975
 30
0.0
 10
28.5385883739
 20
41.9771728367
 30
0.0
 10
28.5562264262
 20
41.852185385
 30
0.0
 10
28.5672503563
 20
41.7079294592
 30
0.0
 10
28.5716793266
 20
41.55168697
 30
0.0
 10
28.5694256113
 20
41.3912115539
 30
0.0
 10
28.5641351702
 20
41.283803631
 30
0.0
 10
28.5605976368
 20
41.2306633675
 30
0.0
  0
SPLINE
  5
274
100
AcDbEntity
  8
0
100
AcDbSpline
 62
7
  6
BYLAYER
 70
0
 71
3
 72
11
 73
7
 74
0
 42
0.0000001
 43
0.0000001
 44
0.0000000001
 40
0.0
 40
0.0
 40
0.0
 40
0.0
 40
0.246145561
 40
0.4325965294
 40
0.6204753495
 40
1.0
 40
1.0
 40
1.0
 40
1.0
 10
35.0174243386
 20
40.5912981672
 30
0.0
 10
34.4948168318
 20
40.6568183704
 30
0.0
 10
33.5756358453
 20
40.7664366057
 30
0.0
 10
32.2555231738
 20
40.9082404934
 30
0.0
 10
30.6499952386
 20
41.0643780642
 30
0.0
 10
29.4399584051
 20
41.1651235201
 30
0.0
 10
28.6300013475
 20
41.2240990299
 30
0.0
  0
SPLINE
  5
275
100
AcDbEntity
  8
0
100
AcDbSpline
 62
7
  6
BYLAYER
 70
0
 71
3
 72
19
 73
15
 74
0
 42
0.0000001
 43
0.0000001
 44
0.0000000001
 40
0.0
 40
0.0
 40
0.0
 40
0.0
 40
0.0174588078
 40
0.0386435864
 40
0.065825002
 40
0.1004913391
 40
0.1435276143
 40
0.1949060196
 40
0.2542783776
 40
0.3212234727
 40
0.4748326135
 40
0.6461459962
 40
0.8244269739
 40
1.0
 40
1.0
 40
1.0
 40
1.0
 10
28.5069576063
 20
42.2038437066
 30
0.0
 10
28.512854682
 20
42.2034038167
 30
0.0
 10
28.5257287849
 20
42.1990899227
 30
0.0
 10
28.5428149708
 20
42.18423041
 30
0.0
 10
28.5589684912
 20
42.1609931192
 30
0.0
 10
28.5742079865
 20
42.1287814585
 30
0.0
 10
28.5883301168
 20
42.0873394027
 30
0.0
 10
28.6012621591
 20
42.0368423773
 30
0.0
 10
28.6127390942
 20
41.9777311019
 30
0.0
 10
28.6263378056
 20
41.8838679368
 30
0.0
 10
28.6373040824
 20
41.7514819564
 30
0.0
 10
28.6425745244
 20
41.5810708261
 30
0.0
 10
28.6400900103
 20
41.4031578686
 30
0.0
 10
28.6340475318
 20
41.2834293755
 30
0.0
 10
28.6300047465
 20
41.2240987463
 30
0.0
  0
SPLINE
  5
276
100
AcDbEntity
  8
0
100
AcDbSpline
 62
7
  6
BYLAYER
 70
0
 71
3
 72
18
 73
14
 74
0
 42
0.0000001
 43
0.0000001
 44
0.0000000001
 40
0.0
 40
0.0
 40
0.0
 40
0.0
 40
0.1040626445
 40
0.2257398899
 40
0.3597086252
 40
0.4294547589
 40
0.5000002757
 40
0.5705448511
 40
0.64029011
 40
0.7742571461
 40
0.8959345006
 40
0.9504715705
 40
1.0
 40
1.0
 40
1.0
 40
1.0
 10
21.5059322643
 20
39.9350745567
 30
0.0
 10
21.379121963
 20
39.9177708205
 30
0.0
 10
21.1030496039
 20
39.8874798106
 30
0.0
 10
20.6619159564
 20
39.8534681512
 30
0.0
 10
20.2622146973
 20
39.8326552687
 30
0.0
 10
19.9250971599
 20
39.8211674052
 30
0.0
 10
19.6657928138
 20
39.816863309
 30
0.0
 10
19.4064901698
 20
39.8211511259
 30
0.0
 10
19.06937125
 20
39.8325086795
 30
0.0
 10
18.6696800209
 20
39.8532957297
 30
0.0
 10
18.2892545562
 20
39.8826065311
 30
0.0
 10
18.0130827247
 20
39.9112033732
 30
0.0
 10
17.8860142127
 20
39.9266464646
 30
0.0
 10
17.8256680165
 20
39.9349473993
 30
0.0
  0
SPLINE
  5
277
100
AcDbEntity
  8
0
100
AcDbSpline
 62
7
  6
BYLAYER
 70
0
 71
3
 72
17
 73
13
 74
0
 42
0.0000001
 43
0.0000001
 44
0.0000000001
 40
0.0
 40
0.0
 40
0.0
 40
0.0
 40
0.1628108296
 40
0.3163805622
 40
0.4600792868
 40
0.5931625504
 40
0.7147313761
 40
0.8237302629
 40
0.8731670806
 40
0.9190621218
 40
0.9613394248
 40
1.0
 40
1.0
 40
1.0
 40
1.0
 10
17.6758706576
 20
39.9814566125
 30
0.0
 10
17.4591451243
 20
40.0486608963
 30
0.0
 10
17.0401726938
 20
40.186370701
 30
0.0
 10
16.436994137
 20
40.4040791291
 30
0.0
 10
15.877330901
 20
40.6198097529
 30
0.0
 10
15.3619436157
 20
40.8262119702
 30
0.0
 10
14.8918338203
 20
41.0155310639
 30
0.0
 10
14.5276938541
 20
41.1560329118
 30
0.0
 10
14.2587019175
 20
41.2496099562
 30
0.0
 10
14.0755883155
 20
41.3067854823
 30
0.0
 10
13.9045941243
 20
41.3518443401
 30
0.0
 10
13.7939687622
 20
41.3743720636
 30
0.0
 10
13.7408059608
 20
41.3831366998
 30
0.0
  0
LINE
  5
278
100
AcDbEntity
  8
0
100
AcDbLine
 62
7
  6
BYLAYER
 10
17.8256681156
 20
39.9349547928
 11
17.6758706576
 21
39.9814566125
  0
LINE
  5
279
100
AcDbEntity
  8
0
100
AcDbLine
 62
7
  6
BYLAYER
 10
13.7424698755
 20
41.3831049015
 11
13.6789113103
 21
37.1325379033
  0
SPLINE
  5
27A
100
AcDbEntity
  8
0
100
AcDbSpline
 62
7
  6
BYLAYER
 70
0
 71
3
 72
10
 73
6
 74
0
 42
0.0000001
 43
0.0000001
 44
0.0000000001
 40
0.0
 40
0.0
 40
0.0
 40
0.0
 40
0.4642881923
 40
0.7247194205
 40
1.0
 40
1.0
 40
1.0
 40
1.0
 10
12.7950999937
 20
41.3922300492
 30
0.0
 10
12.5768810717
 20
41.3784219192
 30
0.0
 10
12.2364043561
 20
41.3545122451
 30
0.0
 10
11.7668788907
 20
41.3179388514
 30
0.0
 10
11.5154347582
 20
41.297253382
 30
0.0
 10
11.3862590285
 20
41.2862598055
 30
0.0
  0
SPLINE
  5
27B
100
AcDbEntity
  8
0
100
AcDbSpline
 62
7
  6
BYLAYER
 70
0
 71
3
 72
13
 73
9
 74
0
 42
0.0000001
 43
0.0000001
 44
0.0000000001
 40
0.0
 40
0.0
 40
0.0
 40
0.0
 40
0.1250048556
 40
0.2500149914
 40
0.437503735
 40
0.6249914697
 40
0.8124896462
 40
1.0
 40
1.0
 40
1.0
 40
1.0
 10
35.0373921774
 20
24.499907477
 30
0.0
 10
35.0375920771
 20
24.5184593026
 30
0.0
 10
35.0382593067
 20
24.555560428
 30
0.0
 10
35.0396766463
 20
24.6204785841
 30
0.0
 10
35.0401101459
 20
24.6946881377
 30
0.0
 10
35.0393835995
 20
24.7781694067
 30
0.0
 10
35.0406997271
 20
24.8616484446
 30
0.0
 10
35.0419426932
 20
24.9172927732
 30
0.0
 10
35.0422397053
 20
24.9451209978
 30
0.0
  0
LINE
  5
27C
100
AcDbEntity
  8
0
100
AcDbLine
 62
7
  6
BYLAYER
 10
34.9112305232
 20
25.0913864186
 11
34.7980370449
 21
12.132728607
  0
LINE
  5
27D
100
AcDbEntity
  8
0
100
AcDbLine
 62
7
  6
BYLAYER
 10
4.5335668092
 20
12.1325055901
 11
4.4203713866
 21
25.0913864188
  0
SPLINE
  5
27E
100
AcDbEntity
  8
0
100
AcDbSpline
 62
7
  6
BYLAYER
 70
0
 71
3
 72
11
 73
7
 74
0
 42
0.0000001
 43
0.0000001
 44
0.0000000001
 40
0.0
 40
0.0
 40
0.0
 40
0.0
 40
0.2453463652
 40
0.4941347754
 40
0.7458590377
 40
1.0
 40
1.0
 40
1.0
 40
1.0
 10
4.2658169632
 20
37.6866645052
 30
0.0
 10
4.9151496955
 20
37.7692076521
 30
0.0
 10
6.2243031087
 20
37.9248135676
 30
0.0
 10
8.2039678026
 20
38.1269814369
 30
0.0
 10
10.2100641648
 20
38.298580405
 30
0.0
 10
11.5565269957
 20
38.3915472168
 30
0.0
 10
12.2333078265
 20
38.4325406025
 30
0.0
  0
SPLINE
  5
27F
100
AcDbEntity
  8
0
100
AcDbSpline
 62
7
  6
BYLAYER
 70
0
 71
3
 72
11
 73
7
 74
0
 42
0.0000001
 43
0.0000001
 44
0.0000000001
 40
0.0
 40
0.0
 40
0.0
 40
0.0
 40
0.2541493834
 40
0.5058827734
 40
0.7546647162
 40
1.0
 40
1.0
 40
1.0
 40
1.0
 10
27.0982715599
 20
38.4324972422
 30
0.0
 10
27.7750772194
 20
38.3914948258
 30
0.0
 10
29.1215989634
 20
38.2986298051
 30
0.0
 10
31.1277441719
 20
38.1271429657
 30
0.0
 10
33.1073846613
 20
37.9248626018
 30
0.0
 10
34.4164787291
 20
37.7691131115
 30
0.0
 10
35.0657849193
 20
37.6865736948
 30
0.0
  0
LINE
  5
280
100
AcDbEntity
  8
0
100
AcDbLine
 62
7
  6
BYLAYER
 10
5.0731621531
 20
37.1325054237
 11
5.2952211495
 21
12.1325054237
  0
LINE
  5
281
100
AcDbEntity
  8
0
100
AcDbLine
 62
7
  6
BYLAYER
 10
34.036380733
 20
12.1325054237
 11
34.2584397294
 21
37.1325054237
  0
ENDSEC
  0
SECTION
  2
OBJECTS
  0
DICTIONARY
  5
C
100
AcDbDictionary
280
0
281
1
  3
ACAD_GROUP
350
D
  3
ACAD_MLINESTYLE
350
17
  3
ACAD_LAYOUT
350
1A
  3
ACAD_PLOTSETTINGS
350
19
  3
ACAD_PLOTSTYLENAME
350
E
  0
DICTIONARY
  5
D
102
{ACAD_REACTORS
330
C
102
}
100
AcDbDictionary
280
0
281
1
  0
ACDBDICTIONARYWDFLT
  5
E
102
{ACAD_REACTORS
330
C
102
}
100
AcDbDictionary
281
1
  3
Normal
350
F
100
AcDbDictionaryWithDefault
340
F
  0
DICTIONARY
  5
17
102
{ACAD_REACTORS
330
C
102
}
100
AcDbDictionary
280
0
281
1
  3
Standard
350
18
  0
DICTIONARY
  5
19
102
{ACAD_REACTORS
330
C
102
}
100
AcDbDictionary
281
1
  0
DICTIONARY
  5
1A
102
{ACAD_REACTORS
330
C
102
}
100
AcDbDictionary
281
1
  3
Model
350
282
  3
Layout1
350
283
  0
ACDBPLACEHOLDER
  5
F
102
{ACAD_REACTORS
330
E
102
}
  0
MLINESTYLE
  5
18
102
{ACAD_REACTORS
330
17
102
}
100
AcDbMlineStyle
  2
STANDARD
 70
0
  3

 62
256
 51
90.0
 52
90.0
 71
2
 49
0.5
 62
256
  6
BYLAYER
 49
-0.5
 62
256
  6
BYLAYER
  0
LAYOUT
  5
282
102
{ACAD_REACTORS
330
1A
102
}
100
AcDbPlotSettings
  1

  2
none_device
  4

  6

 40
0.0
 41
0.0
 42
0.0
 43
0.0
 44
210.0
 45
297.0
 46
0.0
 47
0.0
 48
0.0
 49
0.0
140
0.0
141
0.0
142
1.0
143
1.0
 70
1024
 72
1
 73
0
 74
0
  7

 75
0
147
1.0
148
0.0
149
0.0
100
AcDbLayout
  1
Model
 70
0
 71
0
 10
0.0
 20
0.0
 11
210.0
 21
297.0
 12
0.0
 22
0.0
 32
0.0
 14
0.0
 24
0.0
 34
0.0
 15
0.0
 25
0.0
 35
0.0
146
0.0
 13
0.0
 23
0.0
 33
0.0
 16
1.0
 26
0.0
 36
0.0
 17
0.0
 27
1.0
 37
0.0
 76
0
330
210
345
0
346
0
  0
LAYOUT
  5
283
102
{ACAD_REACTORS
330
1A
102
}
100
AcDbPlotSettings
  1

  2
none_device
  4

  6

 40
0.0
 41
0.0
 42
0.0
 43
0.0
 44
210.0
 45
297.0
 46
0.0
 47
0.0
 48
0.0
 49
0.0
140
0.0
141
0.0
142
1.0
143
1.0
 70
0
 72
1
 73
0
 74
0
  7

 75
0
147
1.0
148
0.0
149
0.0
100
AcDbLayout
  1
Layout1
 70
0
 71
1
 10
0.0
 20
0.0
 11
210.0
 21
297.0
 12
0.0
 22
0.0
 32
0.0
 14
0.0
 24
0.0
 34
0.0
 15
0.0
 25
0.0
 35
0.0
146
0.0
 13
0.0
 23
0.0
 33
0.0
 16
1.0
 26
0.0
 36
0.0
 17
0.0
 27
1.0
 37
0.0
 76
0
330
211
345
0
346
0
  0
ENDSEC
  0
EOF
