999
DXF file: C:\Users\sesa63760\Dev\_Creo\CAD\MCADID0004747_3D-CAD\drw0001_5.dxf
999
Pro/ENGINEER 2019471 by Parametric Technology Corporation
  0
SECTION
  2
HEADER
  9
$ACADVER
  1
AC1024
  9
$DWGCODEPAGE
  3
ANSI_1252
  9
$EXTMAX
 10
36.4357510181
 20
51.5305621541
 30
0.0
  9
$EXTMIN
 10
0.0
 20
0.0
 30
0.0
  9
$LIMMIN
 10
0.0
 20
0.0
  9
$LIMMAX
 10
36.4357510181
 20
51.5305621541
  9
$VIEWCTR
 10
18.217875509
 20
25.7652810771
  9
$VIEWSIZE
 40
51.5305621541
  9
$CLAYER
  8
0
  9
$LTSCALE
 40
3.3590292367
  9
$CELTYPE
  6
BYLAYER
  9
$DIMSCALE
 40
1.0
  9
$DIMASZ
 40
0.4337589407
  9
$DIMEXO
 40
1.0
  9
$DIMDLI
 40
2.3207838363
  9
$DIMEXE
 40
1.0
  9
$DIMCEN
 40
0.5496593296
  9
$DIMLFAC
 40
1.0
  9
$DIMBLK
  1
_FILLED
  9
$DIMALT
 70
0
  9
$DIMALTF
 40
0.0393700787
  9
$DIMTXT
 40
0.607262517
  9
$DIMTOL
 70
1
  9
$DIMLIM
 70
0
  9
$DIMTFAC
 40
1.0
  9
$DIMTP
 40
0.01
  9
$DIMTM
 40
0.01
  9
$DIMGAP
 40
0.625
  9
$DIMDSEP
 70
46
  9
$AUNITS
 70
0
  9
$PDMODE
 70
3
  9
$PDSIZE
 40
0.3125
  9
$HANDSEED
  5
2D7
  9
$TILEMODE
 70
1
  9
$MEASUREMENT
 70
1
  9
$INSUNITS
 70
4
  0
ENDSEC
  0
SECTION
  2
CLASSES
  0
CLASS
  1
ACDBDICTIONARYWDFLT
  2
AcDbDictionaryWithDefault
  3
AutoCAD 2000
 90
0
 91
1
280
0
281
0
  0
CLASS
  1
ACDBPLACEHOLDER
  2
AcDbPlaceHolder
  3
AutoCAD 2000
 90
0
 91
1
280
0
281
0
  0
CLASS
  1
LAYOUT
  2
AcDbLayout
  3
AutoCAD 2000
 90
0
 91
0
280
0
281
0
  0
ENDSEC
  0
SECTION
  2
TABLES
  0
TABLE
  2
VPORT
  5
8
100
AcDbSymbolTable
 70
2
  0
VPORT
  5
1F4
100
AcDbSymbolTableRecord
100
AcDbViewportTableRecord
  2
*ACTIVE
 70
0
 10
0.0
 20
0.0
 11
1.0
 21
1.0
 12
18.217875509
 22
25.7652810771
 13
0.0
 23
0.0
 14
1.0
 24
1.0
 15
0.0
 25
0.0
 16
0.0
 26
0.0
 36
1.0
 17
0.0
 27
0.0
 37
0.0
 40
51.5305621541
 41
0.7070707071
 42
50.0
 43
0.0
 44
0.0
 50
0.0
 51
0.0
 71
0
 72
100
 73
1
 74
1
 75
0
 76
0
 77
0
 78
0
  0
ENDTAB
  0
TABLE
  2
LTYPE
  5
5
100
AcDbSymbolTable
 70
6
  0
LTYPE
  5
14
100
AcDbSymbolTableRecord
100
AcDbLinetypeTableRecord
  2
BYBLOCK
 70
0
  3

 72
65
 73
0
 40
0.0
  0
LTYPE
  5
15
100
AcDbSymbolTableRecord
100
AcDbLinetypeTableRecord
  2
BYLAYER
 70
0
  3

 72
65
 73
0
 40
0.0
  0
LTYPE
  5
16
100
AcDbSymbolTableRecord
100
AcDbLinetypeTableRecord
  2
CONTINUOUS
 70
64
  3
Solid line
 72
65
 73
0
 40
0.0
  0
LTYPE
  5
1F5
100
AcDbSymbolTableRecord
100
AcDbLinetypeTableRecord
  2
CENTER
 70
64
  3
____ _ ____ _ ____ _ ____ _ ____ _ ____ _ ____
 72
65
 73
4
 40
0.6
 49
0.375
 74
0
 49
-0.075
 74
0
 49
0.075
 74
0
 49
-0.075
 74
0
  0
LTYPE
  5
1F6
100
AcDbSymbolTableRecord
100
AcDbLinetypeTableRecord
  2
HIDDEN
 70
64
  3
- - - - - - - - - - - - - - - - - - - -
 72
65
 73
2
 40
0.2
 49
0.1
 74
0
 49
-0.1
 74
0
  0
LTYPE
  5
1F7
100
AcDbSymbolTableRecord
100
AcDbLinetypeTableRecord
  2
PHANTOM
 70
64
  3
_____ _ _ _____ _ _ _____ _ _ _____
 72
65
 73
6
 40
0.8
 49
0.45
 74
0
 49
-0.05
 74
0
 49
0.1
 74
0
 49
-0.05
 74
0
 49
0.1
 74
0
 49
-0.05
 74
0
  0
LTYPE
  5
1F8
100
AcDbSymbolTableRecord
100
AcDbLinetypeTableRecord
  2
DOT
 70
64
  3
. . . . . . . . . . . . . . . . . . . .
 72
65
 73
2
 40
0.2
 49
0.1
 74
0
 49
-0.1
 74
0
  0
LTYPE
  5
1F9
100
AcDbSymbolTableRecord
100
AcDbLinetypeTableRecord
  2
DASHED
 70
64
  3
- - - - - - - - - - - - - - - - - - - -
 72
65
 73
2
 40
0.2
 49
0.1
 74
0
 49
-0.1
 74
0
  0
ENDTAB
  0
TABLE
  2
LAYER
  5
2
100
AcDbSymbolTable
 70
36
  0
LAYER
  5
10
100
AcDbSymbolTableRecord
100
AcDbLayerTableRecord
  2
0
 70
0
 62
7
  6
CONTINUOUS
370
-3
390
F
  0
LAYER
  5
1FA
100
AcDbSymbolTableRecord
100
AcDbLayerTableRecord
  2
DEFAULT_1
 70
0
 62
7
  6
CENTER
370
-3
390
F
  0
LAYER
  5
1FB
100
AcDbSymbolTableRecord
100
AcDbLayerTableRecord
  2
DEFAULT_2
 70
0
 62
7
  6
HIDDEN
370
-3
390
F
  0
LAYER
  5
1FC
100
AcDbSymbolTableRecord
100
AcDbLayerTableRecord
  2
DEFAULT_3
 70
0
 62
7
  6
PHANTOM
370
-3
390
F
  0
LAYER
  5
1FD
100
AcDbSymbolTableRecord
100
AcDbLayerTableRecord
  2
00_COMPONENTS
 70
0
 62
7
  6
CONTINUOUS
370
-3
390
F
  0
LAYER
  5
1FE
100
AcDbSymbolTableRecord
100
AcDbLayerTableRecord
  2
01_1_DEFAULT_DATUMS
 70
0
 62
7
  6
CONTINUOUS
370
-3
390
F
  0
LAYER
  5
1FF
100
AcDbSymbolTableRecord
100
AcDbLayerTableRecord
  2
01_PLANES
 70
0
 62
7
  6
CONTINUOUS
370
-3
390
F
  0
LAYER
  5
200
100
AcDbSymbolTableRecord
100
AcDbLayerTableRecord
  2
02_COORD_SYS
 70
0
 62
7
  6
CONTINUOUS
370
-3
390
F
  0
LAYER
  5
201
100
AcDbSymbolTableRecord
100
AcDbLayerTableRecord
  2
03_AXES
 70
0
 62
7
  6
CONTINUOUS
370
-3
390
F
  0
LAYER
  5
202
100
AcDbSymbolTableRecord
100
AcDbLayerTableRecord
  2
04_POINTS
 70
0
 62
7
  6
CONTINUOUS
370
-3
390
F
  0
LAYER
  5
203
100
AcDbSymbolTableRecord
100
AcDbLayerTableRecord
  2
05_CURVES
 70
0
 62
7
  6
CONTINUOUS
370
-3
390
F
  0
LAYER
  5
204
100
AcDbSymbolTableRecord
100
AcDbLayerTableRecord
  2
06_SURFS
 70
0
 62
7
  6
CONTINUOUS
370
-3
390
F
  0
LAYER
  5
205
100
AcDbSymbolTableRecord
100
AcDbLayerTableRecord
  2
07_COSMETICS
 70
0
 62
7
  6
CONTINUOUS
370
-3
390
F
  0
LAYER
  5
206
100
AcDbSymbolTableRecord
100
AcDbLayerTableRecord
  2
10_NOTES
 70
0
 62
7
  6
CONTINUOUS
370
-3
390
F
  0
LAYER
  5
207
100
AcDbSymbolTableRecord
100
AcDbLayerTableRecord
  2
11_NOTES_PUB
 70
0
 62
7
  6
CONTINUOUS
370
-3
390
F
  0
LAYER
  5
208
100
AcDbSymbolTableRecord
100
AcDbLayerTableRecord
  2
13_REF_GTOL
 70
0
 62
7
  6
CONTINUOUS
370
-3
390
F
  0
LAYER
  5
209
100
AcDbSymbolTableRecord
100
AcDbLayerTableRecord
  2
16_MISC
 70
0
 62
7
  6
CONTINUOUS
370
-3
390
F
  0
LAYER
  5
20A
100
AcDbSymbolTableRecord
100
AcDbLayerTableRecord
  2
17_NO_PRINT
 70
0
 62
7
  6
CONTINUOUS
370
-3
390
F
  0
LAYER
  5
20B
100
AcDbSymbolTableRecord
100
AcDbLayerTableRecord
  2
18_DATUM_CAMS_JOINTS
 70
0
 62
7
  6
CONTINUOUS
370
-3
390
F
  0
LAYER
  5
20C
100
AcDbSymbolTableRecord
100
AcDbLayerTableRecord
  2
19_DATUM_FUNCTIONAL
 70
0
 62
7
  6
CONTINUOUS
370
-3
390
F
  0
LAYER
  5
20D
100
AcDbSymbolTableRecord
100
AcDbLayerTableRecord
  2
20_DATUM_KINEMATIC_SCHEME
 70
0
 62
7
  6
CONTINUOUS
370
-3
390
F
  0
ENDTAB
  0
TABLE
  2
STYLE
  5
3
100
AcDbSymbolTable
 70
1
  0
STYLE
  5
11
100
AcDbSymbolTableRecord
100
AcDbTextStyleTableRecord
  2
STANDARD
 70
0
 40
0.0
 41
1.0
 50
0.0
 71
0
 42
0.2
  3
ARIAL.TTF
  4

  0
STYLE
  5
20E
100
AcDbSymbolTableRecord
100
AcDbTextStyleTableRecord
  2
TEXTSTYLE_1
 70
0
 40
0.0
 41
0.8
 50
0.0
 71
0
 42
0.2
  3
gdt
  4

  0
ENDTAB
  0
TABLE
  2
VIEW
  5
6
100
AcDbSymbolTable
 70
0
  0
ENDTAB
  0
TABLE
  2
UCS
  5
7
100
AcDbSymbolTable
 70
0
  0
ENDTAB
  0
TABLE
  2
APPID
  5
9
100
AcDbSymbolTable
 70
1
  0
APPID
  5
20F
100
AcDbSymbolTableRecord
100
AcDbRegAppTableRecord
  2
ACAD
 70
0
  0
ENDTAB
  0
TABLE
  2
BLOCK_RECORD
  5
1
100
AcDbSymbolTable
 70
0
  0
BLOCK_RECORD
  5
210
100
AcDbSymbolTableRecord
100
AcDbBlockTableRecord
  2
*Model_Space
  0
BLOCK_RECORD
  5
211
100
AcDbSymbolTableRecord
100
AcDbBlockTableRecord
  2
*Paper_Space
  0
BLOCK_RECORD
  5
212
100
AcDbSymbolTableRecord
100
AcDbBlockTableRecord
  2
_FILLED
  0
ENDTAB
  0
TABLE
  2
DIMSTYLE
  5
A
100
AcDbSymbolTable
 70
1
100
AcDbDimStyleTable
 71
0
  0
DIMSTYLE
105
213
100
AcDbSymbolTableRecord
100
AcDbDimStyleTableRecord
  2
STANDARD
 70
0
  3

  4

 40
1.0
 41
0.4337589407
 42
1.0
 43
0.38
 44
1.0
 45
0.0
 46
0.0
 47
0.01
 48
0.01
140
0.607262517
141
0.09
142
0.0
143
25.4
144
1.0
145
0.0
146
1.0
147
0.625
 71
1
 72
0
 73
0
 74
0
 75
0
 76
0
 77
1
 78
8
 79
2
170
0
171
1
172
0
173
0
174
0
175
0
176
0
177
0
178
0
270
2
179
2
271
2
272
2
273
2
274
2
275
0
280
0
281
0
282
0
283
1
284
8
285
0
286
0
287
3
288
0
340
11
278
46
341
212
342
212
343
212
344
212
  0
ENDTAB
  0
ENDSEC
  0
SECTION
  2
BLOCKS
  0
BLOCK
  5
20
100
AcDbEntity
  8
0
100
AcDbBlockBegin
  2
*Model_Space
 70
0
 10
0.0
 20
0.0
 30
0.0
  3
*Model_Space
  1

  0
ENDBLK
  5
21
100
AcDbEntity
  8
0
100
AcDbBlockEnd
  0
BLOCK
  5
1C
100
AcDbEntity
  8
0
100
AcDbBlockBegin
  2
*Paper_Space
 70
0
 10
0.0
 20
0.0
 30
0.0
  3
*Paper_Space
  1

  0
ENDBLK
  5
1D
100
AcDbEntity
  8
0
100
AcDbBlockEnd
  0
BLOCK
  5
214
100
AcDbEntity
  8
0
100
AcDbBlockBegin
  2
_FILLED
 70
64
 10
0.0
 20
0.0
  3
_FILLED
  1

  0
SOLID
  5
215
100
AcDbEntity
  8
0
  6
BYBLOCK
 62
0
100
AcDbTrace
 10
0.0
 20
0.0
 11
-1.0
 21
0.25
 12
-1.0
 22
-0.25
 13
-1.0
 23
-0.25
  0
ENDBLK
  5
216
100
AcDbEntity
  8
0
  6
BYBLOCK
 62
0
100
AcDbBlockEnd
  0
ENDSEC
  0
SECTION
  2
ENTITIES
  0
LINE
  5
217
100
AcDbEntity
  8
0
100
AcDbLine
 62
7
  6
BYLAYER
 10
13.0225579117
 20
4.1943480823
 11
24.7223595622
 21
4.1943480823
  0
LINE
  5
218
100
AcDbEntity
  8
0
100
AcDbLine
 62
7
  6
BYLAYER
 10
25.222458737
 20
4.6943480823
 11
12.522458737
 21
4.6943480823
  0
LINE
  5
219
100
AcDbEntity
  8
0
100
AcDbLine
 62
7
  6
BYLAYER
 10
12.5224654786
 20
6.6943480823
 11
25.2224519954
 21
6.6943480823
  0
LINE
  5
21A
100
AcDbEntity
  8
0
100
AcDbLine
 62
7
  6
BYLAYER
 10
24.472458737
 20
6.9943480823
 11
13.272458737
 21
6.9943480823
  0
LINE
  5
21B
100
AcDbEntity
  8
0
100
AcDbLine
 62
7
  6
BYLAYER
 10
25.2224519954
 20
7.8943480823
 11
12.5224654786
 21
7.8943480823
  0
LINE
  5
21C
100
AcDbEntity
  8
0
100
AcDbLine
 62
7
  6
BYLAYER
 10
12.5224654786
 20
9.0443480823
 11
25.2224519954
 21
9.0443480823
  0
LINE
  5
21D
100
AcDbEntity
  8
0
100
AcDbLine
 62
7
  6
BYLAYER
 10
26.2232233635
 20
10.3843480823
 11
11.5216930869
 21
10.3843480823
  0
LINE
  5
21E
100
AcDbEntity
  8
0
100
AcDbLine
 62
7
  6
BYLAYER
 10
26.8723762437
 20
12.4943480823
 11
10.8724632973
 21
12.4943480823
  0
LINE
  5
21F
100
AcDbEntity
  8
0
100
AcDbLine
 62
7
  6
BYLAYER
 10
10.572458737
 20
30.5414280232
 11
10.572458737
 21
32.5413471955
  0
LINE
  5
220
100
AcDbEntity
  8
0
100
AcDbLine
 62
7
  6
BYLAYER
 10
10.572458737
 20
41.9624264773
 11
10.572458737
 21
43.9623456496
  0
LINE
  5
221
100
AcDbEntity
  8
0
100
AcDbLine
 62
7
  6
BYLAYER
 10
10.872458737
 20
16.9913766864
 11
10.872458737
 21
12.4943480823
  0
LINE
  5
222
100
AcDbEntity
  8
0
100
AcDbLine
 62
7
  6
BYLAYER
 10
11.172458737
 20
28.5752323739
 11
11.172458737
 21
45.4623081857
  0
LINE
  5
223
100
AcDbEntity
  8
0
100
AcDbLine
 62
7
  6
BYLAYER
 10
10.872458737
 20
16.9915705844
 11
10.8725018642
 21
16.9943480823
  0
LINE
  5
224
100
AcDbEntity
  8
0
100
AcDbLine
 62
7
  6
BYLAYER
 10
14.122458737
 20
16.9943480823
 11
23.622458737
 21
16.9943480823
  0
LINE
  5
225
100
AcDbEntity
  8
0
100
AcDbLine
 62
7
  6
BYLAYER
 10
11.372602208
 20
17.4943480823
 11
26.372458737
 21
17.4943480823
  0
LINE
  5
226
100
AcDbEntity
  8
0
100
AcDbLine
 62
7
  6
BYLAYER
 10
23.122458737
 20
17.685611998
 11
22.372458737
 21
17.685611998
  0
LINE
  5
227
100
AcDbEntity
  8
0
100
AcDbLine
 62
7
  6
BYLAYER
 10
15.372458737
 20
17.685611998
 11
14.622458737
 21
17.685611998
  0
LINE
  5
228
100
AcDbEntity
  8
0
100
AcDbLine
 62
7
  6
BYLAYER
 10
22.422458737
 20
17.9943480823
 11
22.372458737
 21
17.9943480823
  0
LINE
  5
229
100
AcDbEntity
  8
0
100
AcDbLine
 62
7
  6
BYLAYER
 10
15.372458737
 20
17.9943480823
 11
15.322458737
 21
17.9943480823
  0
LINE
  5
22A
100
AcDbEntity
  8
0
100
AcDbLine
 62
7
  6
BYLAYER
 10
11.521545723
 20
12.4943480823
 11
11.521545723
 21
10.3843480823
  0
LINE
  5
22B
100
AcDbEntity
  8
0
100
AcDbLine
 62
7
  6
BYLAYER
 10
11.5229092503
 20
12.4943480823
 11
11.5229092503
 21
10.3843480823
  0
LINE
  5
22C
100
AcDbEntity
  8
0
100
AcDbLine
 62
7
  6
BYLAYER
 10
11.5500752295
 20
12.4943480823
 11
11.5500752295
 21
10.3843480823
  0
LINE
  5
22D
100
AcDbEntity
  8
0
100
AcDbLine
 62
7
  6
BYLAYER
 10
11.6878363266
 20
10.3843480823
 11
11.6878363266
 21
12.4943480823
  0
LINE
  5
22E
100
AcDbEntity
  8
0
100
AcDbLine
 62
7
  6
BYLAYER
 10
11.9824368639
 20
12.4943480823
 11
11.9824368639
 21
10.3843480823
  0
LINE
  5
22F
100
AcDbEntity
  8
0
100
AcDbLine
 62
7
  6
BYLAYER
 10
11.996602923
 20
12.4943480823
 11
11.996602923
 21
10.3843480823
  0
LINE
  5
230
100
AcDbEntity
  8
0
100
AcDbLine
 62
7
  6
BYLAYER
 10
12.076249544
 20
12.4943480823
 11
12.076249544
 21
10.3843480823
  0
LINE
  5
231
100
AcDbEntity
  8
0
100
AcDbLine
 62
7
  6
BYLAYER
 10
12.122458737
 20
21.4943480823
 11
12.122458737
 21
17.4943480823
  0
LINE
  5
232
100
AcDbEntity
  8
0
100
AcDbLine
 62
7
  6
BYLAYER
 10
12.172458737
 20
45.4623229207
 11
12.172458737
 21
37.6392541038
  0
LINE
  5
233
100
AcDbEntity
  8
0
100
AcDbLine
 62
7
  6
BYLAYER
 10
12.172458737
 20
29.7388575071
 11
12.172458737
 21
28.5752323979
  0
LINE
  5
234
100
AcDbEntity
  8
0
100
AcDbLine
 62
7
  6
BYLAYER
 10
12.251206996
 20
10.3843480823
 11
12.251206996
 21
12.4943480823
  0
LINE
  5
235
100
AcDbEntity
  8
0
100
AcDbLine
 62
7
  6
BYLAYER
 10
12.372458737
 20
40.4624057023
 11
12.372458737
 21
45.4623664245
  0
LINE
  5
236
100
AcDbEntity
  8
0
100
AcDbLine
 62
7
  6
BYLAYER
 10
12.422458737
 20
17.4943480823
 11
12.422458737
 21
37.6494910657
  0
LINE
  5
237
100
AcDbEntity
  8
0
100
AcDbLine
 62
7
  6
BYLAYER
 10
12.522458737
 20
4.6943480823
 11
12.522458737
 21
6.6943480823
  0
LINE
  5
238
100
AcDbEntity
  8
0
100
AcDbLine
 62
7
  6
BYLAYER
 10
12.522458737
 20
7.8943480823
 11
12.522458737
 21
9.0443480823
  0
LINE
  5
239
100
AcDbEntity
  8
0
100
AcDbLine
 62
7
  6
BYLAYER
 10
13.922458737
 20
21.0771908407
 11
14.122458737
 21
20.9943480823
  0
LINE
  5
23A
100
AcDbEntity
  8
0
100
AcDbLine
 62
7
  6
BYLAYER
 10
12.806561973
 20
12.4943480823
 11
12.806561973
 21
10.3843480823
  0
LINE
  5
23B
100
AcDbEntity
  8
0
100
AcDbLine
 62
7
  6
BYLAYER
 10
12.872458737
 20
38.4623878771
 11
12.872458737
 21
47.4623842497
  0
LINE
  5
23C
100
AcDbEntity
  8
0
100
AcDbLine
 62
7
  6
BYLAYER
 10
12.9739140561
 20
10.3843480823
 11
12.9739140561
 21
12.4943480823
  0
LINE
  5
23D
100
AcDbEntity
  8
0
100
AcDbLine
 62
7
  6
BYLAYER
 10
13.272458737
 20
7.8943480823
 11
13.272458737
 21
6.9943480823
  0
LINE
  5
23E
100
AcDbEntity
  8
0
100
AcDbLine
 62
7
  6
BYLAYER
 10
13.372458737
 20
9.0443480823
 11
13.372458737
 21
10.3843480823
  0
LINE
  5
23F
100
AcDbEntity
  8
0
100
AcDbLine
 62
7
  6
BYLAYER
 10
13.922458737
 20
17.4943480823
 11
13.922458737
 21
30.2427722582
  0
LINE
  5
240
100
AcDbEntity
  8
0
100
AcDbLine
 62
7
  6
BYLAYER
 10
14.122458737
 20
20.9943480823
 11
14.122458737
 21
16.3168047228
  0
LINE
  5
241
100
AcDbEntity
  8
0
100
AcDbLine
 62
7
  6
BYLAYER
 10
26.872458737
 20
41.9123860634
 11
26.672458737
 21
41.7123860634
  0
LINE
  5
242
100
AcDbEntity
  8
0
100
AcDbLine
 62
7
  6
BYLAYER
 10
25.322458737
 20
20.61366293
 11
23.822458737
 21
20.61366293
  0
LINE
  5
243
100
AcDbEntity
  8
0
100
AcDbLine
 62
7
  6
BYLAYER
 10
12.422458737
 20
20.61366293
 11
13.922458737
 21
20.61366293
  0
LINE
  5
244
100
AcDbEntity
  8
0
100
AcDbLine
 62
7
  6
BYLAYER
 10
14.422458737
 20
21.9506343296
 11
14.422458737
 21
24.0841796951
  0
LINE
  5
245
100
AcDbEntity
  8
0
100
AcDbLine
 62
7
  6
BYLAYER
 10
14.422458737
 20
27.7003582807
 11
14.422458737
 21
29.8292619718
  0
LINE
  5
246
100
AcDbEntity
  8
0
100
AcDbLine
 62
7
  6
BYLAYER
 10
14.622458737
 20
17.685611998
 11
14.622458737
 21
21.4943480823
  0
LINE
  5
247
100
AcDbEntity
  8
0
100
AcDbLine
 62
7
  6
BYLAYER
 10
15.322458737
 20
21.4943480823
 11
15.322458737
 21
17.9943480823
  0
LINE
  5
248
100
AcDbEntity
  8
0
100
AcDbLine
 62
7
  6
BYLAYER
 10
15.372458737
 20
22.1563315834
 11
15.372458737
 21
17.4943480823
  0
LINE
  5
249
100
AcDbEntity
  8
0
100
AcDbLine
 62
7
  6
BYLAYER
 10
15.5391254036
 20
22.3535342429
 11
17.872458737
 21
22.5493480823
  0
LINE
  5
24A
100
AcDbEntity
  8
0
100
AcDbLine
 62
7
  6
BYLAYER
 10
25.622458737
 20
21.4943480823
 11
25.322458737
 21
21.4943480823
  0
LINE
  5
24B
100
AcDbEntity
  8
0
100
AcDbLine
 62
7
  6
BYLAYER
 10
23.822458737
 20
21.4943480823
 11
22.372458737
 21
21.4943480823
  0
LINE
  5
24C
100
AcDbEntity
  8
0
100
AcDbLine
 62
7
  6
BYLAYER
 10
15.372458737
 20
21.4943480823
 11
13.922458737
 21
21.4943480823
  0
LINE
  5
24D
100
AcDbEntity
  8
0
100
AcDbLine
 62
7
  6
BYLAYER
 10
12.422458737
 20
21.4943480823
 11
12.122458737
 21
21.4943480823
  0
LINE
  5
24E
100
AcDbEntity
  8
0
100
AcDbLine
 62
7
  6
BYLAYER
 10
23.322458737
 20
21.9506343296
 11
22.372458737
 21
21.9506343296
  0
LINE
  5
24F
100
AcDbEntity
  8
0
100
AcDbLine
 62
7
  6
BYLAYER
 10
15.372458737
 20
21.9506343296
 11
14.422458737
 21
21.9506343296
  0
LINE
  5
250
100
AcDbEntity
  8
0
100
AcDbLine
 62
7
  6
BYLAYER
 10
15.372458737
 20
22.1563315853
 11
22.372458737
 21
22.1563315853
  0
LINE
  5
251
100
AcDbEntity
  8
0
100
AcDbLine
 62
7
  6
BYLAYER
 10
15.5391247026
 20
22.3535341244
 11
22.2057927713
 21
22.3535341244
  0
LINE
  5
252
100
AcDbEntity
  8
0
100
AcDbLine
 62
7
  6
BYLAYER
 10
20.2081024131
 20
22.5211807922
 11
21.122458737
 21
22.5211807922
  0
LINE
  5
253
100
AcDbEntity
  8
0
100
AcDbLine
 62
7
  6
BYLAYER
 10
17.8724981161
 20
22.5493480823
 11
19.8724193578
 21
22.5493480823
  0
LINE
  5
254
100
AcDbEntity
  8
0
100
AcDbLine
 62
7
  6
BYLAYER
 10
22.2057920703
 20
22.3535342429
 11
19.872458737
 21
22.5493480823
  0
LINE
  5
255
100
AcDbEntity
  8
0
100
AcDbLine
 62
7
  6
BYLAYER
 10
16.622458737
 20
22.485885837
 11
16.622458737
 21
27.7003582807
  0
LINE
  5
256
100
AcDbEntity
  8
0
100
AcDbLine
 62
7
  6
BYLAYER
 10
14.422458737
 20
24.0841796951
 11
16.622458737
 21
24.0841796951
  0
LINE
  5
257
100
AcDbEntity
  8
0
100
AcDbLine
 62
7
  6
BYLAYER
 10
21.122458737
 20
24.0841796951
 11
23.322458737
 21
24.0841796951
  0
LINE
  5
258
100
AcDbEntity
  8
0
100
AcDbLine
 62
7
  6
BYLAYER
 10
23.122458737
 20
17.4943480823
 11
23.0734414088
 21
17.5433654105
  0
LINE
  5
259
100
AcDbEntity
  8
0
100
AcDbLine
 62
7
  6
BYLAYER
 10
13.922458737
 20
21.218612151
 11
14.1981946683
 21
21.4943480823
  0
LINE
  5
25A
100
AcDbEntity
  8
0
100
AcDbLine
 62
7
  6
BYLAYER
 10
14.122458737
 20
20.9943480823
 11
14.622458737
 21
21.4943480823
  0
LINE
  5
25B
100
AcDbEntity
  8
0
100
AcDbLine
 62
7
  6
BYLAYER
 10
21.122458737
 20
24.9091970399
 11
16.622458737
 21
24.9091970399
  0
LINE
  5
25C
100
AcDbEntity
  8
0
100
AcDbLine
 62
7
  6
BYLAYER
 10
23.322458737
 20
25.4826693017
 11
21.122458737
 21
25.4826693017
  0
LINE
  5
25D
100
AcDbEntity
  8
0
100
AcDbLine
 62
7
  6
BYLAYER
 10
16.622458737
 20
25.4826693017
 11
14.422458737
 21
25.4826693017
  0
LINE
  5
25E
100
AcDbEntity
  8
0
100
AcDbLine
 62
7
  6
BYLAYER
 10
23.622458737
 20
20.9943480823
 11
23.122458737
 21
21.4943480823
  0
LINE
  5
25F
100
AcDbEntity
  8
0
100
AcDbLine
 62
7
  6
BYLAYER
 10
25.322458737
 20
26.399548667
 11
23.822458737
 21
26.399548667
  0
LINE
  5
260
100
AcDbEntity
  8
0
100
AcDbLine
 62
7
  6
BYLAYER
 10
12.422458737
 20
26.399548667
 11
13.922458737
 21
26.399548667
  0
LINE
  5
261
100
AcDbEntity
  8
0
100
AcDbLine
 62
7
  6
BYLAYER
 10
16.622458737
 20
26.9851673009
 11
21.122458737
 21
26.9851673009
  0
LINE
  5
262
100
AcDbEntity
  8
0
100
AcDbLine
 62
7
  6
BYLAYER
 10
21.122458737
 20
27.5484441479
 11
16.622458737
 21
27.5484441479
  0
LINE
  5
263
100
AcDbEntity
  8
0
100
AcDbLine
 62
7
  6
BYLAYER
 10
23.5467228057
 20
21.4943480823
 11
23.822458737
 21
21.218612151
  0
LINE
  5
264
100
AcDbEntity
  8
0
100
AcDbLine
 62
7
  6
BYLAYER
 10
21.122458737
 20
27.7003582807
 11
21.122458737
 21
22.485885837
  0
LINE
  5
265
100
AcDbEntity
  8
0
100
AcDbLine
 62
7
  6
BYLAYER
 10
26.872458737
 20
30.4913876093
 11
26.672458737
 21
30.2913876093
  0
LINE
  5
266
100
AcDbEntity
  8
0
100
AcDbLine
 62
7
  6
BYLAYER
 10
14.6714760651
 20
17.5433654105
 11
14.622458737
 21
17.4943480823
  0
LINE
  5
267
100
AcDbEntity
  8
0
100
AcDbLine
 62
7
  6
BYLAYER
 10
25.322458737
 20
27.6210721973
 11
23.822458737
 21
27.6210721973
  0
LINE
  5
268
100
AcDbEntity
  8
0
100
AcDbLine
 62
7
  6
BYLAYER
 10
12.422458737
 20
27.6210721973
 11
13.922458737
 21
27.6210721973
  0
LINE
  5
269
100
AcDbEntity
  8
0
100
AcDbLine
 62
7
  6
BYLAYER
 10
23.322458737
 20
27.7003582807
 11
21.122458737
 21
27.7003582807
  0
LINE
  5
26A
100
AcDbEntity
  8
0
100
AcDbLine
 62
7
  6
BYLAYER
 10
16.622458737
 20
27.7003582807
 11
14.422458737
 21
27.7003582807
  0
LINE
  5
26B
100
AcDbEntity
  8
0
100
AcDbLine
 62
7
  6
BYLAYER
 10
12.422458737
 20
28.3443079144
 11
13.922458737
 21
28.3443079144
  0
LINE
  5
26C
100
AcDbEntity
  8
0
100
AcDbLine
 62
7
  6
BYLAYER
 10
23.822458737
 20
28.3443079144
 11
25.322458737
 21
28.3443079144
  0
LINE
  5
26D
100
AcDbEntity
  8
0
100
AcDbLine
 62
7
  6
BYLAYER
 10
11.172458737
 20
28.5752244071
 11
12.172458737
 21
28.5752244071
  0
LINE
  5
26E
100
AcDbEntity
  8
0
100
AcDbLine
 62
7
  6
BYLAYER
 10
25.572458737
 20
28.5752244071
 11
26.572458737
 21
28.5752244071
  0
LINE
  5
26F
100
AcDbEntity
  8
0
100
AcDbLine
 62
7
  6
BYLAYER
 10
26.572458737
 20
28.7444083961
 11
25.572458737
 21
28.7444083961
  0
LINE
  5
270
100
AcDbEntity
  8
0
100
AcDbLine
 62
7
  6
BYLAYER
 10
12.172458737
 20
28.7444083961
 11
11.172458737
 21
28.7444083961
  0
LINE
  5
271
100
AcDbEntity
  8
0
100
AcDbLine
 62
7
  6
BYLAYER
 10
25.322458737
 20
28.9912800459
 11
23.822458737
 21
28.9912800459
  0
LINE
  5
272
100
AcDbEntity
  8
0
100
AcDbLine
 62
7
  6
BYLAYER
 10
13.922458737
 20
28.9912800459
 11
12.422458737
 21
28.9912800459
  0
LINE
  5
273
100
AcDbEntity
  8
0
100
AcDbLine
 62
7
  6
BYLAYER
 10
22.372458737
 20
22.1563315834
 11
22.372458737
 21
17.4943480823
  0
LINE
  5
274
100
AcDbEntity
  8
0
100
AcDbLine
 62
7
  6
BYLAYER
 10
22.422458737
 20
17.9943480823
 11
22.422458737
 21
21.4943480823
  0
LINE
  5
275
100
AcDbEntity
  8
0
100
AcDbLine
 62
7
  6
BYLAYER
 10
23.122458737
 20
21.4943480823
 11
23.122458737
 21
17.685611998
  0
LINE
  5
276
100
AcDbEntity
  8
0
100
AcDbLine
 62
7
  6
BYLAYER
 10
23.322458737
 20
29.8292619718
 11
23.322458737
 21
27.7003582807
  0
LINE
  5
277
100
AcDbEntity
  8
0
100
AcDbLine
 62
7
  6
BYLAYER
 10
23.322458737
 20
24.0841796951
 11
23.322458737
 21
21.9506343296
  0
LINE
  5
278
100
AcDbEntity
  8
0
100
AcDbLine
 62
7
  6
BYLAYER
 10
23.822458737
 20
29.8292619718
 11
13.922458737
 21
29.8292619718
  0
LINE
  5
279
100
AcDbEntity
  8
0
100
AcDbLine
 62
7
  6
BYLAYER
 10
12.422458737
 20
29.9236064504
 11
13.922458737
 21
29.9236064504
  0
LINE
  5
27A
100
AcDbEntity
  8
0
100
AcDbLine
 62
7
  6
BYLAYER
 10
23.822458737
 20
29.9236064504
 11
25.322458737
 21
29.9236064504
  0
LINE
  5
27B
100
AcDbEntity
  8
0
100
AcDbLine
 62
7
  6
BYLAYER
 10
13.922458737
 20
30.1908798303
 11
23.822458737
 21
30.1908798303
  0
LINE
  5
27C
100
AcDbEntity
  8
0
100
AcDbLine
 62
7
  6
BYLAYER
 10
25.322458737
 20
30.2427975211
 11
23.822458737
 21
30.2427975211
  0
LINE
  5
27D
100
AcDbEntity
  8
0
100
AcDbLine
 62
7
  6
BYLAYER
 10
13.922458737
 20
30.2427975211
 11
12.422458737
 21
30.2427975211
  0
LINE
  5
27E
100
AcDbEntity
  8
0
100
AcDbLine
 62
7
  6
BYLAYER
 10
26.672458737
 20
30.2913876093
 11
26.572458737
 21
30.2913876093
  0
LINE
  5
27F
100
AcDbEntity
  8
0
100
AcDbLine
 62
7
  6
BYLAYER
 10
10.572458737
 20
30.5413876093
 11
11.172458737
 21
30.5413876093
  0
LINE
  5
280
100
AcDbEntity
  8
0
100
AcDbLine
 62
7
  6
BYLAYER
 10
23.622458737
 20
16.3168047232
 11
23.622458737
 21
20.9943480823
  0
LINE
  5
281
100
AcDbEntity
  8
0
100
AcDbLine
 62
7
  6
BYLAYER
 10
23.822458737
 20
17.4943480823
 11
23.822458737
 21
30.2427720897
  0
LINE
  5
282
100
AcDbEntity
  8
0
100
AcDbLine
 62
7
  6
BYLAYER
 10
24.372458737
 20
9.0443480823
 11
24.372458737
 21
10.3843480823
  0
LINE
  5
283
100
AcDbEntity
  8
0
100
AcDbLine
 62
7
  6
BYLAYER
 10
24.472458737
 20
7.8943480823
 11
24.472458737
 21
6.9943480823
  0
LINE
  5
284
100
AcDbEntity
  8
0
100
AcDbLine
 62
7
  6
BYLAYER
 10
24.7710034178
 20
12.4943480823
 11
24.7710034178
 21
10.3843480823
  0
LINE
  5
285
100
AcDbEntity
  8
0
100
AcDbLine
 62
7
  6
BYLAYER
 10
24.872458737
 20
47.4623846049
 11
24.872458737
 21
38.462387522
  0
LINE
  5
286
100
AcDbEntity
  8
0
100
AcDbLine
 62
7
  6
BYLAYER
 10
24.938355501
 20
10.3843480823
 11
24.938355501
 21
12.4943480823
  0
LINE
  5
287
100
AcDbEntity
  8
0
100
AcDbLine
 62
7
  6
BYLAYER
 10
23.822458737
 20
21.0771907488
 11
23.622458737
 21
20.9943480823
  0
LINE
  5
288
100
AcDbEntity
  8
0
100
AcDbLine
 62
7
  6
BYLAYER
 10
25.222458737
 20
4.6943480823
 11
25.222458737
 21
6.6943480823
  0
LINE
  5
289
100
AcDbEntity
  8
0
100
AcDbLine
 62
7
  6
BYLAYER
 10
25.222458737
 20
7.8943480823
 11
25.222458737
 21
9.0443480823
  0
LINE
  5
28A
100
AcDbEntity
  8
0
100
AcDbLine
 62
7
  6
BYLAYER
 10
25.322458737
 20
17.4943480823
 11
25.322458737
 21
37.6494910657
  0
LINE
  5
28B
100
AcDbEntity
  8
0
100
AcDbLine
 62
7
  6
BYLAYER
 10
25.372458737
 20
45.4623634067
 11
25.372458737
 21
40.4624087201
  0
LINE
  5
28C
100
AcDbEntity
  8
0
100
AcDbLine
 62
7
  6
BYLAYER
 10
25.4937104779
 20
12.4943480823
 11
25.4937104779
 21
10.3843480823
  0
LINE
  5
28D
100
AcDbEntity
  8
0
100
AcDbLine
 62
7
  6
BYLAYER
 10
25.572458737
 20
28.5752323739
 11
25.572458737
 21
29.7388575071
  0
LINE
  5
28E
100
AcDbEntity
  8
0
100
AcDbLine
 62
7
  6
BYLAYER
 10
25.572458737
 20
37.6392541038
 11
25.572458737
 21
45.4623081857
  0
LINE
  5
28F
100
AcDbEntity
  8
0
100
AcDbLine
 62
7
  6
BYLAYER
 10
25.622458737
 20
17.4943480823
 11
25.622458737
 21
21.4943480823
  0
LINE
  5
290
100
AcDbEntity
  8
0
100
AcDbLine
 62
7
  6
BYLAYER
 10
25.66866793
 20
12.4943480823
 11
25.66866793
 21
10.3843480823
  0
LINE
  5
291
100
AcDbEntity
  8
0
100
AcDbLine
 62
7
  6
BYLAYER
 10
25.748314551
 20
12.4943480823
 11
25.748314551
 21
10.3843480823
  0
LINE
  5
292
100
AcDbEntity
  8
0
100
AcDbLine
 62
7
  6
BYLAYER
 10
25.7624806101
 20
12.4943480823
 11
25.7624806101
 21
10.3843480823
  0
LINE
  5
293
100
AcDbEntity
  8
0
100
AcDbLine
 62
7
  6
BYLAYER
 10
26.0570811474
 20
12.4943480823
 11
26.0570811474
 21
10.3843480823
  0
LINE
  5
294
100
AcDbEntity
  8
0
100
AcDbLine
 62
7
  6
BYLAYER
 10
26.1948422444
 20
12.4943480823
 11
26.1948422444
 21
10.3843480823
  0
LINE
  5
295
100
AcDbEntity
  8
0
100
AcDbLine
 62
7
  6
BYLAYER
 10
26.2220082236
 20
12.4943480823
 11
26.2220082236
 21
10.3843480823
  0
LINE
  5
296
100
AcDbEntity
  8
0
100
AcDbLine
 62
7
  6
BYLAYER
 10
26.223371751
 20
12.4943480823
 11
26.223371751
 21
10.3843480823
  0
LINE
  5
297
100
AcDbEntity
  8
0
100
AcDbLine
 62
7
  6
BYLAYER
 10
26.572458737
 20
28.5752323979
 11
26.572458737
 21
45.4623229207
  0
LINE
  5
298
100
AcDbEntity
  8
0
100
AcDbLine
 62
7
  6
BYLAYER
 10
10.572458737
 20
32.5413876093
 11
11.172458737
 21
32.5413876093
  0
LINE
  5
299
100
AcDbEntity
  8
0
100
AcDbLine
 62
7
  6
BYLAYER
 10
26.672458737
 20
32.7913876093
 11
26.572458737
 21
32.7913876093
  0
LINE
  5
29A
100
AcDbEntity
  8
0
100
AcDbLine
 62
7
  6
BYLAYER
 10
26.8724145514
 20
16.9943480823
 11
26.872458737
 21
16.9915367524
  0
LINE
  5
29B
100
AcDbEntity
  8
0
100
AcDbLine
 62
7
  6
BYLAYER
 10
26.672458737
 20
44.2123860634
 11
26.672458737
 21
41.7123860634
  0
LINE
  5
29C
100
AcDbEntity
  8
0
100
AcDbLine
 62
7
  6
BYLAYER
 10
26.672458737
 20
32.7913876093
 11
26.672458737
 21
30.2913876093
  0
LINE
  5
29D
100
AcDbEntity
  8
0
100
AcDbLine
 62
7
  6
BYLAYER
 10
26.872458737
 20
44.0123517898
 11
26.872458737
 21
41.912420337
  0
LINE
  5
29E
100
AcDbEntity
  8
0
100
AcDbLine
 62
7
  6
BYLAYER
 10
26.872458737
 20
32.5913533357
 11
26.872458737
 21
30.4914218829
  0
LINE
  5
29F
100
AcDbEntity
  8
0
100
AcDbLine
 62
7
  6
BYLAYER
 10
26.872458737
 20
16.9913488437
 11
26.872458737
 21
12.4943480823
  0
LINE
  5
2A0
100
AcDbEntity
  8
0
100
AcDbLine
 62
7
  6
BYLAYER
 10
26.872458737
 20
32.5913876093
 11
26.672458737
 21
32.7913876093
  0
LINE
  5
2A1
100
AcDbEntity
  8
0
100
AcDbLine
 62
7
  6
BYLAYER
 10
12.422458737
 20
37.6494910657
 11
25.322458737
 21
37.6494910657
  0
LINE
  5
2A2
100
AcDbEntity
  8
0
100
AcDbLine
 62
7
  6
BYLAYER
 10
12.872458737
 20
38.4623860634
 11
24.872458737
 21
38.4623860634
  0
LINE
  5
2A3
100
AcDbEntity
  8
0
100
AcDbLine
 62
7
  6
BYLAYER
 10
25.372458737
 20
40.4623860634
 11
24.872458737
 21
40.4623860634
  0
LINE
  5
2A4
100
AcDbEntity
  8
0
100
AcDbLine
 62
7
  6
BYLAYER
 10
12.372458737
 20
40.4623860634
 11
12.872458737
 21
40.4623860634
  0
LINE
  5
2A5
100
AcDbEntity
  8
0
100
AcDbLine
 62
7
  6
BYLAYER
 10
26.672458737
 20
41.7123860634
 11
26.572458737
 21
41.7123860634
  0
LINE
  5
2A6
100
AcDbEntity
  8
0
100
AcDbLine
 62
7
  6
BYLAYER
 10
25.572458737
 20
41.7123860634
 11
25.372458737
 21
41.7123860634
  0
LINE
  5
2A7
100
AcDbEntity
  8
0
100
AcDbLine
 62
7
  6
BYLAYER
 10
12.372458737
 20
41.7123860634
 11
12.172458737
 21
41.7123860634
  0
LINE
  5
2A8
100
AcDbEntity
  8
0
100
AcDbLine
 62
7
  6
BYLAYER
 10
10.572458737
 20
41.9623860634
 11
11.172458737
 21
41.9623860634
  0
LINE
  5
2A9
100
AcDbEntity
  8
0
100
AcDbLine
 62
7
  6
BYLAYER
 10
11.172458737
 20
43.8664307098
 11
12.172458737
 21
43.8664307098
  0
LINE
  5
2AA
100
AcDbEntity
  8
0
100
AcDbLine
 62
7
  6
BYLAYER
 10
25.572458737
 20
43.8664307098
 11
26.572458737
 21
43.8664307098
  0
LINE
  5
2AB
100
AcDbEntity
  8
0
100
AcDbLine
 62
7
  6
BYLAYER
 10
10.572458737
 20
43.9623860634
 11
11.172458737
 21
43.9623860634
  0
LINE
  5
2AC
100
AcDbEntity
  8
0
100
AcDbLine
 62
7
  6
BYLAYER
 10
26.672458737
 20
44.2123860634
 11
26.572458737
 21
44.2123860634
  0
LINE
  5
2AD
100
AcDbEntity
  8
0
100
AcDbLine
 62
7
  6
BYLAYER
 10
25.572458737
 20
44.2123860634
 11
25.372458737
 21
44.2123860634
  0
LINE
  5
2AE
100
AcDbEntity
  8
0
100
AcDbLine
 62
7
  6
BYLAYER
 10
12.372458737
 20
44.2123860634
 11
12.172458737
 21
44.2123860634
  0
LINE
  5
2AF
100
AcDbEntity
  8
0
100
AcDbLine
 62
7
  6
BYLAYER
 10
26.872458737
 20
44.0123860634
 11
26.672458737
 21
44.2123860634
  0
LINE
  5
2B0
100
AcDbEntity
  8
0
100
AcDbLine
 62
7
  6
BYLAYER
 10
25.372458737
 20
45.4623860634
 11
24.872458737
 21
45.4623860634
  0
LINE
  5
2B1
100
AcDbEntity
  8
0
100
AcDbLine
 62
7
  6
BYLAYER
 10
11.172458737
 20
45.4623860634
 11
12.172458737
 21
45.4623860634
  0
LINE
  5
2B2
100
AcDbEntity
  8
0
100
AcDbLine
 62
7
  6
BYLAYER
 10
12.372458737
 20
45.4623860634
 11
12.872458737
 21
45.4623860634
  0
LINE
  5
2B3
100
AcDbEntity
  8
0
100
AcDbLine
 62
7
  6
BYLAYER
 10
25.572458737
 20
45.4623860634
 11
26.572458737
 21
45.4623860634
  0
LINE
  5
2B4
100
AcDbEntity
  8
0
100
AcDbLine
 62
7
  6
BYLAYER
 10
12.872458737
 20
47.4623860634
 11
24.872458737
 21
47.4623860634
  0
ARC
  5
2B5
100
AcDbEntity
  8
0
100
AcDbCircle
 62
7
  6
BYLAYER
 10
14.4226902185
 20
23.3399959643
 40
2.1426733499
100
AcDbArc
 50
90.0061898904
 51
103.5854134713
  0
ARC
  5
2B6
100
AcDbEntity
  8
0
100
AcDbCircle
 62
7
  6
BYLAYER
 10
23.3228391135
 20
23.3451303602
 40
2.1375389754
100
AcDbArc
 50
76.3982008138
 51
90.0101958245
  0
ARC
  5
2B7
100
AcDbEntity
  8
0
100
AcDbCircle
 62
7
  6
BYLAYER
 10
24.722458737
 20
4.6943480823
 40
0.5
100
AcDbArc
 50
270.0
 51
360.0
  0
ARC
  5
2B8
100
AcDbEntity
  8
0
100
AcDbCircle
 62
7
  6
BYLAYER
 10
13.022458737
 20
4.6943480823
 40
0.5
100
AcDbArc
 50
180.0
 51
270.0
  0
ARC
  5
2B9
100
AcDbEntity
  8
0
100
AcDbCircle
 62
7
  6
BYLAYER
 10
15.822458737
 20
17.9943480823
 40
0.5
100
AcDbArc
 50
180.0
 51
205.8520820509
  0
ARC
  5
2BA
100
AcDbEntity
  8
0
100
AcDbCircle
 62
7
  6
BYLAYER
 10
21.922458737
 20
17.9943480823
 40
0.5
100
AcDbArc
 50
334.1477668907
 51
360.0
  0
ARC
  5
2BB
100
AcDbEntity
  8
0
100
AcDbCircle
 62
7
  6
BYLAYER
 10
24.772458737
 20
6.9943480823
 40
0.3
100
AcDbArc
 50
180.0
 51
269.9998975918
  0
ARC
  5
2BC
100
AcDbEntity
  8
0
100
AcDbCircle
 62
7
  6
BYLAYER
 10
12.972458737
 20
6.9943480823
 40
0.3
100
AcDbArc
 50
270.0001024082
 51
360.0
  0
ARC
  5
2BD
100
AcDbEntity
  8
0
100
AcDbCircle
 62
7
  6
BYLAYER
 10
22.172458737
 20
22.1563315834
 40
0.2
100
AcDbArc
 50
0.0
 51
80.4059317732
  0
ARC
  5
2BE
100
AcDbEntity
  8
0
100
AcDbCircle
 62
7
  6
BYLAYER
 10
15.572458737
 20
22.1563315834
 40
0.2
100
AcDbArc
 50
99.5940682268
 51
180.0
  0
LINE
  5
2BF
100
AcDbEntity
  8
0
100
AcDbLine
 62
7
  6
BYLAYER
 10
10.8725018655
 20
16.9943480823
 11
11.372458737
 21
17.4943480823
  0
LINE
  5
2C0
100
AcDbEntity
  8
0
100
AcDbLine
 62
7
  6
BYLAYER
 10
26.8724156085
 20
16.9943480823
 11
26.372458737
 21
17.4943480823
  0
SPLINE
  5
2C1
100
AcDbEntity
  8
0
100
AcDbSpline
 62
7
  6
BYLAYER
 70
0
 71
3
 72
25
 73
21
 74
0
 42
0.0000001
 43
0.0000001
 44
0.0000000001
 40
0.0
 40
0.0
 40
0.0
 40
0.0
 40
0.2139449859
 40
0.4054247752
 40
0.4920107309
 40
0.5721746312
 40
0.6457079236
 40
0.7124241159
 40
0.7721597498
 40
0.8248110472
 40
0.8703168696
 40
0.9086958771
 40
0.9252625976
 40
0.940124198
 40
0.9533384494
 40
0.9649950878
 40
0.9752322103
 40
0.9842569784
 40
0.9923736563
 40
1.0
 40
1.0
 40
1.0
 40
1.0
 10
23.6224610865
 20
16.884030223
 30
0.0
 10
23.8267839106
 20
16.9016397074
 30
0.0
 10
24.2136836895
 20
16.9385391107
 30
0.0
 10
24.6820886555
 20
16.9940694995
 30
0.0
 10
25.022087597
 20
17.0422836365
 30
0.0
 10
25.2495530978
 20
17.0785635518
 30
0.0
 10
25.4574964436
 20
17.1160627354
 30
0.0
 10
25.6452948952
 20
17.1546512071
 30
0.0
 10
25.8123872668
 20
17.1942131195
 30
0.0
 10
25.9583038993
 20
17.2345885736
 30
0.0
 10
26.0826360727
 20
17.275643837
 30
0.0
 10
26.1719912088
 20
17.3118571409
 30
0.0
 10
26.2319509998
 20
17.3416346771
 30
0.0
 10
26.2690807894
 20
17.362974134
 30
0.0
 10
26.3006095349
 20
17.3844208719
 30
0.0
 10
26.3265299484
 20
17.4059885434
 30
0.0
 10
26.3468431405
 20
17.4277035598
 30
0.0
 10
26.3615183861
 20
17.4496419455
 30
0.0
 10
26.370428143
 20
17.4718654802
 30
0.0
 10
26.3723766065
 20
17.4870379893
 30
0.0
 10
26.3723154348
 20
17.4943480823
 30
0.0
  0
SPLINE
  5
2C2
100
AcDbEntity
  8
0
100
AcDbSpline
 62
7
  6
BYLAYER
 70
0
 71
3
 72
26
 73
22
 74
0
 42
0.0000001
 43
0.0000001
 44
0.0000000001
 40
0.0
 40
0.0
 40
0.0
 40
0.0
 40
0.2132816396
 40
0.4047832192
 40
0.4915590043
 40
0.5719902566
 40
0.6458412322
 40
0.7128839839
 40
0.7729172334
 40
0.8258215913
 40
0.8715243376
 40
0.8916690007
 40
0.9100131817
 40
0.9265729438
 40
0.9413850829
 40
0.9545076985
 40
0.9660278728
 40
0.9760783459
 40
0.9848632605
 40
0.9926915398
 40
1.0
 40
1.0
 40
1.0
 40
1.0
 10
14.1222044209
 20
16.3166810756
 30
0.0
 10
13.8823069761
 20
16.3352118471
 30
0.0
 10
13.4273093519
 20
16.3744403689
 30
0.0
 10
12.8759366219
 20
16.4343269892
 30
0.0
 10
12.4746791194
 20
16.4869222937
 30
0.0
 10
12.2056487406
 20
16.5267488924
 30
0.0
 10
11.9593918798
 20
16.5681013538
 30
0.0
 10
11.7367569824
 20
16.6108311308
 30
0.0
 10
11.5384946604
 20
16.6548027356
 30
0.0
 10
11.3652394144
 20
16.6998312486
 30
0.0
 10
11.2372104326
 20
16.7395522885
 30
0.0
 10
11.1480110857
 20
16.7722383389
 30
0.0
 10
11.0905662796
 20
16.7958863512
 30
0.0
 10
11.0397551757
 20
16.8196950922
 30
0.0
 10
10.9956011023
 20
16.8436463141
 30
0.0
 10
10.9581068848
 20
16.8677277844
 30
0.0
 10
10.9272658659
 20
16.8919471382
 30
0.0
 10
10.9030717527
 20
16.9163418126
 30
0.0
 10
10.8855539071
 20
16.9410133878
 30
0.0
 10
10.8748681656
 20
16.9660642933
 30
0.0
 10
10.8725047237
 20
16.9832389118
 30
0.0
 10
10.8725665167
 20
16.9914836647
 30
0.0
  0
SPLINE
  5
2C3
100
AcDbEntity
  8
0
100
AcDbSpline
 62
7
  6
BYLAYER
 70
0
 71
3
 72
25
 73
21
 74
0
 42
0.0000001
 43
0.0000001
 44
0.0000000001
 40
0.0
 40
0.0
 40
0.0
 40
0.0
 40
0.0076263331
 40
0.0157430017
 40
0.0247677781
 40
0.0350049259
 40
0.0466615959
 40
0.0598758701
 40
0.0747374796
 40
0.0913041982
 40
0.1296831845
 40
0.1751889899
 40
0.2278402842
 40
0.2875759222
 40
0.3542921184
 40
0.4278254066
 40
0.5079892872
 40
0.5945752173
 40
0.7860550782
 40
1.0
 40
1.0
 40
1.0
 40
1.0
 10
11.372602208
 20
17.4943480823
 30
0.0
 10
11.3725409211
 20
17.4870380005
 30
0.0
 10
11.3744892242
 20
17.4718654749
 30
0.0
 10
11.3833989377
 20
17.4496419233
 30
0.0
 10
11.3980742443
 20
17.4277035463
 30
0.0
 10
11.4183875448
 20
17.4059885458
 30
0.0
 10
11.444308068
 20
17.3844208886
 30
0.0
 10
11.4758368864
 20
17.3629741522
 30
0.0
 10
11.5129667064
 20
17.3416346917
 30
0.0
 10
11.5729264821
 20
17.3118571566
 30
0.0
 10
11.6622815712
 20
17.2756438411
 30
0.0
 10
11.7866137031
 20
17.2345885785
 30
0.0
 10
11.9325303206
 20
17.1942131298
 30
0.0
 10
12.0996226973
 20
17.1546512223
 30
0.0
 10
12.287421153
 20
17.116062757
 30
0.0
 10
12.4953644788
 20
17.0785635773
 30
0.0
 10
12.7228299293
 20
17.0422836557
 30
0.0
 10
13.0628288892
 20
16.9940694801
 30
0.0
 10
13.5312338469
 20
16.9385391753
 30
0.0
 10
13.9181336337
 20
16.9016398226
 30
0.0
 10
14.1224563875
 20
16.8840302487
 30
0.0
  0
SPLINE
  5
2C4
100
AcDbEntity
  8
0
100
AcDbSpline
 62
7
  6
BYLAYER
 70
0
 71
3
 72
26
 73
22
 74
0
 42
0.0000001
 43
0.0000001
 44
0.0000000001
 40
0.0
 40
0.0
 40
0.0
 40
0.0
 40
0.0073085803
 40
0.0151369702
 40
0.0239219807
 40
0.0339725342
 40
0.0454927747
 40
0.0586154441
 40
0.0734276264
 40
0.0899874225
 40
0.1083316294
 40
0.1284763112
 40
0.1741790761
 40
0.2270834311
 40
0.2871166596
 40
0.3541593739
 40
0.4280102974
 40
0.5084414844
 40
0.5952171922
 40
0.7867185847
 40
1.0
 40
1.0
 40
1.0
 40
1.0
 10
26.8723508706
 20
16.9914559143
 30
0.0
 10
26.8724126356
 20
16.9832110171
 30
0.0
 10
26.8700491433
 20
16.9660361297
 30
0.0
 10
26.859363335
 20
16.9409848244
 30
0.0
 10
26.8418454166
 20
16.9163128651
 30
0.0
 10
26.8176512253
 20
16.8919178311
 30
0.0
 10
26.7868101269
 20
16.8676981449
 30
0.0
 10
26.7493158303
 20
16.8436163694
 30
0.0
 10
26.7051616796
 20
16.8196648691
 30
0.0
 10
26.6543505
 20
16.7958558764
 30
0.0
 10
26.5969056204
 20
16.7722076386
 30
0.0
 10
26.5077061914
 20
16.7395213171
 30
0.0
 10
26.3796771035
 20
16.69980001
 30
0.0
 10
26.2064217246
 20
16.6547712872
 30
0.0
 10
26.0081592792
 20
16.6107995785
 30
0.0
 10
25.7855242676
 20
16.5680698041
 30
0.0
 10
25.5392673019
 20
16.5267174511
 30
0.0
 10
25.2702368274
 20
16.4868910663
 30
0.0
 10
24.8689792175
 20
16.434296204
 30
0.0
 10
24.3176063703
 20
16.3744104094
 30
0.0
 10
23.8626086604
 20
16.3351827483
 30
0.0
 10
23.6227111805
 20
16.3166524695
 30
0.0
  0
SPLINE
  5
2C5
100
AcDbEntity
  8
0
100
AcDbSpline
 62
7
  6
BYLAYER
 70
0
 71
3
 72
17
 73
13
 74
0
 42
0.0000001
 43
0.0000001
 44
0.0000000001
 40
0.0
 40
0.0
 40
0.0
 40
0.0
 40
0.1728994155
 40
0.3403706118
 40
0.4964253165
 40
0.636501062
 40
0.7569824616
 40
0.855871407
 40
0.8975593236
 40
0.9347073941
 40
0.9683579472
 40
1.0
 40
1.0
 40
1.0
 40
1.0
 10
25.322458737
 20
29.8292619718
 30
0.0
 10
25.3387130834
 20
29.8292619718
 30
0.0
 10
25.3707229959
 20
29.8281320554
 30
0.0
 10
25.4171673227
 20
29.8231400447
 30
0.0
 10
25.4600407934
 20
29.8150205706
 30
0.0
 10
25.4977361474
 20
29.8040980137
 30
0.0
 10
25.5289060196
 20
29.7908328529
 30
0.0
 10
25.5497476058
 20
29.7774449052
 30
0.0
 10
25.5616621492
 20
29.765639755
 30
0.0
 10
25.5678016142
 20
29.756946654
 30
0.0
 10
25.5715833967
 20
29.7479971646
 30
0.0
 10
25.572458737
 20
29.7418321898
 30
0.0
 10
25.572458737
 20
29.7388575071
 30
0.0
  0
SPLINE
  5
2C6
100
AcDbEntity
  8
0
100
AcDbSpline
 62
7
  6
BYLAYER
 70
0
 71
3
 72
17
 73
13
 74
0
 42
0.0000001
 43
0.0000001
 44
0.0000000001
 40
0.0
 40
0.0
 40
0.0
 40
0.0
 40
0.0316420652
 40
0.0652926576
 40
0.1024407813
 40
0.1441287518
 40
0.2430178073
 40
0.3634992573
 40
0.5035750506
 40
0.6596296987
 40
0.8271006823
 40
1.0
 40
1.0
 40
1.0
 40
1.0
 10
12.172458737
 20
29.7388575071
 30
0.0
 10
12.172458737
 20
29.7418321909
 30
0.0
 10
12.1733340827
 20
29.7479971704
 30
0.0
 10
12.1771158774
 20
29.7569466648
 30
0.0
 10
12.1832553504
 20
29.7656397762
 30
0.0
 10
12.1951699072
 20
29.7774449425
 30
0.0
 10
12.2160115218
 20
29.7908328848
 30
0.0
 10
12.2471814136
 20
29.8040980451
 30
0.0
 10
12.2848767743
 20
29.8150205932
 30
0.0
 10
12.3277502254
 20
29.8231400525
 30
0.0
 10
12.3741945167
 20
29.828132064
 30
0.0
 10
12.4062044
 20
29.8292619718
 30
0.0
 10
12.422458737
 20
29.8292619718
 30
0.0
  0
SPLINE
  5
2C7
100
AcDbEntity
  8
0
100
AcDbSpline
 62
7
  6
BYLAYER
 70
0
 71
3
 72
20
 73
16
 74
0
 42
0.0000001
 43
0.0000001
 44
0.0000000001
 40
0.0
 40
0.0
 40
0.0
 40
0.0
 40
0.1729768481
 40
0.3402369026
 40
0.4962604637
 40
0.5685831512
 40
0.6363876106
 40
0.6992666676
 40
0.7568966178
 40
0.8091134619
 40
0.8559136207
 40
0.8975650994
 40
0.9346860275
 40
0.9683258091
 40
1.0
 40
1.0
 40
1.0
 40
1.0
 10
25.322458737
 20
37.6494910657
 30
0.0
 10
25.4037914931
 20
37.6494910657
 30
0.0
 10
25.5638331548
 20
37.6438821838
 30
0.0
 10
25.7960246647
 20
37.6188642805
 30
0.0
 10
25.9790553439
 20
37.5842092033
 30
0.0
 10
26.1136645386
 20
37.548350289
 30
0.0
 10
26.2044771507
 20
37.5187777501
 30
0.0
 10
26.2868716783
 20
37.4861757116
 30
0.0
 10
26.3600748534
 20
37.4508051504
 30
0.0
 10
26.4234345408
 20
37.4130248719
 30
0.0
 10
26.4763857564
 20
37.37312453
 30
0.0
 10
26.5184595921
 20
37.3313812379
 30
0.0
 10
26.5492229652
 20
37.2879861112
 30
0.0
 10
26.5681090653
 20
37.2432069588
 30
0.0
 10
26.572458737
 20
37.2123617717
 30
0.0
 10
26.572458737
 20
37.1974687425
 30
0.0
  0
SPLINE
  5
2C8
100
AcDbEntity
  8
0
100
AcDbSpline
 62
7
  6
BYLAYER
 70
0
 71
3
 72
20
 73
16
 74
0
 42
0.0000001
 43
0.0000001
 44
0.0000000001
 40
0.0
 40
0.0
 40
0.0
 40
0.0
 40
0.0316741909
 40
0.0653139725
 40
0.1024349006
 40
0.1440863793
 40
0.1908865381
 40
0.2431033822
 40
0.3007333324
 40
0.3636123894
 40
0.4314168488
 40
0.5037395363
 40
0.6597630974
 40
0.8270231519
 40
1.0
 40
1.0
 40
1.0
 40
1.0
 10
11.172458737
 20
37.1974687425
 30
0.0
 10
11.172458737
 20
37.2123617717
 30
0.0
 10
11.1768084087
 20
37.2432069588
 30
0.0
 10
11.1956945088
 20
37.2879861112
 30
0.0
 10
11.2264578819
 20
37.3313812379
 30
0.0
 10
11.2685317176
 20
37.37312453
 30
0.0
 10
11.3214829332
 20
37.4130248719
 30
0.0
 10
11.3848426205
 20
37.4508051504
 30
0.0
 10
11.4580457957
 20
37.4861757116
 30
0.0
 10
11.5404403233
 20
37.5187777501
 30
0.0
 10
11.6312529354
 20
37.548350289
 30
0.0
 10
11.7658621301
 20
37.5842092033
 30
0.0
 10
11.9488928092
 20
37.6188642805
 30
0.0
 10
12.1810843191
 20
37.6438821838
 30
0.0
 10
12.3411259808
 20
37.6494910657
 30
0.0
 10
12.422458737
 20
37.6494910657
 30
0.0
  0
SPLINE
  5
2C9
100
AcDbEntity
  8
0
100
AcDbSpline
 62
7
  6
BYLAYER
 70
0
 71
3
 72
20
 73
16
 74
0
 42
0.0000001
 43
0.0000001
 44
0.0000000001
 40
0.0
 40
0.0
 40
0.0
 40
0.0
 40
0.1729768481
 40
0.3402369026
 40
0.4962604637
 40
0.5685831512
 40
0.6363876106
 40
0.6992666676
 40
0.7568966178
 40
0.8091134619
 40
0.8559136207
 40
0.8975650994
 40
0.9346860275
 40
0.9683258091
 40
1.0
 40
1.0
 40
1.0
 40
1.0
 10
12.422458737
 20
30.1908798303
 30
0.0
 10
12.3411259808
 20
30.1908798303
 30
0.0
 10
12.1810843191
 20
30.1852709484
 30
0.0
 10
11.9488928092
 20
30.1602530452
 30
0.0
 10
11.7658621301
 20
30.125597968
 30
0.0
 10
11.6312529354
 20
30.0897390537
 30
0.0
 10
11.5404403233
 20
30.0601665148
 30
0.0
 10
11.4580457957
 20
30.0275644763
 30
0.0
 10
11.3848426205
 20
29.9921939151
 30
0.0
 10
11.3214829332
 20
29.9544136366
 30
0.0
 10
11.2685317176
 20
29.9145132947
 30
0.0
 10
11.2264578819
 20
29.8727700026
 30
0.0
 10
11.1956945088
 20
29.8293748759
 30
0.0
 10
11.1768084087
 20
29.7845957235
 30
0.0
 10
11.172458737
 20
29.7537505363
 30
0.0
 10
11.172458737
 20
29.7388575071
 30
0.0
  0
SPLINE
  5
2CA
100
AcDbEntity
  8
0
100
AcDbSpline
 62
7
  6
BYLAYER
 70
0
 71
3
 72
20
 73
16
 74
0
 42
0.0000001
 43
0.0000001
 44
0.0000000001
 40
0.0
 40
0.0
 40
0.0
 40
0.0
 40
0.0316741909
 40
0.0653139725
 40
0.1024349006
 40
0.1440863793
 40
0.1908865381
 40
0.2431033822
 40
0.3007333324
 40
0.3636123894
 40
0.4314168488
 40
0.5037395363
 40
0.6597630974
 40
0.8270231519
 40
1.0
 40
1.0
 40
1.0
 40
1.0
 10
26.572458737
 20
29.7388575071
 30
0.0
 10
26.572458737
 20
29.7537505363
 30
0.0
 10
26.5681090653
 20
29.7845957235
 30
0.0
 10
26.5492229652
 20
29.8293748759
 30
0.0
 10
26.5184595921
 20
29.8727700026
 30
0.0
 10
26.4763857564
 20
29.9145132947
 30
0.0
 10
26.4234345408
 20
29.9544136366
 30
0.0
 10
26.3600748534
 20
29.9921939151
 30
0.0
 10
26.2868716783
 20
30.0275644763
 30
0.0
 10
26.2044771507
 20
30.0601665148
 30
0.0
 10
26.1136645386
 20
30.0897390537
 30
0.0
 10
25.9790553439
 20
30.125597968
 30
0.0
 10
25.7960246647
 20
30.1602530452
 30
0.0
 10
25.5638331548
 20
30.1852709484
 30
0.0
 10
25.4037914931
 20
30.1908798303
 30
0.0
 10
25.322458737
 20
30.1908798303
 30
0.0
  0
SPLINE
  5
2CB
100
AcDbEntity
  8
0
100
AcDbSpline
 62
7
  6
BYLAYER
 70
0
 71
3
 72
15
 73
11
 74
0
 42
0.0000001
 43
0.0000001
 44
0.0000000001
 40
0.0
 40
0.0
 40
0.0
 40
0.0
 40
0.1291545384
 40
0.257913712
 40
0.3853376541
 40
0.5112126276
 40
0.6353858516
 40
0.7579507415
 40
0.8794224036
 40
1.0
 40
1.0
 40
1.0
 40
1.0
 10
14.422458737
 20
27.7003582807
 30
0.0
 10
14.3898334373
 20
27.7003582807
 30
0.0
 10
14.3245310922
 20
27.694337554
 30
0.0
 10
14.2303244778
 20
27.6678259149
 30
0.0
 10
14.1433800619
 20
27.624603597
 30
0.0
 10
14.0671384268
 20
27.5663625601
 30
0.0
 10
14.0044053207
 20
27.4953683203
 30
0.0
 10
13.9577065611
 20
27.4141638511
 30
0.0
 10
13.9289967108
 20
27.325981728
 30
0.0
 10
13.922458737
 20
27.2646537853
 30
0.0
 10
13.922458737
 20
27.2341950785
 30
0.0
  0
SPLINE
  5
2CC
100
AcDbEntity
  8
0
100
AcDbSpline
 62
7
  6
BYLAYER
 70
0
 71
3
 72
15
 73
11
 74
0
 42
0.0000001
 43
0.0000001
 44
0.0000000001
 40
0.0
 40
0.0
 40
0.0
 40
0.0
 40
0.1205776696
 40
0.2420494895
 40
0.3646144546
 40
0.4887876809
 40
0.6146626605
 40
0.7420865317
 40
0.8708455388
 40
1.0
 40
1.0
 40
1.0
 40
1.0
 10
23.822458737
 20
27.2341950785
 30
0.0
 10
23.822458737
 20
27.2646538037
 30
0.0
 10
23.815920716
 20
27.3259817994
 30
0.0
 10
23.7872108637
 20
27.4141640032
 30
0.0
 10
23.7405120205
 20
27.495368498
 30
0.0
 10
23.677778871
 20
27.566362724
 30
0.0
 10
23.6015372216
 20
27.6246037196
 30
0.0
 10
23.5145928366
 20
27.6678259593
 30
0.0
 10
23.420386305
 20
27.694337598
 30
0.0
 10
23.3550840171
 20
27.7003582807
 30
0.0
 10
23.322458737
 20
27.7003582807
 30
0.0
  0
SPLINE
  5
2CD
100
AcDbEntity
  8
0
100
AcDbSpline
 62
7
  6
BYLAYER
 70
0
 71
3
 72
9
 73
5
 74
0
 42
0.0000001
 43
0.0000001
 44
0.0000000001
 40
0.0
 40
0.0
 40
0.0
 40
0.0
 40
0.4977067264
 40
1.0
 40
1.0
 40
1.0
 40
1.0
 10
13.922458737
 20
29.620872945
 30
0.0
 10
13.922458737
 20
29.6582482951
 30
0.0
 10
13.9322932303
 20
29.7336502294
 30
0.0
 10
13.9609549933
 20
29.8040430783
 30
0.0
 10
13.9794123791
 20
29.8369384658
 30
0.0
  0
SPLINE
  5
2CE
100
AcDbEntity
  8
0
100
AcDbSpline
 62
7
  6
BYLAYER
 70
0
 71
3
 72
9
 73
5
 74
0
 42
0.0000001
 43
0.0000001
 44
0.0000000001
 40
0.0
 40
0.0
 40
0.0
 40
0.0
 40
0.5022931375
 40
1.0
 40
1.0
 40
1.0
 40
1.0
 10
23.7655067022
 20
29.836935605
 30
0.0
 10
23.7839635768
 20
29.8040405663
 30
0.0
 10
23.8126245665
 20
29.7336486121
 30
0.0
 10
23.822458737
 20
29.6582477662
 30
0.0
 10
23.822458737
 20
29.620872945
 30
0.0
  0
SPLINE
  5
2CF
100
AcDbEntity
  8
0
100
AcDbSpline
 62
7
  6
BYLAYER
 70
0
 71
3
 72
15
 73
11
 74
0
 42
0.0000001
 43
0.0000001
 44
0.0000000001
 40
0.0
 40
0.0
 40
0.0
 40
0.0
 40
0.1291545384
 40
0.257913712
 40
0.3853376541
 40
0.5112126276
 40
0.6353858516
 40
0.7579507415
 40
0.8794224036
 40
1.0
 40
1.0
 40
1.0
 40
1.0
 10
23.322458737
 20
24.0841796951
 30
0.0
 10
23.3550840366
 20
24.0841796951
 30
0.0
 10
23.4203863818
 20
24.0781589684
 30
0.0
 10
23.5145929962
 20
24.0516473293
 30
0.0
 10
23.601537412
 20
24.0084250113
 30
0.0
 10
23.6777790472
 20
23.9501839744
 30
0.0
 10
23.7405121532
 20
23.8791897347
 30
0.0
 10
23.7872109129
 20
23.7979852655
 30
0.0
 10
23.8159207631
 20
23.7098031423
 30
0.0
 10
23.822458737
 20
23.6484751996
 30
0.0
 10
23.822458737
 20
23.6180164929
 30
0.0
  0
SPLINE
  5
2D0
100
AcDbEntity
  8
0
100
AcDbSpline
 62
7
  6
BYLAYER
 70
0
 71
3
 72
15
 73
11
 74
0
 42
0.0000001
 43
0.0000001
 44
0.0000000001
 40
0.0
 40
0.0
 40
0.0
 40
0.0
 40
0.1205776696
 40
0.2420494895
 40
0.3646144546
 40
0.4887876809
 40
0.6146626605
 40
0.7420865317
 40
0.8708455388
 40
1.0
 40
1.0
 40
1.0
 40
1.0
 10
13.922458737
 20
23.6180164929
 30
0.0
 10
13.922458737
 20
23.6484752181
 30
0.0
 10
13.9289967579
 20
23.7098032138
 30
0.0
 10
13.9577066102
 20
23.7979854176
 30
0.0
 10
14.0044054534
 20
23.8791899123
 30
0.0
 10
14.0671386029
 20
23.9501841384
 30
0.0
 10
14.1433802524
 20
24.0084251339
 30
0.0
 10
14.2303246374
 20
24.0516473737
 30
0.0
 10
14.3245311689
 20
24.0781590124
 30
0.0
 10
14.3898334569
 20
24.0841796951
 30
0.0
 10
14.422458737
 20
24.0841796951
 30
0.0
  0
ELLIPSE
  5
2D1
100
AcDbEntity
  8
0
100
AcDbEllipse
 62
7
  6
BYLAYER
 10
15.622458737
 20
18.4943480823
 30
0.0
 11
0.9509826718
 21
0.9509826718
 31
0.0
 40
0.3251838136
 41
2.8271945104
 42
3.1415926536
  0
ELLIPSE
  5
2D2
100
AcDbEntity
  8
0
100
AcDbEllipse
 62
7
  6
BYLAYER
 10
22.122458737
 20
18.4943480823
 30
0.0
 11
0.9509826718
 21
-0.9509826718
 31
0.0
 40
0.3251838136
 41
0.0
 42
0.3143981432
  0
ELLIPSE
  5
2D3
100
AcDbEntity
  8
0
100
AcDbEllipse
 62
7
  6
BYLAYER
 10
14.422458737
 20
21.4232512591
 30
0.0
 11
0.0
 21
0.5273830705
 31
0.0
 40
0.9480774563
 41
0.0
 42
1.4321537918
  0
ELLIPSE
  5
2D4
100
AcDbEntity
  8
0
100
AcDbEllipse
 62
7
  6
BYLAYER
 10
23.322458737
 20
21.4232512591
 30
0.0
 11
0.0
 21
0.5273830705
 31
0.0
 40
0.9480774563
 41
-1.4322937563
 42
0.0
  0
ENDSEC
  0
SECTION
  2
OBJECTS
  0
DICTIONARY
  5
C
100
AcDbDictionary
280
0
281
1
  3
ACAD_GROUP
350
D
  3
ACAD_MLINESTYLE
350
17
  3
ACAD_LAYOUT
350
1A
  3
ACAD_PLOTSETTINGS
350
19
  3
ACAD_PLOTSTYLENAME
350
E
  0
DICTIONARY
  5
D
102
{ACAD_REACTORS
330
C
102
}
100
AcDbDictionary
280
0
281
1
  0
ACDBDICTIONARYWDFLT
  5
E
102
{ACAD_REACTORS
330
C
102
}
100
AcDbDictionary
281
1
  3
Normal
350
F
100
AcDbDictionaryWithDefault
340
F
  0
DICTIONARY
  5
17
102
{ACAD_REACTORS
330
C
102
}
100
AcDbDictionary
280
0
281
1
  3
Standard
350
18
  0
DICTIONARY
  5
19
102
{ACAD_REACTORS
330
C
102
}
100
AcDbDictionary
281
1
  0
DICTIONARY
  5
1A
102
{ACAD_REACTORS
330
C
102
}
100
AcDbDictionary
281
1
  3
Model
350
2D5
  3
Layout1
350
2D6
  0
ACDBPLACEHOLDER
  5
F
102
{ACAD_REACTORS
330
E
102
}
  0
MLINESTYLE
  5
18
102
{ACAD_REACTORS
330
17
102
}
100
AcDbMlineStyle
  2
STANDARD
 70
0
  3

 62
256
 51
90.0
 52
90.0
 71
2
 49
0.5
 62
256
  6
BYLAYER
 49
-0.5
 62
256
  6
BYLAYER
  0
LAYOUT
  5
2D5
102
{ACAD_REACTORS
330
1A
102
}
100
AcDbPlotSettings
  1

  2
none_device
  4

  6

 40
0.0
 41
0.0
 42
0.0
 43
0.0
 44
210.0
 45
297.0
 46
0.0
 47
0.0
 48
0.0
 49
0.0
140
0.0
141
0.0
142
1.0
143
1.0
 70
1024
 72
1
 73
0
 74
0
  7

 75
0
147
1.0
148
0.0
149
0.0
100
AcDbLayout
  1
Model
 70
0
 71
0
 10
0.0
 20
0.0
 11
210.0
 21
297.0
 12
0.0
 22
0.0
 32
0.0
 14
0.0
 24
0.0
 34
0.0
 15
0.0
 25
0.0
 35
0.0
146
0.0
 13
0.0
 23
0.0
 33
0.0
 16
1.0
 26
0.0
 36
0.0
 17
0.0
 27
1.0
 37
0.0
 76
0
330
210
345
0
346
0
  0
LAYOUT
  5
2D6
102
{ACAD_REACTORS
330
1A
102
}
100
AcDbPlotSettings
  1

  2
none_device
  4

  6

 40
0.0
 41
0.0
 42
0.0
 43
0.0
 44
210.0
 45
297.0
 46
0.0
 47
0.0
 48
0.0
 49
0.0
140
0.0
141
0.0
142
1.0
143
1.0
 70
0
 72
1
 73
0
 74
0
  7

 75
0
147
1.0
148
0.0
149
0.0
100
AcDbLayout
  1
Layout1
 70
0
 71
1
 10
0.0
 20
0.0
 11
210.0
 21
297.0
 12
0.0
 22
0.0
 32
0.0
 14
0.0
 24
0.0
 34
0.0
 15
0.0
 25
0.0
 35
0.0
146
0.0
 13
0.0
 23
0.0
 33
0.0
 16
1.0
 26
0.0
 36
0.0
 17
0.0
 27
1.0
 37
0.0
 76
0
330
211
345
0
346
0
  0
ENDSEC
  0
EOF
