999
DXF file: C:\Users\sesa63760\Dev\_Creo\CAD\MCADID0004747_3D-CAD\drw0001_6.dxf
999
Pro/ENGINEER 2019471 by Parametric Technology Corporation
  0
SECTION
  2
HEADER
  9
$ACADVER
  1
AC1024
  9
$DWGCODEPAGE
  3
ANSI_1252
  9
$EXTMAX
 10
36.6494504375
 20
51.8327941902
 30
0.0
  9
$EXTMIN
 10
0.0
 20
0.0
 30
0.0
  9
$LIMMIN
 10
0.0
 20
0.0
  9
$LIMMAX
 10
36.6494504375
 20
51.8327941902
  9
$VIEWCTR
 10
18.3247252188
 20
25.9163970951
  9
$VIEWSIZE
 40
51.8327941902
  9
$CLAYER
  8
0
  9
$LTSCALE
 40
3.378730288
  9
$CELTYPE
  6
BYLAYER
  9
$DIMSCALE
 40
1.0
  9
$DIMASZ
 40
0.4363029814
  9
$DIMEXO
 40
1.0
  9
$DIMDLI
 40
2.3343954717
  9
$DIMEXE
 40
1.0
  9
$DIMCEN
 40
0.552883138
  9
$DIMLFAC
 40
1.0
  9
$DIMBLK
  1
_FILLED
  9
$DIMALT
 70
0
  9
$DIMALTF
 40
0.0393700787
  9
$DIMTXT
 40
0.610824174
  9
$DIMTOL
 70
1
  9
$DIMLIM
 70
0
  9
$DIMTFAC
 40
1.0
  9
$DIMTP
 40
0.01
  9
$DIMTM
 40
0.01
  9
$DIMGAP
 40
0.625
  9
$DIMDSEP
 70
46
  9
$AUNITS
 70
0
  9
$PDMODE
 70
3
  9
$PDSIZE
 40
0.3125
  9
$HANDSEED
  5
2D0
  9
$TILEMODE
 70
1
  9
$MEASUREMENT
 70
1
  9
$INSUNITS
 70
4
  0
ENDSEC
  0
SECTION
  2
CLASSES
  0
CLASS
  1
ACDBDICTIONARYWDFLT
  2
AcDbDictionaryWithDefault
  3
AutoCAD 2000
 90
0
 91
1
280
0
281
0
  0
CLASS
  1
ACDBPLACEHOLDER
  2
AcDbPlaceHolder
  3
AutoCAD 2000
 90
0
 91
1
280
0
281
0
  0
CLASS
  1
LAYOUT
  2
AcDbLayout
  3
AutoCAD 2000
 90
0
 91
0
280
0
281
0
  0
ENDSEC
  0
SECTION
  2
TABLES
  0
TABLE
  2
VPORT
  5
8
100
AcDbSymbolTable
 70
2
  0
VPORT
  5
1F4
100
AcDbSymbolTableRecord
100
AcDbViewportTableRecord
  2
*ACTIVE
 70
0
 10
0.0
 20
0.0
 11
1.0
 21
1.0
 12
18.3247252188
 22
25.9163970951
 13
0.0
 23
0.0
 14
1.0
 24
1.0
 15
0.0
 25
0.0
 16
0.0
 26
0.0
 36
1.0
 17
0.0
 27
0.0
 37
0.0
 40
51.8327941902
 41
0.7070707071
 42
50.0
 43
0.0
 44
0.0
 50
0.0
 51
0.0
 71
0
 72
100
 73
1
 74
1
 75
0
 76
0
 77
0
 78
0
  0
ENDTAB
  0
TABLE
  2
LTYPE
  5
5
100
AcDbSymbolTable
 70
6
  0
LTYPE
  5
14
100
AcDbSymbolTableRecord
100
AcDbLinetypeTableRecord
  2
BYBLOCK
 70
0
  3

 72
65
 73
0
 40
0.0
  0
LTYPE
  5
15
100
AcDbSymbolTableRecord
100
AcDbLinetypeTableRecord
  2
BYLAYER
 70
0
  3

 72
65
 73
0
 40
0.0
  0
LTYPE
  5
16
100
AcDbSymbolTableRecord
100
AcDbLinetypeTableRecord
  2
CONTINUOUS
 70
64
  3
Solid line
 72
65
 73
0
 40
0.0
  0
LTYPE
  5
1F5
100
AcDbSymbolTableRecord
100
AcDbLinetypeTableRecord
  2
CENTER
 70
64
  3
____ _ ____ _ ____ _ ____ _ ____ _ ____ _ ____
 72
65
 73
4
 40
0.6
 49
0.375
 74
0
 49
-0.075
 74
0
 49
0.075
 74
0
 49
-0.075
 74
0
  0
LTYPE
  5
1F6
100
AcDbSymbolTableRecord
100
AcDbLinetypeTableRecord
  2
HIDDEN
 70
64
  3
- - - - - - - - - - - - - - - - - - - -
 72
65
 73
2
 40
0.2
 49
0.1
 74
0
 49
-0.1
 74
0
  0
LTYPE
  5
1F7
100
AcDbSymbolTableRecord
100
AcDbLinetypeTableRecord
  2
PHANTOM
 70
64
  3
_____ _ _ _____ _ _ _____ _ _ _____
 72
65
 73
6
 40
0.8
 49
0.45
 74
0
 49
-0.05
 74
0
 49
0.1
 74
0
 49
-0.05
 74
0
 49
0.1
 74
0
 49
-0.05
 74
0
  0
LTYPE
  5
1F8
100
AcDbSymbolTableRecord
100
AcDbLinetypeTableRecord
  2
DOT
 70
64
  3
. . . . . . . . . . . . . . . . . . . .
 72
65
 73
2
 40
0.2
 49
0.1
 74
0
 49
-0.1
 74
0
  0
LTYPE
  5
1F9
100
AcDbSymbolTableRecord
100
AcDbLinetypeTableRecord
  2
DASHED
 70
64
  3
- - - - - - - - - - - - - - - - - - - -
 72
65
 73
2
 40
0.2
 49
0.1
 74
0
 49
-0.1
 74
0
  0
ENDTAB
  0
TABLE
  2
LAYER
  5
2
100
AcDbSymbolTable
 70
36
  0
LAYER
  5
10
100
AcDbSymbolTableRecord
100
AcDbLayerTableRecord
  2
0
 70
0
 62
7
  6
CONTINUOUS
370
-3
390
F
  0
LAYER
  5
1FA
100
AcDbSymbolTableRecord
100
AcDbLayerTableRecord
  2
DEFAULT_1
 70
0
 62
7
  6
CENTER
370
-3
390
F
  0
LAYER
  5
1FB
100
AcDbSymbolTableRecord
100
AcDbLayerTableRecord
  2
DEFAULT_2
 70
0
 62
7
  6
HIDDEN
370
-3
390
F
  0
LAYER
  5
1FC
100
AcDbSymbolTableRecord
100
AcDbLayerTableRecord
  2
DEFAULT_3
 70
0
 62
7
  6
PHANTOM
370
-3
390
F
  0
LAYER
  5
1FD
100
AcDbSymbolTableRecord
100
AcDbLayerTableRecord
  2
00_COMPONENTS
 70
0
 62
7
  6
CONTINUOUS
370
-3
390
F
  0
LAYER
  5
1FE
100
AcDbSymbolTableRecord
100
AcDbLayerTableRecord
  2
01_1_DEFAULT_DATUMS
 70
0
 62
7
  6
CONTINUOUS
370
-3
390
F
  0
LAYER
  5
1FF
100
AcDbSymbolTableRecord
100
AcDbLayerTableRecord
  2
01_PLANES
 70
0
 62
7
  6
CONTINUOUS
370
-3
390
F
  0
LAYER
  5
200
100
AcDbSymbolTableRecord
100
AcDbLayerTableRecord
  2
02_COORD_SYS
 70
0
 62
7
  6
CONTINUOUS
370
-3
390
F
  0
LAYER
  5
201
100
AcDbSymbolTableRecord
100
AcDbLayerTableRecord
  2
03_AXES
 70
0
 62
7
  6
CONTINUOUS
370
-3
390
F
  0
LAYER
  5
202
100
AcDbSymbolTableRecord
100
AcDbLayerTableRecord
  2
04_POINTS
 70
0
 62
7
  6
CONTINUOUS
370
-3
390
F
  0
LAYER
  5
203
100
AcDbSymbolTableRecord
100
AcDbLayerTableRecord
  2
05_CURVES
 70
0
 62
7
  6
CONTINUOUS
370
-3
390
F
  0
LAYER
  5
204
100
AcDbSymbolTableRecord
100
AcDbLayerTableRecord
  2
06_SURFS
 70
0
 62
7
  6
CONTINUOUS
370
-3
390
F
  0
LAYER
  5
205
100
AcDbSymbolTableRecord
100
AcDbLayerTableRecord
  2
07_COSMETICS
 70
0
 62
7
  6
CONTINUOUS
370
-3
390
F
  0
LAYER
  5
206
100
AcDbSymbolTableRecord
100
AcDbLayerTableRecord
  2
10_NOTES
 70
0
 62
7
  6
CONTINUOUS
370
-3
390
F
  0
LAYER
  5
207
100
AcDbSymbolTableRecord
100
AcDbLayerTableRecord
  2
11_NOTES_PUB
 70
0
 62
7
  6
CONTINUOUS
370
-3
390
F
  0
LAYER
  5
208
100
AcDbSymbolTableRecord
100
AcDbLayerTableRecord
  2
13_REF_GTOL
 70
0
 62
7
  6
CONTINUOUS
370
-3
390
F
  0
LAYER
  5
209
100
AcDbSymbolTableRecord
100
AcDbLayerTableRecord
  2
16_MISC
 70
0
 62
7
  6
CONTINUOUS
370
-3
390
F
  0
LAYER
  5
20A
100
AcDbSymbolTableRecord
100
AcDbLayerTableRecord
  2
17_NO_PRINT
 70
0
 62
7
  6
CONTINUOUS
370
-3
390
F
  0
LAYER
  5
20B
100
AcDbSymbolTableRecord
100
AcDbLayerTableRecord
  2
18_DATUM_CAMS_JOINTS
 70
0
 62
7
  6
CONTINUOUS
370
-3
390
F
  0
LAYER
  5
20C
100
AcDbSymbolTableRecord
100
AcDbLayerTableRecord
  2
19_DATUM_FUNCTIONAL
 70
0
 62
7
  6
CONTINUOUS
370
-3
390
F
  0
LAYER
  5
20D
100
AcDbSymbolTableRecord
100
AcDbLayerTableRecord
  2
20_DATUM_KINEMATIC_SCHEME
 70
0
 62
7
  6
CONTINUOUS
370
-3
390
F
  0
ENDTAB
  0
TABLE
  2
STYLE
  5
3
100
AcDbSymbolTable
 70
1
  0
STYLE
  5
11
100
AcDbSymbolTableRecord
100
AcDbTextStyleTableRecord
  2
STANDARD
 70
0
 40
0.0
 41
1.0
 50
0.0
 71
0
 42
0.2
  3
ARIAL.TTF
  4

  0
STYLE
  5
20E
100
AcDbSymbolTableRecord
100
AcDbTextStyleTableRecord
  2
TEXTSTYLE_1
 70
0
 40
0.0
 41
0.8
 50
0.0
 71
0
 42
0.2
  3
gdt
  4

  0
ENDTAB
  0
TABLE
  2
VIEW
  5
6
100
AcDbSymbolTable
 70
0
  0
ENDTAB
  0
TABLE
  2
UCS
  5
7
100
AcDbSymbolTable
 70
0
  0
ENDTAB
  0
TABLE
  2
APPID
  5
9
100
AcDbSymbolTable
 70
1
  0
APPID
  5
20F
100
AcDbSymbolTableRecord
100
AcDbRegAppTableRecord
  2
ACAD
 70
0
  0
ENDTAB
  0
TABLE
  2
BLOCK_RECORD
  5
1
100
AcDbSymbolTable
 70
0
  0
BLOCK_RECORD
  5
210
100
AcDbSymbolTableRecord
100
AcDbBlockTableRecord
  2
*Model_Space
  0
BLOCK_RECORD
  5
211
100
AcDbSymbolTableRecord
100
AcDbBlockTableRecord
  2
*Paper_Space
  0
BLOCK_RECORD
  5
212
100
AcDbSymbolTableRecord
100
AcDbBlockTableRecord
  2
_FILLED
  0
ENDTAB
  0
TABLE
  2
DIMSTYLE
  5
A
100
AcDbSymbolTable
 70
1
100
AcDbDimStyleTable
 71
0
  0
DIMSTYLE
105
213
100
AcDbSymbolTableRecord
100
AcDbDimStyleTableRecord
  2
STANDARD
 70
0
  3

  4

 40
1.0
 41
0.4363029814
 42
1.0
 43
0.38
 44
1.0
 45
0.0
 46
0.0
 47
0.01
 48
0.01
140
0.610824174
141
0.09
142
0.0
143
25.4
144
1.0
145
0.0
146
1.0
147
0.625
 71
1
 72
0
 73
0
 74
0
 75
0
 76
0
 77
1
 78
8
 79
2
170
0
171
1
172
0
173
0
174
0
175
0
176
0
177
0
178
0
270
2
179
2
271
2
272
2
273
2
274
2
275
0
280
0
281
0
282
0
283
1
284
8
285
0
286
0
287
3
288
0
340
11
278
46
341
212
342
212
343
212
344
212
  0
ENDTAB
  0
ENDSEC
  0
SECTION
  2
BLOCKS
  0
BLOCK
  5
20
100
AcDbEntity
  8
0
100
AcDbBlockBegin
  2
*Model_Space
 70
0
 10
0.0
 20
0.0
 30
0.0
  3
*Model_Space
  1

  0
ENDBLK
  5
21
100
AcDbEntity
  8
0
100
AcDbBlockEnd
  0
BLOCK
  5
1C
100
AcDbEntity
  8
0
100
AcDbBlockBegin
  2
*Paper_Space
 70
0
 10
0.0
 20
0.0
 30
0.0
  3
*Paper_Space
  1

  0
ENDBLK
  5
1D
100
AcDbEntity
  8
0
100
AcDbBlockEnd
  0
BLOCK
  5
214
100
AcDbEntity
  8
0
100
AcDbBlockBegin
  2
_FILLED
 70
64
 10
0.0
 20
0.0
  3
_FILLED
  1

  0
SOLID
  5
215
100
AcDbEntity
  8
0
  6
BYBLOCK
 62
0
100
AcDbTrace
 10
0.0
 20
0.0
 11
-1.0
 21
0.25
 12
-1.0
 22
-0.25
 13
-1.0
 23
-0.25
  0
ENDBLK
  5
216
100
AcDbEntity
  8
0
  6
BYBLOCK
 62
0
100
AcDbBlockEnd
  0
ENDSEC
  0
SECTION
  2
ENTITIES
  0
LINE
  5
217
100
AcDbEntity
  8
0
100
AcDbLine
 62
7
  6
BYLAYER
 10
12.6420385563
 20
4.2823911969
 11
24.3418402067
 21
4.2823911969
  0
LINE
  5
218
100
AcDbEntity
  8
0
100
AcDbLine
 62
7
  6
BYLAYER
 10
24.8419393815
 20
4.7823911969
 11
12.1419393815
 21
4.7823911969
  0
LINE
  5
219
100
AcDbEntity
  8
0
100
AcDbLine
 62
7
  6
BYLAYER
 10
10.4919393815
 20
44.100429178
 11
10.6919393815
 21
44.300429178
  0
LINE
  5
21A
100
AcDbEntity
  8
0
100
AcDbLine
 62
7
  6
BYLAYER
 10
12.1419461231
 20
6.7823911969
 11
24.8419326399
 21
6.7823911969
  0
LINE
  5
21B
100
AcDbEntity
  8
0
100
AcDbLine
 62
7
  6
BYLAYER
 10
24.0919393815
 20
7.0823911969
 11
12.8919393815
 21
7.0823911969
  0
LINE
  5
21C
100
AcDbEntity
  8
0
100
AcDbLine
 62
7
  6
BYLAYER
 10
24.8419326399
 20
7.9823911969
 11
12.1419461231
 21
7.9823911969
  0
LINE
  5
21D
100
AcDbEntity
  8
0
100
AcDbLine
 62
7
  6
BYLAYER
 10
12.1419461231
 20
9.1323911969
 11
24.8419326399
 21
9.1323911969
  0
LINE
  5
21E
100
AcDbEntity
  8
0
100
AcDbLine
 62
7
  6
BYLAYER
 10
25.842704008
 20
10.4723911969
 11
11.1411737314
 21
10.4723911969
  0
LINE
  5
21F
100
AcDbEntity
  8
0
100
AcDbLine
 62
7
  6
BYLAYER
 10
10.4920218748
 20
12.5823911969
 11
26.4919348211
 21
12.5823911969
  0
LINE
  5
220
100
AcDbEntity
  8
0
100
AcDbLine
 62
7
  6
BYLAYER
 10
16.9919393815
 20
13.1182895817
 11
19.9919393815
 21
13.1182895817
  0
LINE
  5
221
100
AcDbEntity
  8
0
100
AcDbLine
 62
7
  6
BYLAYER
 10
11.7419393815
 20
13.6329014541
 11
13.4419393815
 21
13.6329014541
  0
LINE
  5
222
100
AcDbEntity
  8
0
100
AcDbLine
 62
7
  6
BYLAYER
 10
23.5419393815
 20
13.6329014541
 11
25.2419393815
 21
13.6329014541
  0
LINE
  5
223
100
AcDbEntity
  8
0
100
AcDbLine
 62
7
  6
BYLAYER
 10
11.7419393815
 20
13.782974348
 11
13.4419393815
 21
13.782974348
  0
LINE
  5
224
100
AcDbEntity
  8
0
100
AcDbLine
 62
7
  6
BYLAYER
 10
23.5419393815
 20
13.782974348
 11
25.2419393815
 21
13.782974348
  0
LINE
  5
225
100
AcDbEntity
  8
0
100
AcDbLine
 62
7
  6
BYLAYER
 10
25.5419393815
 20
14.0823911969
 11
25.2419393815
 21
14.0823911969
  0
LINE
  5
226
100
AcDbEntity
  8
0
100
AcDbLine
 62
7
  6
BYLAYER
 10
10.4919393815
 20
32.6794307239
 11
10.6919393815
 21
32.8794307239
  0
LINE
  5
227
100
AcDbEntity
  8
0
100
AcDbLine
 62
7
  6
BYLAYER
 10
25.5419393815
 20
16.0823911969
 11
25.2419393815
 21
16.0823911969
  0
LINE
  5
228
100
AcDbEntity
  8
0
100
AcDbLine
 62
7
  6
BYLAYER
 10
25.2419393815
 20
16.5823911969
 11
11.7419393815
 21
16.5823911969
  0
LINE
  5
229
100
AcDbEntity
  8
0
100
AcDbLine
 62
7
  6
BYLAYER
 10
10.4919393815
 20
17.0793919582
 11
10.4919393815
 21
12.5823911969
  0
LINE
  5
22A
100
AcDbEntity
  8
0
100
AcDbLine
 62
7
  6
BYLAYER
 10
10.4919393815
 20
30.5794649975
 11
10.4919393815
 21
32.6793964503
  0
LINE
  5
22B
100
AcDbEntity
  8
0
100
AcDbLine
 62
7
  6
BYLAYER
 10
10.4919393815
 20
42.0004634516
 11
10.4919393815
 21
44.1003949044
  0
LINE
  5
22C
100
AcDbEntity
  8
0
100
AcDbLine
 62
7
  6
BYLAYER
 10
10.6919393815
 20
30.3794307239
 11
10.6919393815
 21
32.8794307239
  0
LINE
  5
22D
100
AcDbEntity
  8
0
100
AcDbLine
 62
7
  6
BYLAYER
 10
10.6919393815
 20
41.800429178
 11
10.6919393815
 21
44.300429178
  0
LINE
  5
22E
100
AcDbEntity
  8
0
100
AcDbLine
 62
7
  6
BYLAYER
 10
10.7919393815
 20
28.6632755124
 11
10.7919393815
 21
45.5503660353
  0
LINE
  5
22F
100
AcDbEntity
  8
0
100
AcDbLine
 62
7
  6
BYLAYER
 10
11.1410263675
 20
12.5823911969
 11
11.1410263675
 21
10.4723911969
  0
LINE
  5
230
100
AcDbEntity
  8
0
100
AcDbLine
 62
7
  6
BYLAYER
 10
11.1423898949
 20
12.5823911969
 11
11.1423898949
 21
10.4723911969
  0
LINE
  5
231
100
AcDbEntity
  8
0
100
AcDbLine
 62
7
  6
BYLAYER
 10
10.4919835671
 20
17.0823911969
 11
11.7419393815
 21
17.0823911969
  0
LINE
  5
232
100
AcDbEntity
  8
0
100
AcDbLine
 62
7
  6
BYLAYER
 10
25.2419393815
 20
17.0823911969
 11
26.4918962543
 21
17.0823911969
  0
LINE
  5
233
100
AcDbEntity
  8
0
100
AcDbLine
 62
7
  6
BYLAYER
 10
10.9919393815
 20
17.5823911969
 11
11.7419393815
 21
17.5823911969
  0
LINE
  5
234
100
AcDbEntity
  8
0
100
AcDbLine
 62
7
  6
BYLAYER
 10
25.2419393815
 20
17.5823911969
 11
25.9919393815
 21
17.5823911969
  0
LINE
  5
235
100
AcDbEntity
  8
0
100
AcDbLine
 62
7
  6
BYLAYER
 10
11.169555874
 20
12.5823911969
 11
11.169555874
 21
10.4723911969
  0
LINE
  5
236
100
AcDbEntity
  8
0
100
AcDbLine
 62
7
  6
BYLAYER
 10
11.3073169711
 20
10.4723911969
 11
11.3073169711
 21
12.5823911969
  0
LINE
  5
237
100
AcDbEntity
  8
0
100
AcDbLine
 62
7
  6
BYLAYER
 10
11.6019175084
 20
12.5823911969
 11
11.6019175084
 21
10.4723911969
  0
LINE
  5
238
100
AcDbEntity
  8
0
100
AcDbLine
 62
7
  6
BYLAYER
 10
11.6160835675
 20
12.5823911969
 11
11.6160835675
 21
10.4723911969
  0
LINE
  5
239
100
AcDbEntity
  8
0
100
AcDbLine
 62
7
  6
BYLAYER
 10
11.6957301885
 20
12.5823911969
 11
11.6957301885
 21
10.4723911969
  0
LINE
  5
23A
100
AcDbEntity
  8
0
100
AcDbLine
 62
7
  6
BYLAYER
 10
11.7419393815
 20
13.6329697704
 11
11.7419393815
 21
21.5823911969
  0
LINE
  5
23B
100
AcDbEntity
  8
0
100
AcDbLine
 62
7
  6
BYLAYER
 10
11.7919393815
 20
28.6632754885
 11
11.7919393815
 21
45.5503513003
  0
LINE
  5
23C
100
AcDbEntity
  8
0
100
AcDbLine
 62
7
  6
BYLAYER
 10
11.8706876405
 20
10.4723911969
 11
11.8706876405
 21
12.5823911969
  0
LINE
  5
23D
100
AcDbEntity
  8
0
100
AcDbLine
 62
7
  6
BYLAYER
 10
11.9919393815
 20
40.5504518347
 11
11.9919393815
 21
45.5504065212
  0
LINE
  5
23E
100
AcDbEntity
  8
0
100
AcDbLine
 62
7
  6
BYLAYER
 10
12.0419393815
 20
12.5824975028
 11
12.0419393815
 21
13.6329014541
  0
LINE
  5
23F
100
AcDbEntity
  8
0
100
AcDbLine
 62
7
  6
BYLAYER
 10
12.0419393815
 20
21.5823911969
 11
12.0419393815
 21
37.3759163217
  0
LINE
  5
240
100
AcDbEntity
  8
0
100
AcDbLine
 62
7
  6
BYLAYER
 10
12.1419393815
 20
4.7823911969
 11
12.1419393815
 21
6.7823911969
  0
LINE
  5
241
100
AcDbEntity
  8
0
100
AcDbLine
 62
7
  6
BYLAYER
 10
12.1419393815
 20
7.9823911969
 11
12.1419393815
 21
9.1323911969
  0
LINE
  5
242
100
AcDbEntity
  8
0
100
AcDbLine
 62
7
  6
BYLAYER
 10
12.4260426175
 20
12.5823911969
 11
12.4260426175
 21
10.4723911969
  0
LINE
  5
243
100
AcDbEntity
  8
0
100
AcDbLine
 62
7
  6
BYLAYER
 10
12.4919393815
 20
38.5504306365
 11
12.4919393815
 21
47.5504277194
  0
LINE
  5
244
100
AcDbEntity
  8
0
100
AcDbLine
 62
7
  6
BYLAYER
 10
12.5933947006
 20
10.4723911969
 11
12.5933947006
 21
12.5823911969
  0
LINE
  5
245
100
AcDbEntity
  8
0
100
AcDbLine
 62
7
  6
BYLAYER
 10
12.8919393815
 20
7.9823911969
 11
12.8919393815
 21
7.0823911969
  0
LINE
  5
246
100
AcDbEntity
  8
0
100
AcDbLine
 62
7
  6
BYLAYER
 10
12.9919393815
 20
9.1323911969
 11
12.9919393815
 21
10.4723911969
  0
LINE
  5
247
100
AcDbEntity
  8
0
100
AcDbLine
 62
7
  6
BYLAYER
 10
13.4419393815
 20
13.782974348
 11
13.4419393815
 21
13.6329014541
  0
LINE
  5
248
100
AcDbEntity
  8
0
100
AcDbLine
 62
7
  6
BYLAYER
 10
13.5419393815
 20
34.5794237537
 11
13.5419393815
 21
31.502601057
  0
LINE
  5
249
100
AcDbEntity
  8
0
100
AcDbLine
 62
7
  6
BYLAYER
 10
13.5419393815
 20
13.6004094845
 11
13.5419393815
 21
12.5824900143
  0
LINE
  5
24A
100
AcDbEntity
  8
0
100
AcDbLine
 62
7
  6
BYLAYER
 10
13.5419393815
 20
25.4997446049
 11
13.5419393815
 21
27.3222381931
  0
LINE
  5
24B
100
AcDbEntity
  8
0
100
AcDbLine
 62
7
  6
BYLAYER
 10
13.7419393815
 20
12.5823911969
 11
13.7419393815
 21
13.346759394
  0
LINE
  5
24C
100
AcDbEntity
  8
0
100
AcDbLine
 62
7
  6
BYLAYER
 10
14.0419393815
 20
23.4371670507
 11
14.0419393815
 21
25.5707124163
  0
LINE
  5
24D
100
AcDbEntity
  8
0
100
AcDbLine
 62
7
  6
BYLAYER
 10
14.0419393815
 20
29.1868910019
 11
14.0419393815
 21
31.5735688684
  0
LINE
  5
24E
100
AcDbEntity
  8
0
100
AcDbLine
 62
7
  6
BYLAYER
 10
11.7419393815
 20
21.0823911969
 11
25.2419393815
 21
21.0823911969
  0
LINE
  5
24F
100
AcDbEntity
  8
0
100
AcDbLine
 62
7
  6
BYLAYER
 10
14.9919393815
 20
22.0386774441
 11
14.9919393815
 21
21.5823911969
  0
LINE
  5
250
100
AcDbEntity
  8
0
100
AcDbLine
 62
7
  6
BYLAYER
 10
25.2419393815
 20
21.5823911969
 11
11.7419393815
 21
21.5823911969
  0
LINE
  5
251
100
AcDbEntity
  8
0
100
AcDbLine
 62
7
  6
BYLAYER
 10
12.1054477084
 20
22.0386774441
 11
24.8784310546
 21
22.0386774441
  0
LINE
  5
252
100
AcDbEntity
  8
0
100
AcDbLine
 62
7
  6
BYLAYER
 10
15.9919393815
 20
12.7094078507
 11
15.9919393815
 21
12.5823911969
  0
LINE
  5
253
100
AcDbEntity
  8
0
100
AcDbLine
 62
7
  6
BYLAYER
 10
16.2419393815
 20
25.5707124163
 11
16.2419393815
 21
29.1868910019
  0
LINE
  5
254
100
AcDbEntity
  8
0
100
AcDbLine
 62
7
  6
BYLAYER
 10
22.9419393815
 20
23.4371670507
 11
14.0419393815
 21
23.4371670507
  0
LINE
  5
255
100
AcDbEntity
  8
0
100
AcDbLine
 62
7
  6
BYLAYER
 10
10.4919393815
 20
30.5794307239
 11
10.6919393815
 21
30.3794307239
  0
LINE
  5
256
100
AcDbEntity
  8
0
100
AcDbLine
 62
7
  6
BYLAYER
 10
18.0919449569
 20
13.1182895817
 11
18.0919449569
 21
12.5823911969
  0
LINE
  5
257
100
AcDbEntity
  8
0
100
AcDbLine
 62
7
  6
BYLAYER
 10
14.0419393815
 20
25.5707124163
 11
22.9419393815
 21
25.5707124163
  0
LINE
  5
258
100
AcDbEntity
  8
0
100
AcDbLine
 62
7
  6
BYLAYER
 10
18.8919338061
 20
13.1182895817
 11
18.8919338061
 21
12.5823911969
  0
LINE
  5
259
100
AcDbEntity
  8
0
100
AcDbLine
 62
7
  6
BYLAYER
 10
16.2419393815
 20
26.781869481
 11
20.7419393815
 21
26.781869481
  0
LINE
  5
25A
100
AcDbEntity
  8
0
100
AcDbLine
 62
7
  6
BYLAYER
 10
13.5419393815
 20
27.3222381931
 11
12.0419393815
 21
27.3222381931
  0
LINE
  5
25B
100
AcDbEntity
  8
0
100
AcDbLine
 62
7
  6
BYLAYER
 10
23.4419393815
 20
27.3222381931
 11
24.9419393815
 21
27.3222381931
  0
LINE
  5
25C
100
AcDbEntity
  8
0
100
AcDbLine
 62
7
  6
BYLAYER
 10
20.7419393815
 20
29.1868910019
 11
20.7419393815
 21
25.5707124163
  0
LINE
  5
25D
100
AcDbEntity
  8
0
100
AcDbLine
 62
7
  6
BYLAYER
 10
20.9919393815
 20
12.5823911969
 11
20.9919393815
 21
12.7094078507
  0
LINE
  5
25E
100
AcDbEntity
  8
0
100
AcDbLine
 62
7
  6
BYLAYER
 10
14.0419393815
 20
27.7884013953
 11
16.2419393815
 21
27.7884013953
  0
LINE
  5
25F
100
AcDbEntity
  8
0
100
AcDbLine
 62
7
  6
BYLAYER
 10
20.7419393815
 20
27.7884013953
 11
22.9419393815
 21
27.7884013953
  0
LINE
  5
260
100
AcDbEntity
  8
0
100
AcDbLine
 62
7
  6
BYLAYER
 10
26.1919393815
 20
28.6632675217
 11
25.1919393815
 21
28.6632675217
  0
LINE
  5
261
100
AcDbEntity
  8
0
100
AcDbLine
 62
7
  6
BYLAYER
 10
11.7919393815
 20
28.6632675217
 11
10.7919393815
 21
28.6632675217
  0
LINE
  5
262
100
AcDbEntity
  8
0
100
AcDbLine
 62
7
  6
BYLAYER
 10
20.7419393815
 20
29.0349768691
 11
16.2419393815
 21
29.0349768691
  0
LINE
  5
263
100
AcDbEntity
  8
0
100
AcDbLine
 62
7
  6
BYLAYER
 10
22.9419393815
 20
29.1868910019
 11
20.7419393815
 21
29.1868910019
  0
LINE
  5
264
100
AcDbEntity
  8
0
100
AcDbLine
 62
7
  6
BYLAYER
 10
16.2419393815
 20
29.1868910019
 11
14.0419393815
 21
29.1868910019
  0
LINE
  5
265
100
AcDbEntity
  8
0
100
AcDbLine
 62
7
  6
BYLAYER
 10
21.9919393815
 20
22.0386774441
 11
21.9919393815
 21
21.5823911969
  0
LINE
  5
266
100
AcDbEntity
  8
0
100
AcDbLine
 62
7
  6
BYLAYER
 10
22.9419393815
 20
31.5735688684
 11
22.9419393815
 21
29.1868910019
  0
LINE
  5
267
100
AcDbEntity
  8
0
100
AcDbLine
 62
7
  6
BYLAYER
 10
22.9419393815
 20
25.5707124163
 11
22.9419393815
 21
23.4371670507
  0
LINE
  5
268
100
AcDbEntity
  8
0
100
AcDbLine
 62
7
  6
BYLAYER
 10
23.2419393815
 20
13.346759394
 11
23.2419393815
 21
12.5823911969
  0
LINE
  5
269
100
AcDbEntity
  8
0
100
AcDbLine
 62
7
  6
BYLAYER
 10
23.4419393815
 20
27.3222381931
 11
23.4419393815
 21
25.4997446049
  0
LINE
  5
26A
100
AcDbEntity
  8
0
100
AcDbLine
 62
7
  6
BYLAYER
 10
23.4419393815
 20
12.5824975028
 11
23.4419393815
 21
13.6004094845
  0
LINE
  5
26B
100
AcDbEntity
  8
0
100
AcDbLine
 62
7
  6
BYLAYER
 10
23.4419393815
 20
31.502601057
 11
23.4419393815
 21
34.5794231566
  0
LINE
  5
26C
100
AcDbEntity
  8
0
100
AcDbLine
 62
7
  6
BYLAYER
 10
26.1919393815
 20
30.2592228753
 11
25.1919393815
 21
30.2592228753
  0
LINE
  5
26D
100
AcDbEntity
  8
0
100
AcDbLine
 62
7
  6
BYLAYER
 10
11.7919393815
 20
30.2592228753
 11
10.7919393815
 21
30.2592228753
  0
LINE
  5
26E
100
AcDbEntity
  8
0
100
AcDbLine
 62
7
  6
BYLAYER
 10
10.6919393815
 20
30.3794307239
 11
10.7919393815
 21
30.3794307239
  0
LINE
  5
26F
100
AcDbEntity
  8
0
100
AcDbLine
 62
7
  6
BYLAYER
 10
11.7919393815
 20
30.3794307239
 11
12.0419393815
 21
30.3794307239
  0
LINE
  5
270
100
AcDbEntity
  8
0
100
AcDbLine
 62
7
  6
BYLAYER
 10
24.9419393815
 20
30.3794307239
 11
25.1919393815
 21
30.3794307239
  0
LINE
  5
271
100
AcDbEntity
  8
0
100
AcDbLine
 62
7
  6
BYLAYER
 10
26.7919393815
 20
30.6294307239
 11
26.1919393815
 21
30.6294307239
  0
LINE
  5
272
100
AcDbEntity
  8
0
100
AcDbLine
 62
7
  6
BYLAYER
 10
23.5419393815
 20
13.6329014541
 11
23.5419393815
 21
13.782974348
  0
LINE
  5
273
100
AcDbEntity
  8
0
100
AcDbLine
 62
7
  6
BYLAYER
 10
23.9919393815
 20
9.1323911969
 11
23.9919393815
 21
10.4723911969
  0
LINE
  5
274
100
AcDbEntity
  8
0
100
AcDbLine
 62
7
  6
BYLAYER
 10
24.0919393815
 20
7.9823911969
 11
24.0919393815
 21
7.0823911969
  0
LINE
  5
275
100
AcDbEntity
  8
0
100
AcDbLine
 62
7
  6
BYLAYER
 10
24.3904840623
 20
12.5823911969
 11
24.3904840623
 21
10.4723911969
  0
LINE
  5
276
100
AcDbEntity
  8
0
100
AcDbLine
 62
7
  6
BYLAYER
 10
24.4919393815
 20
47.5504273643
 11
24.4919393815
 21
38.5504309917
  0
LINE
  5
277
100
AcDbEntity
  8
0
100
AcDbLine
 62
7
  6
BYLAYER
 10
24.5578361455
 20
10.4723911969
 11
24.5578361455
 21
12.5823911969
  0
LINE
  5
278
100
AcDbEntity
  8
0
100
AcDbLine
 62
7
  6
BYLAYER
 10
24.8419393815
 20
4.7823911969
 11
24.8419393815
 21
6.7823911969
  0
LINE
  5
279
100
AcDbEntity
  8
0
100
AcDbLine
 62
7
  6
BYLAYER
 10
24.8419393815
 20
7.9823911969
 11
24.8419393815
 21
9.1323911969
  0
LINE
  5
27A
100
AcDbEntity
  8
0
100
AcDbLine
 62
7
  6
BYLAYER
 10
24.9419393815
 20
13.6329014541
 11
24.9419393815
 21
12.5824900143
  0
LINE
  5
27B
100
AcDbEntity
  8
0
100
AcDbLine
 62
7
  6
BYLAYER
 10
24.9419393815
 20
21.5823911969
 11
24.9419393815
 21
37.3759163217
  0
LINE
  5
27C
100
AcDbEntity
  8
0
100
AcDbLine
 62
7
  6
BYLAYER
 10
24.9919393815
 20
45.5504095391
 11
24.9919393815
 21
40.5504488168
  0
LINE
  5
27D
100
AcDbEntity
  8
0
100
AcDbLine
 62
7
  6
BYLAYER
 10
12.0419393815
 20
31.0442556895
 11
12.6634309865
 21
31.0442556895
  0
LINE
  5
27E
100
AcDbEntity
  8
0
100
AcDbLine
 62
7
  6
BYLAYER
 10
24.3204477764
 20
31.0442556895
 11
24.9419393815
 21
31.0442556895
  0
LINE
  5
27F
100
AcDbEntity
  8
0
100
AcDbLine
 62
7
  6
BYLAYER
 10
14.0419393815
 20
31.5735688684
 11
22.9419393815
 21
31.5735688684
  0
LINE
  5
280
100
AcDbEntity
  8
0
100
AcDbLine
 62
7
  6
BYLAYER
 10
10.4919393815
 20
42.000429178
 11
10.6919393815
 21
41.800429178
  0
LINE
  5
281
100
AcDbEntity
  8
0
100
AcDbLine
 62
7
  6
BYLAYER
 10
25.1131911225
 20
12.5823911969
 11
25.1131911225
 21
10.4723911969
  0
LINE
  5
282
100
AcDbEntity
  8
0
100
AcDbLine
 62
7
  6
BYLAYER
 10
25.1919393815
 20
28.6632755124
 11
25.1919393815
 21
45.5503660353
  0
LINE
  5
283
100
AcDbEntity
  8
0
100
AcDbLine
 62
7
  6
BYLAYER
 10
25.2419393815
 20
21.5823911969
 11
25.2419393815
 21
13.6329698574
  0
LINE
  5
284
100
AcDbEntity
  8
0
100
AcDbLine
 62
7
  6
BYLAYER
 10
25.2881485745
 20
12.5823911969
 11
25.2881485745
 21
10.4723911969
  0
LINE
  5
285
100
AcDbEntity
  8
0
100
AcDbLine
 62
7
  6
BYLAYER
 10
25.3677951955
 20
12.5823911969
 11
25.3677951955
 21
10.4723911969
  0
LINE
  5
286
100
AcDbEntity
  8
0
100
AcDbLine
 62
7
  6
BYLAYER
 10
25.3819612546
 20
12.5823911969
 11
25.3819612546
 21
10.4723911969
  0
LINE
  5
287
100
AcDbEntity
  8
0
100
AcDbLine
 62
7
  6
BYLAYER
 10
25.5419393815
 20
16.0823863304
 11
25.5419393815
 21
14.0823960633
  0
LINE
  5
288
100
AcDbEntity
  8
0
100
AcDbLine
 62
7
  6
BYLAYER
 10
25.6765617919
 20
12.5823911969
 11
25.6765617919
 21
10.4723911969
  0
LINE
  5
289
100
AcDbEntity
  8
0
100
AcDbLine
 62
7
  6
BYLAYER
 10
25.8143228889
 20
12.5823911969
 11
25.8143228889
 21
10.4723911969
  0
LINE
  5
28A
100
AcDbEntity
  8
0
100
AcDbLine
 62
7
  6
BYLAYER
 10
25.8414888681
 20
12.5823911969
 11
25.8414888681
 21
10.4723911969
  0
LINE
  5
28B
100
AcDbEntity
  8
0
100
AcDbLine
 62
7
  6
BYLAYER
 10
25.8428523955
 20
12.5823911969
 11
25.8428523955
 21
10.4723911969
  0
LINE
  5
28C
100
AcDbEntity
  8
0
100
AcDbLine
 62
7
  6
BYLAYER
 10
26.1919393815
 20
28.6632754885
 11
26.1919393815
 21
45.5503513003
  0
LINE
  5
28D
100
AcDbEntity
  8
0
100
AcDbLine
 62
7
  6
BYLAYER
 10
26.4919393815
 20
17.0794198009
 11
26.4919393815
 21
12.5823911969
  0
LINE
  5
28E
100
AcDbEntity
  8
0
100
AcDbLine
 62
7
  6
BYLAYER
 10
23.2700875325
 20
13.4599022628
 11
23.2419393815
 21
13.346759394
  0
LINE
  5
28F
100
AcDbEntity
  8
0
100
AcDbLine
 62
7
  6
BYLAYER
 10
26.7919393815
 20
32.6294307239
 11
26.1919393815
 21
32.6294307239
  0
LINE
  5
290
100
AcDbEntity
  8
0
100
AcDbLine
 62
7
  6
BYLAYER
 10
10.6919393815
 20
32.8794307239
 11
10.7919393815
 21
32.8794307239
  0
LINE
  5
291
100
AcDbEntity
  8
0
100
AcDbLine
 62
7
  6
BYLAYER
 10
11.7919393815
 20
32.8794307239
 11
12.0419393815
 21
32.8794307239
  0
LINE
  5
292
100
AcDbEntity
  8
0
100
AcDbLine
 62
7
  6
BYLAYER
 10
13.5419393815
 20
32.8794307239
 11
23.4419393815
 21
32.8794307239
  0
LINE
  5
293
100
AcDbEntity
  8
0
100
AcDbLine
 62
7
  6
BYLAYER
 10
24.9419393815
 20
32.8794307239
 11
25.1919393815
 21
32.8794307239
  0
LINE
  5
294
100
AcDbEntity
  8
0
100
AcDbLine
 62
7
  6
BYLAYER
 10
26.7919393815
 20
44.0503887641
 11
26.7919393815
 21
42.0504695918
  0
LINE
  5
295
100
AcDbEntity
  8
0
100
AcDbLine
 62
7
  6
BYLAYER
 10
26.7919393815
 20
32.62939031
 11
26.7919393815
 21
30.6294711378
  0
LINE
  5
296
100
AcDbEntity
  8
0
100
AcDbLine
 62
7
  6
BYLAYER
 10
12.0419393815
 20
34.5794307239
 11
13.5419393815
 21
34.5794307239
  0
LINE
  5
297
100
AcDbEntity
  8
0
100
AcDbLine
 62
7
  6
BYLAYER
 10
23.4419393815
 20
34.5794307239
 11
24.9419393815
 21
34.5794307239
  0
LINE
  5
298
100
AcDbEntity
  8
0
100
AcDbLine
 62
7
  6
BYLAYER
 10
12.0419393815
 20
37.3759163217
 11
24.9419393815
 21
37.3759163217
  0
LINE
  5
299
100
AcDbEntity
  8
0
100
AcDbLine
 62
7
  6
BYLAYER
 10
24.9419393815
 20
37.7375341802
 11
12.0419393815
 21
37.7375341802
  0
LINE
  5
29A
100
AcDbEntity
  8
0
100
AcDbLine
 62
7
  6
BYLAYER
 10
24.4919393815
 20
38.550429178
 11
12.4919393815
 21
38.550429178
  0
LINE
  5
29B
100
AcDbEntity
  8
0
100
AcDbLine
 62
7
  6
BYLAYER
 10
24.9919393815
 20
40.550429178
 11
24.4919393815
 21
40.550429178
  0
LINE
  5
29C
100
AcDbEntity
  8
0
100
AcDbLine
 62
7
  6
BYLAYER
 10
11.9919393815
 20
40.550429178
 11
12.4919393815
 21
40.550429178
  0
LINE
  5
29D
100
AcDbEntity
  8
0
100
AcDbLine
 62
7
  6
BYLAYER
 10
10.6919393815
 20
41.800429178
 11
10.7919393815
 21
41.800429178
  0
LINE
  5
29E
100
AcDbEntity
  8
0
100
AcDbLine
 62
7
  6
BYLAYER
 10
11.7919393815
 20
41.800429178
 11
11.9919393815
 21
41.800429178
  0
LINE
  5
29F
100
AcDbEntity
  8
0
100
AcDbLine
 62
7
  6
BYLAYER
 10
24.9919393815
 20
41.800429178
 11
25.1919393815
 21
41.800429178
  0
LINE
  5
2A0
100
AcDbEntity
  8
0
100
AcDbLine
 62
7
  6
BYLAYER
 10
26.7919393815
 20
42.050429178
 11
26.1919393815
 21
42.050429178
  0
LINE
  5
2A1
100
AcDbEntity
  8
0
100
AcDbLine
 62
7
  6
BYLAYER
 10
10.7919393815
 20
42.1463845316
 11
11.7919393815
 21
42.1463845316
  0
LINE
  5
2A2
100
AcDbEntity
  8
0
100
AcDbLine
 62
7
  6
BYLAYER
 10
25.1919393815
 20
42.1463845316
 11
26.1919393815
 21
42.1463845316
  0
LINE
  5
2A3
100
AcDbEntity
  8
0
100
AcDbLine
 62
7
  6
BYLAYER
 10
26.7919393815
 20
44.050429178
 11
26.1919393815
 21
44.050429178
  0
LINE
  5
2A4
100
AcDbEntity
  8
0
100
AcDbLine
 62
7
  6
BYLAYER
 10
10.6919393815
 20
44.300429178
 11
10.7919393815
 21
44.300429178
  0
LINE
  5
2A5
100
AcDbEntity
  8
0
100
AcDbLine
 62
7
  6
BYLAYER
 10
11.7919393815
 20
44.300429178
 11
11.9919393815
 21
44.300429178
  0
LINE
  5
2A6
100
AcDbEntity
  8
0
100
AcDbLine
 62
7
  6
BYLAYER
 10
24.9919393815
 20
44.300429178
 11
25.1919393815
 21
44.300429178
  0
LINE
  5
2A7
100
AcDbEntity
  8
0
100
AcDbLine
 62
7
  6
BYLAYER
 10
26.1919393815
 20
45.550429178
 11
25.1919393815
 21
45.550429178
  0
LINE
  5
2A8
100
AcDbEntity
  8
0
100
AcDbLine
 62
7
  6
BYLAYER
 10
24.9919393815
 20
45.550429178
 11
24.4919393815
 21
45.550429178
  0
LINE
  5
2A9
100
AcDbEntity
  8
0
100
AcDbLine
 62
7
  6
BYLAYER
 10
11.7919393815
 20
45.550429178
 11
10.7919393815
 21
45.550429178
  0
LINE
  5
2AA
100
AcDbEntity
  8
0
100
AcDbLine
 62
7
  6
BYLAYER
 10
11.9919393815
 20
45.550429178
 11
12.4919393815
 21
45.550429178
  0
LINE
  5
2AB
100
AcDbEntity
  8
0
100
AcDbLine
 62
7
  6
BYLAYER
 10
24.4919393815
 20
47.550429178
 11
12.4919393815
 21
47.550429178
  0
ARC
  5
2AC
100
AcDbEntity
  8
0
100
AcDbCircle
 62
7
  6
BYLAYER
 10
12.0418067481
 20
34.3157781416
 40
3.4217560412
100
AcDbArc
 50
89.9977791123
 51
94.197685733
  0
ARC
  5
2AD
100
AcDbEntity
  8
0
100
AcDbCircle
 62
7
  6
BYLAYER
 10
24.943028449
 20
34.3418897414
 40
3.3956446134
100
AcDbArc
 50
85.7861589754
 51
90.0183761793
  0
ARC
  5
2AE
100
AcDbEntity
  8
0
100
AcDbCircle
 62
7
  6
BYLAYER
 10
12.6419393815
 20
4.7823911969
 40
0.5
100
AcDbArc
 50
180.0
 51
270.0
  0
ARC
  5
2AF
100
AcDbEntity
  8
0
100
AcDbCircle
 62
7
  6
BYLAYER
 10
24.3419393815
 20
4.7823911969
 40
0.5
100
AcDbArc
 50
270.0
 51
360.0
  0
ARC
  5
2B0
100
AcDbEntity
  8
0
100
AcDbCircle
 62
7
  6
BYLAYER
 10
12.5919393815
 20
7.0823911969
 40
0.3
100
AcDbArc
 50
270.0001024082
 51
360.0
  0
ARC
  5
2B1
100
AcDbEntity
  8
0
100
AcDbCircle
 62
7
  6
BYLAYER
 10
24.3919393815
 20
7.0823911969
 40
0.3
100
AcDbArc
 50
180.0
 51
269.9998975918
  0
ARC
  5
2B2
100
AcDbEntity
  8
0
100
AcDbCircle
 62
7
  6
BYLAYER
 10
23.5419393815
 20
13.3329014541
 40
0.3
100
AcDbArc
 50
90.0
 51
154.9567369428
  0
ARC
  5
2B3
100
AcDbEntity
  8
0
100
AcDbCircle
 62
7
  6
BYLAYER
 10
13.4419393815
 20
13.3329014541
 40
0.3
100
AcDbArc
 50
25.0432630572
 51
90.0
  0
SPLINE
  5
2B4
100
AcDbEntity
  8
0
100
AcDbSpline
 62
7
  6
BYLAYER
 70
0
 71
3
 72
17
 73
13
 74
0
 42
0.0000001
 43
0.0000001
 44
0.0000000001
 40
0.0
 40
0.0
 40
0.0
 40
0.0
 40
0.1728994155
 40
0.3403706118
 40
0.4964253165
 40
0.636501062
 40
0.7569824616
 40
0.855871407
 40
0.8975593236
 40
0.9347073941
 40
0.9683579472
 40
1.0
 40
1.0
 40
1.0
 40
1.0
 10
12.0419393815
 20
29.9173050863
 30
0.0
 10
12.0256850351
 20
29.9173050863
 30
0.0
 10
11.9936751225
 20
29.91617517
 30
0.0
 10
11.9472307958
 20
29.9111831593
 30
0.0
 10
11.9043573251
 20
29.9030636851
 30
0.0
 10
11.866661971
 20
29.8921411282
 30
0.0
 10
11.8354920989
 20
29.8788759674
 30
0.0
 10
11.8146505127
 20
29.8654880198
 30
0.0
 10
11.8027359692
 20
29.8536828695
 30
0.0
 10
11.7965965042
 20
29.8449897685
 30
0.0
 10
11.7928147218
 20
29.8360402791
 30
0.0
 10
11.7919393815
 20
29.8298753043
 30
0.0
 10
11.7919393815
 20
29.8269006217
 30
0.0
  0
SPLINE
  5
2B5
100
AcDbEntity
  8
0
100
AcDbSpline
 62
7
  6
BYLAYER
 70
0
 71
3
 72
17
 73
13
 74
0
 42
0.0000001
 43
0.0000001
 44
0.0000000001
 40
0.0
 40
0.0
 40
0.0
 40
0.0
 40
0.0316420652
 40
0.0652926576
 40
0.1024407813
 40
0.1441287518
 40
0.2430178073
 40
0.3634992573
 40
0.5035750506
 40
0.6596296987
 40
0.8271006823
 40
1.0
 40
1.0
 40
1.0
 40
1.0
 10
25.1919393815
 20
29.8269006217
 30
0.0
 10
25.1919393815
 20
29.8298753055
 30
0.0
 10
25.1910640358
 20
29.836040285
 30
0.0
 10
25.1872822411
 20
29.8449897794
 30
0.0
 10
25.181142768
 20
29.8536828908
 30
0.0
 10
25.1692282113
 20
29.8654880571
 30
0.0
 10
25.1483865967
 20
29.8788759994
 30
0.0
 10
25.1172167049
 20
29.8921411596
 30
0.0
 10
25.0795213442
 20
29.9030637077
 30
0.0
 10
25.036647893
 20
29.9111831671
 30
0.0
 10
24.9902036017
 20
29.9161751786
 30
0.0
 10
24.9581937185
 20
29.9173050863
 30
0.0
 10
24.9419393815
 20
29.9173050863
 30
0.0
  0
SPLINE
  5
2B6
100
AcDbEntity
  8
0
100
AcDbSpline
 62
7
  6
BYLAYER
 70
0
 71
3
 72
17
 73
13
 74
0
 42
0.0000001
 43
0.0000001
 44
0.0000000001
 40
0.0
 40
0.0
 40
0.0
 40
0.0
 40
0.0316420652
 40
0.0652926576
 40
0.1024407813
 40
0.1441287518
 40
0.2430178073
 40
0.3634992573
 40
0.5035750506
 40
0.6596296987
 40
0.8271006823
 40
1.0
 40
1.0
 40
1.0
 40
1.0
 10
11.7919393815
 20
37.285511857
 30
0.0
 10
11.7919393815
 20
37.2884865408
 30
0.0
 10
11.7928147272
 20
37.2946515203
 30
0.0
 10
11.7965965219
 20
37.3036010147
 30
0.0
 10
11.8027359949
 20
37.3122941261
 30
0.0
 10
11.8146505517
 20
37.3240992924
 30
0.0
 10
11.8354921663
 20
37.3374872347
 30
0.0
 10
11.8666620581
 20
37.3507523949
 30
0.0
 10
11.9043574188
 20
37.361674943
 30
0.0
 10
11.9472308699
 20
37.3697944024
 30
0.0
 10
11.9936751612
 20
37.3747864139
 30
0.0
 10
12.0256850445
 20
37.3759163217
 30
0.0
 10
12.0419393815
 20
37.3759163217
 30
0.0
  0
SPLINE
  5
2B7
100
AcDbEntity
  8
0
100
AcDbSpline
 62
7
  6
BYLAYER
 70
0
 71
3
 72
17
 73
13
 74
0
 42
0.0000001
 43
0.0000001
 44
0.0000000001
 40
0.0
 40
0.0
 40
0.0
 40
0.0
 40
0.1728994155
 40
0.3403706118
 40
0.4964253165
 40
0.636501062
 40
0.7569824616
 40
0.855871407
 40
0.8975593236
 40
0.9347073941
 40
0.9683579472
 40
1.0
 40
1.0
 40
1.0
 40
1.0
 10
24.9419393815
 20
37.3759163217
 30
0.0
 10
24.9581937279
 20
37.3759163217
 30
0.0
 10
24.9902036404
 20
37.3747864053
 30
0.0
 10
25.0366479672
 20
37.3697943946
 30
0.0
 10
25.0795214379
 20
37.3616749204
 30
0.0
 10
25.1172167919
 20
37.3507523635
 30
0.0
 10
25.1483866641
 20
37.3374872028
 30
0.0
 10
25.1692282503
 20
37.3240992551
 30
0.0
 10
25.1811427937
 20
37.3122941048
 30
0.0
 10
25.1872822587
 20
37.3036010038
 30
0.0
 10
25.1910640412
 20
37.2946515145
 30
0.0
 10
25.1919393815
 20
37.2884865396
 30
0.0
 10
25.1919393815
 20
37.285511857
 30
0.0
  0
SPLINE
  5
2B8
100
AcDbEntity
  8
0
100
AcDbSpline
 62
7
  6
BYLAYER
 70
0
 71
3
 72
9
 73
5
 74
0
 42
0.0000001
 43
0.0000001
 44
0.0000000001
 40
0.0
 40
0.0
 40
0.0
 40
0.0
 40
0.4840740533
 40
1.0
 40
1.0
 40
1.0
 40
1.0
 10
13.7419393815
 20
13.346759394
 30
0.0
 10
13.7419393815
 20
13.365684385
 30
0.0
 10
13.7361970603
 20
13.4048487678
 30
0.0
 10
13.7222822627
 20
13.4416186426
 30
0.0
 10
13.7137440606
 20
13.4598926139
 30
0.0
  0
LINE
  5
2B9
100
AcDbEntity
  8
0
100
AcDbLine
 62
7
  6
BYLAYER
 10
26.491896253
 20
17.0823911969
 11
25.9919393815
 21
17.5823911969
  0
LINE
  5
2BA
100
AcDbEntity
  8
0
100
AcDbLine
 62
7
  6
BYLAYER
 10
10.49198251
 20
17.0823911969
 11
10.9919393815
 21
17.5823911969
  0
SPLINE
  5
2BB
100
AcDbEntity
  8
0
100
AcDbSpline
 62
7
  6
BYLAYER
 70
0
 71
3
 72
19
 73
15
 74
0
 42
0.0000001
 43
0.0000001
 44
0.0000000001
 40
0.0
 40
0.0
 40
0.0
 40
0.0
 40
0.1788940886
 40
0.3507832082
 40
0.5098273538
 40
0.6518832602
 40
0.7155429941
 40
0.7737932065
 40
0.8263218583
 40
0.8728569435
 40
0.9132388149
 40
0.947492046
 40
0.9760306854
 40
1.0
 40
1.0
 40
1.0
 40
1.0
 10
16.9919393815
 20
13.1182895817
 30
0.0
 10
16.92450994
 20
13.1182895817
 30
0.0
 10
16.7921607486
 20
13.1105445475
 30
0.0
 10
16.6024802083
 20
13.0773919795
 30
0.0
 10
16.4309423917
 20
13.0276162451
 30
0.0
 10
16.3034041898
 20
12.9754832962
 30
0.0
 10
16.2148272033
 20
12.9300639161
 30
0.0
 10
16.1581656692
 20
12.8966229203
 30
0.0
 10
16.1091762158
 20
12.8631288462
 30
0.0
 10
16.068172341
 20
12.8301424248
 30
0.0
 10
16.035472685
 20
12.7981275308
 30
0.0
 10
16.0113640262
 20
12.7674145237
 30
0.0
 10
15.9960705985
 20
12.738248786
 30
0.0
 10
15.9919393815
 20
12.718442456
 30
0.0
 10
15.9919393815
 20
12.7094078507
 30
0.0
  0
SPLINE
  5
2BC
100
AcDbEntity
  8
0
100
AcDbSpline
 62
7
  6
BYLAYER
 70
0
 71
3
 72
20
 73
16
 74
0
 42
0.0000001
 43
0.0000001
 44
0.0000000001
 40
0.0
 40
0.0
 40
0.0
 40
0.0
 40
0.0239626279
 40
0.0524874248
 40
0.0688697738
 40
0.0867551884
 40
0.1271232257
 40
0.1736493991
 40
0.2261713877
 40
0.2844182243
 40
0.3480769504
 40
0.4901415378
 40
0.6492008458
 40
0.8211078838
 40
1.0
 40
1.0
 40
1.0
 40
1.0
 10
20.9919393815
 20
12.7094078507
 30
0.0
 10
20.9919393815
 20
12.7184401575
 30
0.0
 10
20.9878153356
 20
12.7382380891
 30
0.0
 10
20.9756754953
 20
12.761399821
 30
0.0
 10
20.9620315576
 20
12.7807603048
 30
0.0
 10
20.9440251325
 20
12.802411598
 30
0.0
 10
20.9157322612
 20
12.8301066326
 30
0.0
 10
20.8747477079
 20
12.8630898269
 30
0.0
 10
20.8257628976
 20
12.8965850363
 30
0.0
 10
20.7691053033
 20
12.9300262525
 30
0.0
 10
20.6805245593
 20
12.9754480462
 30
0.0
 10
20.5529768124
 20
13.0275871365
 30
0.0
 10
20.3814267786
 20
13.0773946706
 30
0.0
 10
20.1917274764
 20
13.1105398105
 30
0.0
 10
20.0593697357
 20
13.1182895817
 30
0.0
 10
19.9919393815
 20
13.1182895817
 30
0.0
  0
SPLINE
  5
2BD
100
AcDbEntity
  8
0
100
AcDbSpline
 62
7
  6
BYLAYER
 70
0
 71
3
 72
9
 73
5
 74
0
 42
0.0000001
 43
0.0000001
 44
0.0000000001
 40
0.0
 40
0.0
 40
0.0
 40
0.0
 40
0.4929367953
 40
1.0
 40
1.0
 40
1.0
 40
1.0
 10
13.5906980501
 20
13.6324650933
 30
0.0
 10
13.5672875693
 20
13.6581791564
 30
0.0
 10
13.5179666587
 20
13.7086662557
 30
0.0
 10
13.467413433
 20
13.7578618257
 30
0.0
 10
13.4419393815
 20
13.782974348
 30
0.0
  0
SPLINE
  5
2BE
100
AcDbEntity
  8
0
100
AcDbSpline
 62
7
  6
BYLAYER
 70
0
 71
3
 72
11
 73
7
 74
0
 42
0.0000001
 43
0.0000001
 44
0.0000000001
 40
0.0
 40
0.0
 40
0.0
 40
0.0
 40
0.2673581142
 40
0.5266516543
 40
0.7725709149
 40
1.0
 40
1.0
 40
1.0
 40
1.0
 10
23.5419393815
 20
13.782974348
 30
0.0
 10
23.51501881
 20
13.7564358348
 30
0.0
 10
23.4616264254
 20
13.7045382789
 30
0.0
 10
23.3855514358
 20
13.6260655459
 30
0.0
 10
23.3193090064
 20
13.5462711272
 30
0.0
 10
23.2837404885
 20
13.4890286586
 30
0.0
 10
23.2701350255
 20
13.4598921028
 30
0.0
  0
SPLINE
  5
2BF
100
AcDbEntity
  8
0
100
AcDbSpline
 62
7
  6
BYLAYER
 70
0
 71
3
 72
10
 73
6
 74
0
 42
0.0000001
 43
0.0000001
 44
0.0000000001
 40
0.0
 40
0.0
 40
0.0
 40
0.0
 40
0.2343046596
 40
0.479990735
 40
1.0
 40
1.0
 40
1.0
 40
1.0
 10
13.7137440606
 20
13.4598926139
 30
0.0
 10
13.7067141583
 20
13.4749384316
 30
0.0
 10
13.6903710704
 20
13.5048700547
 30
0.0
 10
13.6506685887
 20
13.5636630411
 30
0.0
 10
13.6155107295
 20
13.6052108063
 30
0.0
 10
13.5906980501
 20
13.6324650933
 30
0.0
  0
SPLINE
  5
2C0
100
AcDbEntity
  8
0
100
AcDbSpline
 62
7
  6
BYLAYER
 70
0
 71
3
 72
15
 73
11
 74
0
 42
0.0000001
 43
0.0000001
 44
0.0000000001
 40
0.0
 40
0.0
 40
0.0
 40
0.0
 40
0.1291545384
 40
0.257913712
 40
0.3853376541
 40
0.5112126276
 40
0.6353858516
 40
0.7579507415
 40
0.8794224036
 40
1.0
 40
1.0
 40
1.0
 40
1.0
 10
22.9419393815
 20
27.7884013953
 30
0.0
 10
22.9745646811
 20
27.7884013953
 30
0.0
 10
23.0398670263
 20
27.7823806686
 30
0.0
 10
23.1340736407
 20
27.7558690295
 30
0.0
 10
23.2210180565
 20
27.7126467115
 30
0.0
 10
23.2972596917
 20
27.6544056746
 30
0.0
 10
23.3599927977
 20
27.5834114349
 30
0.0
 10
23.4066915574
 20
27.5022069657
 30
0.0
 10
23.4354014076
 20
27.4140248425
 30
0.0
 10
23.4419393815
 20
27.3526968998
 30
0.0
 10
23.4419393815
 20
27.3222381931
 30
0.0
  0
SPLINE
  5
2C1
100
AcDbEntity
  8
0
100
AcDbSpline
 62
7
  6
BYLAYER
 70
0
 71
3
 72
19
 73
15
 74
0
 42
0.0000001
 43
0.0000001
 44
0.0000000001
 40
0.0
 40
0.0
 40
0.0
 40
0.0
 40
0.1291702175
 40
0.1936540747
 40
0.2578746505
 40
0.3852330263
 40
0.4484235587
 40
0.5111935668
 40
0.5735350456
 40
0.6354543855
 40
0.6969713503
 40
0.7581152457
 40
0.8794083483
 40
1.0
 40
1.0
 40
1.0
 40
1.0
 10
22.9419393815
 20
25.5707124163
 30
0.0
 10
23.0725366857
 20
25.5707124163
 30
0.0
 10
23.2689472828
 20
25.55270332
 30
0.0
 10
23.5231139262
 20
25.4933760155
 30
0.0
 10
23.769011552
 20
25.4114240437
 30
0.0
 10
24.0012786166
 20
25.2959226723
 30
0.0
 10
24.21225004
 20
25.1501680764
 30
0.0
 10
24.3579350419
 20
25.0271148195
 30
0.0
 10
24.4900221079
 20
24.8913740333
 30
0.0
 10
24.6071701301
 20
24.7441544274
 30
0.0
 10
24.7083290673
 20
24.5869368123
 30
0.0
 10
24.820178492
 20
24.3666975034
 30
0.0
 10
24.9159867762
 20
24.0732667115
 30
0.0
 10
24.9419393815
 20
23.8279835689
 30
0.0
 10
24.9419393815
 20
23.7060596074
 30
0.0
  0
SPLINE
  5
2C2
100
AcDbEntity
  8
0
100
AcDbSpline
 62
7
  6
BYLAYER
 70
0
 71
3
 72
19
 73
15
 74
0
 42
0.0000001
 43
0.0000001
 44
0.0000000001
 40
0.0
 40
0.0
 40
0.0
 40
0.0
 40
0.1205916517
 40
0.2418847543
 40
0.3030286497
 40
0.3645456145
 40
0.4264649544
 40
0.4888064332
 40
0.5515764413
 40
0.6147669737
 40
0.7421253495
 40
0.8063459253
 40
0.8708297825
 40
1.0
 40
1.0
 40
1.0
 40
1.0
 10
12.0419393815
 20
23.7060596074
 30
0.0
 10
12.0419393815
 20
23.8279835689
 30
0.0
 10
12.0678919868
 20
24.0732667115
 30
0.0
 10
12.1637002709
 20
24.3666975034
 30
0.0
 10
12.2755496957
 20
24.5869368123
 30
0.0
 10
12.3767086328
 20
24.7441544274
 30
0.0
 10
12.4938566551
 20
24.8913740333
 30
0.0
 10
12.6259437211
 20
25.0271148195
 30
0.0
 10
12.771628723
 20
25.1501680764
 30
0.0
 10
12.9826001464
 20
25.2959226723
 30
0.0
 10
13.214867211
 20
25.4114240437
 30
0.0
 10
13.4607648368
 20
25.4933760155
 30
0.0
 10
13.7149314802
 20
25.55270332
 30
0.0
 10
13.9113420772
 20
25.5707124163
 30
0.0
 10
14.0419393815
 20
25.5707124163
 30
0.0
  0
SPLINE
  5
2C3
100
AcDbEntity
  8
0
100
AcDbSpline
 62
7
  6
BYLAYER
 70
0
 71
3
 72
15
 73
11
 74
0
 42
0.0000001
 43
0.0000001
 44
0.0000000001
 40
0.0
 40
0.0
 40
0.0
 40
0.0
 40
0.1205776696
 40
0.2420494895
 40
0.3646144546
 40
0.4887876809
 40
0.6146626605
 40
0.7420865317
 40
0.8708455388
 40
1.0
 40
1.0
 40
1.0
 40
1.0
 10
13.5419393815
 20
27.3222381931
 30
0.0
 10
13.5419393815
 20
27.3526969183
 30
0.0
 10
13.5484774024
 20
27.414024914
 30
0.0
 10
13.5771872547
 20
27.5022071178
 30
0.0
 10
13.6238860979
 20
27.5834116125
 30
0.0
 10
13.6866192474
 20
27.6544058386
 30
0.0
 10
13.7628608969
 20
27.7126468341
 30
0.0
 10
13.8498052819
 20
27.7558690739
 30
0.0
 10
13.9440118135
 20
27.7823807126
 30
0.0
 10
14.0093141014
 20
27.7884013953
 30
0.0
 10
14.0419393815
 20
27.7884013953
 30
0.0
  0
SPLINE
  5
2C4
100
AcDbEntity
  8
0
100
AcDbSpline
 62
7
  6
BYLAYER
 70
0
 71
3
 72
19
 73
15
 74
0
 42
0.0000001
 43
0.0000001
 44
0.0000000001
 40
0.0
 40
0.0
 40
0.0
 40
0.0
 40
0.1205916517
 40
0.2418847543
 40
0.3030286497
 40
0.3645456145
 40
0.4264649544
 40
0.4888064332
 40
0.5515764413
 40
0.6147669737
 40
0.7421253495
 40
0.8063459253
 40
0.8708297825
 40
1.0
 40
1.0
 40
1.0
 40
1.0
 10
12.0419393815
 20
29.7089160596
 30
0.0
 10
12.0419393815
 20
29.8308400211
 30
0.0
 10
12.0678919868
 20
30.0761231637
 30
0.0
 10
12.1637002709
 20
30.3695539555
 30
0.0
 10
12.2755496957
 20
30.5897932645
 30
0.0
 10
12.3767086328
 20
30.7470108796
 30
0.0
 10
12.4938566551
 20
30.8942304855
 30
0.0
 10
12.6259437211
 20
31.0299712716
 30
0.0
 10
12.771628723
 20
31.1530245286
 30
0.0
 10
12.9826001464
 20
31.2987791245
 30
0.0
 10
13.214867211
 20
31.4142804959
 30
0.0
 10
13.4607648368
 20
31.4962324676
 30
0.0
 10
13.7149314802
 20
31.5555597721
 30
0.0
 10
13.9113420772
 20
31.5735688684
 30
0.0
 10
14.0419393815
 20
31.5735688684
 30
0.0
  0
SPLINE
  5
2C5
100
AcDbEntity
  8
0
100
AcDbSpline
 62
7
  6
BYLAYER
 70
0
 71
3
 72
19
 73
15
 74
0
 42
0.0000001
 43
0.0000001
 44
0.0000000001
 40
0.0
 40
0.0
 40
0.0
 40
0.0
 40
0.1291702175
 40
0.1936540747
 40
0.2578746505
 40
0.3852330263
 40
0.4484235587
 40
0.5111935668
 40
0.5735350456
 40
0.6354543855
 40
0.6969713503
 40
0.7581152457
 40
0.8794083483
 40
1.0
 40
1.0
 40
1.0
 40
1.0
 10
22.9419393815
 20
31.5735688684
 30
0.0
 10
23.0725366857
 20
31.5735688684
 30
0.0
 10
23.2689472828
 20
31.5555597721
 30
0.0
 10
23.5231139262
 20
31.4962324676
 30
0.0
 10
23.769011552
 20
31.4142804959
 30
0.0
 10
24.0012786166
 20
31.2987791245
 30
0.0
 10
24.21225004
 20
31.1530245286
 30
0.0
 10
24.3579350419
 20
31.0299712716
 30
0.0
 10
24.4900221079
 20
30.8942304855
 30
0.0
 10
24.6071701301
 20
30.7470108796
 30
0.0
 10
24.7083290673
 20
30.5897932645
 30
0.0
 10
24.820178492
 20
30.3695539555
 30
0.0
 10
24.9159867762
 20
30.0761231637
 30
0.0
 10
24.9419393815
 20
29.8308400211
 30
0.0
 10
24.9419393815
 20
29.7089160596
 30
0.0
  0
SPLINE
  5
2C6
100
AcDbEntity
  8
0
100
AcDbSpline
 62
7
  6
BYLAYER
 70
0
 71
3
 72
19
 73
15
 74
0
 42
0.0000001
 43
0.0000001
 44
0.0000000001
 40
0.0
 40
0.0
 40
0.0
 40
0.0
 40
0.1205916517
 40
0.2418847543
 40
0.3030286497
 40
0.3645456145
 40
0.4264649544
 40
0.4888064332
 40
0.5515764413
 40
0.6147669737
 40
0.7421253495
 40
0.8063459253
 40
0.8708297825
 40
1.0
 40
1.0
 40
1.0
 40
1.0
 10
24.9419393815
 20
27.3222381931
 30
0.0
 10
24.9419393815
 20
27.4441621546
 30
0.0
 10
24.9159867762
 20
27.6894452972
 30
0.0
 10
24.820178492
 20
27.982876089
 30
0.0
 10
24.7083290673
 20
28.203115398
 30
0.0
 10
24.6071701301
 20
28.3603330131
 30
0.0
 10
24.4900221079
 20
28.507552619
 30
0.0
 10
24.3579350419
 20
28.6432934051
 30
0.0
 10
24.21225004
 20
28.7663466621
 30
0.0
 10
24.0012786166
 20
28.912101258
 30
0.0
 10
23.769011552
 20
29.0276026294
 30
0.0
 10
23.5231139262
 20
29.1095546011
 30
0.0
 10
23.2689472828
 20
29.1688819056
 30
0.0
 10
23.0725366857
 20
29.1868910019
 30
0.0
 10
22.9419393815
 20
29.1868910019
 30
0.0
  0
SPLINE
  5
2C7
100
AcDbEntity
  8
0
100
AcDbSpline
 62
7
  6
BYLAYER
 70
0
 71
3
 72
15
 73
11
 74
0
 42
0.0000001
 43
0.0000001
 44
0.0000000001
 40
0.0
 40
0.0
 40
0.0
 40
0.0
 40
0.1284171894
 40
0.2564576897
 40
0.3835870964
 40
0.5095697119
 40
0.6341833006
 40
0.7573516808
 40
0.8792496174
 40
1.0
 40
1.0
 40
1.0
 40
1.0
 10
14.0419393815
 20
23.4371670507
 30
0.0
 10
13.9322932891
 20
23.4371670507
 30
0.0
 10
13.7129530802
 20
23.4202929522
 30
0.0
 10
13.392886003
 20
23.3451729969
 30
0.0
 10
13.0901745095
 20
23.2220601712
 30
0.0
 10
12.8130801257
 20
23.0543720432
 30
0.0
 10
12.5691169293
 20
22.8464474684
 30
0.0
 10
12.364830903
 20
22.6038730402
 30
0.0
 10
12.2060266867
 20
22.3332290511
 30
0.0
 10
12.1329645351
 20
22.1380375309
 30
0.0
 10
12.1054477084
 20
22.0386774441
 30
0.0
  0
SPLINE
  5
2C8
100
AcDbEntity
  8
0
100
AcDbSpline
 62
7
  6
BYLAYER
 70
0
 71
3
 72
15
 73
11
 74
0
 42
0.0000001
 43
0.0000001
 44
0.0000000001
 40
0.0
 40
0.0
 40
0.0
 40
0.0
 40
0.1207503646
 40
0.2426482693
 40
0.3658166393
 40
0.4904302241
 40
0.6164128421
 40
0.7435422583
 40
0.8715827918
 40
1.0
 40
1.0
 40
1.0
 40
1.0
 10
24.8784310546
 20
22.0386774441
 30
0.0
 10
24.850914232
 20
22.1380375161
 30
0.0
 10
24.7778521121
 20
22.3332290025
 30
0.0
 10
24.6190479199
 20
22.6038729462
 30
0.0
 10
24.4147619391
 20
22.8464473596
 30
0.0
 10
24.1707987678
 20
23.0543719491
 30
0.0
 10
23.8937043924
 20
23.2220601037
 30
0.0
 10
23.590992871
 20
23.3451729669
 30
0.0
 10
23.270925742
 20
23.420292932
 30
0.0
 10
23.05158549
 20
23.4371670507
 30
0.0
 10
22.9419393815
 20
23.4371670507
 30
0.0
  0
SPLINE
  5
2C9
100
AcDbEntity
  8
0
100
AcDbSpline
 62
7
  6
BYLAYER
 70
0
 71
3
 72
19
 73
15
 74
0
 42
0.0000001
 43
0.0000001
 44
0.0000000001
 40
0.0
 40
0.0
 40
0.0
 40
0.0
 40
0.1291702175
 40
0.1936540747
 40
0.2578746505
 40
0.3852330263
 40
0.4484235587
 40
0.5111935668
 40
0.5735350456
 40
0.6354543855
 40
0.6969713503
 40
0.7581152457
 40
0.8794083483
 40
1.0
 40
1.0
 40
1.0
 40
1.0
 10
14.0419393815
 20
29.1868910019
 30
0.0
 10
13.9113420772
 20
29.1868910019
 30
0.0
 10
13.7149314802
 20
29.1688819056
 30
0.0
 10
13.4607648368
 20
29.1095546011
 30
0.0
 10
13.214867211
 20
29.0276026294
 30
0.0
 10
12.9826001464
 20
28.912101258
 30
0.0
 10
12.771628723
 20
28.7663466621
 30
0.0
 10
12.6259437211
 20
28.6432934051
 30
0.0
 10
12.4938566551
 20
28.507552619
 30
0.0
 10
12.3767086328
 20
28.3603330131
 30
0.0
 10
12.2755496957
 20
28.203115398
 30
0.0
 10
12.1637002709
 20
27.982876089
 30
0.0
 10
12.0678919868
 20
27.6894452972
 30
0.0
 10
12.0419393815
 20
27.4441621546
 30
0.0
 10
12.0419393815
 20
27.3222381931
 30
0.0
  0
ELLIPSE
  5
2CA
100
AcDbEntity
  8
0
100
AcDbEllipse
 62
7
  6
BYLAYER
 10
22.9419393815
 20
21.5112943736
 30
0.0
 11
-0.0
 21
0.5273830705
 31
0.0
 40
0.9480774563
 41
-1.4321537918
 42
0.0
  0
ELLIPSE
  5
2CB
100
AcDbEntity
  8
0
100
AcDbEllipse
 62
7
  6
BYLAYER
 10
14.0419393815
 20
21.5112943736
 30
0.0
 11
0.0
 21
0.5273830705
 31
0.0
 40
0.9480774563
 41
0.0
 42
1.4322937563
  0
ELLIPSE
  5
2CC
100
AcDbEntity
  8
0
100
AcDbEllipse
 62
7
  6
BYLAYER
 10
14.0419393815
 20
21.5112943736
 30
0.0
 11
0.0
 21
2.109532282
 31
0.0
 40
0.9480774563
 41
1.3181160717
 42
1.5370619394
  0
ELLIPSE
  5
2CD
100
AcDbEntity
  8
0
100
AcDbEllipse
 62
7
  6
BYLAYER
 10
22.9419393815
 20
21.5112943736
 30
0.0
 11
0.0
 21
2.109532282
 31
0.0
 40
0.9480774563
 41
-1.5370614561
 42
-1.3181160717
  0
ENDSEC
  0
SECTION
  2
OBJECTS
  0
DICTIONARY
  5
C
100
AcDbDictionary
280
0
281
1
  3
ACAD_GROUP
350
D
  3
ACAD_MLINESTYLE
350
17
  3
ACAD_LAYOUT
350
1A
  3
ACAD_PLOTSETTINGS
350
19
  3
ACAD_PLOTSTYLENAME
350
E
  0
DICTIONARY
  5
D
102
{ACAD_REACTORS
330
C
102
}
100
AcDbDictionary
280
0
281
1
  0
ACDBDICTIONARYWDFLT
  5
E
102
{ACAD_REACTORS
330
C
102
}
100
AcDbDictionary
281
1
  3
Normal
350
F
100
AcDbDictionaryWithDefault
340
F
  0
DICTIONARY
  5
17
102
{ACAD_REACTORS
330
C
102
}
100
AcDbDictionary
280
0
281
1
  3
Standard
350
18
  0
DICTIONARY
  5
19
102
{ACAD_REACTORS
330
C
102
}
100
AcDbDictionary
281
1
  0
DICTIONARY
  5
1A
102
{ACAD_REACTORS
330
C
102
}
100
AcDbDictionary
281
1
  3
Model
350
2CE
  3
Layout1
350
2CF
  0
ACDBPLACEHOLDER
  5
F
102
{ACAD_REACTORS
330
E
102
}
  0
MLINESTYLE
  5
18
102
{ACAD_REACTORS
330
17
102
}
100
AcDbMlineStyle
  2
STANDARD
 70
0
  3

 62
256
 51
90.0
 52
90.0
 71
2
 49
0.5
 62
256
  6
BYLAYER
 49
-0.5
 62
256
  6
BYLAYER
  0
LAYOUT
  5
2CE
102
{ACAD_REACTORS
330
1A
102
}
100
AcDbPlotSettings
  1

  2
none_device
  4

  6

 40
0.0
 41
0.0
 42
0.0
 43
0.0
 44
210.0
 45
297.0
 46
0.0
 47
0.0
 48
0.0
 49
0.0
140
0.0
141
0.0
142
1.0
143
1.0
 70
1024
 72
1
 73
0
 74
0
  7

 75
0
147
1.0
148
0.0
149
0.0
100
AcDbLayout
  1
Model
 70
0
 71
0
 10
0.0
 20
0.0
 11
210.0
 21
297.0
 12
0.0
 22
0.0
 32
0.0
 14
0.0
 24
0.0
 34
0.0
 15
0.0
 25
0.0
 35
0.0
146
0.0
 13
0.0
 23
0.0
 33
0.0
 16
1.0
 26
0.0
 36
0.0
 17
0.0
 27
1.0
 37
0.0
 76
0
330
210
345
0
346
0
  0
LAYOUT
  5
2CF
102
{ACAD_REACTORS
330
1A
102
}
100
AcDbPlotSettings
  1

  2
none_device
  4

  6

 40
0.0
 41
0.0
 42
0.0
 43
0.0
 44
210.0
 45
297.0
 46
0.0
 47
0.0
 48
0.0
 49
0.0
140
0.0
141
0.0
142
1.0
143
1.0
 70
0
 72
1
 73
0
 74
0
  7

 75
0
147
1.0
148
0.0
149
0.0
100
AcDbLayout
  1
Layout1
 70
0
 71
1
 10
0.0
 20
0.0
 11
210.0
 21
297.0
 12
0.0
 22
0.0
 32
0.0
 14
0.0
 24
0.0
 34
0.0
 15
0.0
 25
0.0
 35
0.0
146
0.0
 13
0.0
 23
0.0
 33
0.0
 16
1.0
 26
0.0
 36
0.0
 17
0.0
 27
1.0
 37
0.0
 76
0
330
211
345
0
346
0
  0
ENDSEC
  0
EOF
