999
DXF file: C:\Users\sesa63760\Dev\_Creo\CAD\MCADID0004765_3D-CAD\drw0001_5.dxf
999
Pro/ENGINEER 2019471 by Parametric Technology Corporation
  0
SECTION
  2
HEADER
  9
$ACADVER
  1
AC1024
  9
$DWGCODEPAGE
  3
ANSI_1252
  9
$EXTMAX
 10
33.9809863339
 20
48.0588235294
 30
0.0
  9
$EXTMIN
 10
0.0
 20
0.0
 30
0.0
  9
$LIMMIN
 10
0.0
 20
0.0
  9
$LIMMAX
 10
33.9809863339
 20
48.0588235294
  9
$VIEWCTR
 10
16.990493167
 20
24.0294117647
  9
$VIEWSIZE
 40
48.0588235294
  9
$CLAYER
  8
0
  9
$LTSCALE
 40
3.1327233115
  9
$CELTYPE
  6
BYLAYER
  9
$DIMSCALE
 40
1.0
  9
$DIMASZ
 40
0.4045355516
  9
$DIMEXO
 40
1.0
  9
$DIMDLI
 40
2.1644270153
  9
$DIMEXE
 40
1.0
  9
$DIMCEN
 40
0.512627451
  9
$DIMLFAC
 40
1.0
  9
$DIMBLK
  1
_FILLED
  9
$DIMALT
 70
0
  9
$DIMALTF
 40
0.0393700787
  9
$DIMTXT
 40
0.5663497722
  9
$DIMTOL
 70
1
  9
$DIMLIM
 70
0
  9
$DIMTFAC
 40
1.0
  9
$DIMTP
 40
0.01
  9
$DIMTM
 40
0.01
  9
$DIMGAP
 40
0.625
  9
$DIMDSEP
 70
46
  9
$AUNITS
 70
0
  9
$PDMODE
 70
3
  9
$PDSIZE
 40
0.3125
  9
$HANDSEED
  5
2C4
  9
$TILEMODE
 70
1
  9
$MEASUREMENT
 70
1
  9
$INSUNITS
 70
4
  0
ENDSEC
  0
SECTION
  2
CLASSES
  0
CLASS
  1
ACDBDICTIONARYWDFLT
  2
AcDbDictionaryWithDefault
  3
AutoCAD 2000
 90
0
 91
1
280
0
281
0
  0
CLASS
  1
ACDBPLACEHOLDER
  2
AcDbPlaceHolder
  3
AutoCAD 2000
 90
0
 91
1
280
0
281
0
  0
CLASS
  1
LAYOUT
  2
AcDbLayout
  3
AutoCAD 2000
 90
0
 91
0
280
0
281
0
  0
ENDSEC
  0
SECTION
  2
TABLES
  0
TABLE
  2
VPORT
  5
8
100
AcDbSymbolTable
 70
2
  0
VPORT
  5
1F4
100
AcDbSymbolTableRecord
100
AcDbViewportTableRecord
  2
*ACTIVE
 70
0
 10
0.0
 20
0.0
 11
1.0
 21
1.0
 12
16.990493167
 22
24.0294117647
 13
0.0
 23
0.0
 14
1.0
 24
1.0
 15
0.0
 25
0.0
 16
0.0
 26
0.0
 36
1.0
 17
0.0
 27
0.0
 37
0.0
 40
48.0588235294
 41
0.7070707071
 42
50.0
 43
0.0
 44
0.0
 50
0.0
 51
0.0
 71
0
 72
100
 73
1
 74
1
 75
0
 76
0
 77
0
 78
0
  0
ENDTAB
  0
TABLE
  2
LTYPE
  5
5
100
AcDbSymbolTable
 70
6
  0
LTYPE
  5
14
100
AcDbSymbolTableRecord
100
AcDbLinetypeTableRecord
  2
BYBLOCK
 70
0
  3

 72
65
 73
0
 40
0.0
  0
LTYPE
  5
15
100
AcDbSymbolTableRecord
100
AcDbLinetypeTableRecord
  2
BYLAYER
 70
0
  3

 72
65
 73
0
 40
0.0
  0
LTYPE
  5
16
100
AcDbSymbolTableRecord
100
AcDbLinetypeTableRecord
  2
CONTINUOUS
 70
64
  3
Solid line
 72
65
 73
0
 40
0.0
  0
LTYPE
  5
1F5
100
AcDbSymbolTableRecord
100
AcDbLinetypeTableRecord
  2
CENTER
 70
64
  3
____ _ ____ _ ____ _ ____ _ ____ _ ____ _ ____
 72
65
 73
4
 40
0.6
 49
0.375
 74
0
 49
-0.075
 74
0
 49
0.075
 74
0
 49
-0.075
 74
0
  0
LTYPE
  5
1F6
100
AcDbSymbolTableRecord
100
AcDbLinetypeTableRecord
  2
HIDDEN
 70
64
  3
- - - - - - - - - - - - - - - - - - - -
 72
65
 73
2
 40
0.2
 49
0.1
 74
0
 49
-0.1
 74
0
  0
LTYPE
  5
1F7
100
AcDbSymbolTableRecord
100
AcDbLinetypeTableRecord
  2
PHANTOM
 70
64
  3
_____ _ _ _____ _ _ _____ _ _ _____
 72
65
 73
6
 40
0.8
 49
0.45
 74
0
 49
-0.05
 74
0
 49
0.1
 74
0
 49
-0.05
 74
0
 49
0.1
 74
0
 49
-0.05
 74
0
  0
LTYPE
  5
1F8
100
AcDbSymbolTableRecord
100
AcDbLinetypeTableRecord
  2
DOT
 70
64
  3
. . . . . . . . . . . . . . . . . . . .
 72
65
 73
2
 40
0.2
 49
0.1
 74
0
 49
-0.1
 74
0
  0
LTYPE
  5
1F9
100
AcDbSymbolTableRecord
100
AcDbLinetypeTableRecord
  2
DASHED
 70
64
  3
- - - - - - - - - - - - - - - - - - - -
 72
65
 73
2
 40
0.2
 49
0.1
 74
0
 49
-0.1
 74
0
  0
ENDTAB
  0
TABLE
  2
LAYER
  5
2
100
AcDbSymbolTable
 70
36
  0
LAYER
  5
10
100
AcDbSymbolTableRecord
100
AcDbLayerTableRecord
  2
0
 70
0
 62
7
  6
CONTINUOUS
370
-3
390
F
  0
LAYER
  5
1FA
100
AcDbSymbolTableRecord
100
AcDbLayerTableRecord
  2
DEFAULT_1
 70
0
 62
7
  6
CENTER
370
-3
390
F
  0
LAYER
  5
1FB
100
AcDbSymbolTableRecord
100
AcDbLayerTableRecord
  2
DEFAULT_2
 70
0
 62
7
  6
HIDDEN
370
-3
390
F
  0
LAYER
  5
1FC
100
AcDbSymbolTableRecord
100
AcDbLayerTableRecord
  2
DEFAULT_3
 70
0
 62
7
  6
PHANTOM
370
-3
390
F
  0
LAYER
  5
1FD
100
AcDbSymbolTableRecord
100
AcDbLayerTableRecord
  2
00_COMPONENTS
 70
0
 62
7
  6
CONTINUOUS
370
-3
390
F
  0
LAYER
  5
1FE
100
AcDbSymbolTableRecord
100
AcDbLayerTableRecord
  2
01_1_DEFAULT_DATUMS
 70
0
 62
7
  6
CONTINUOUS
370
-3
390
F
  0
LAYER
  5
1FF
100
AcDbSymbolTableRecord
100
AcDbLayerTableRecord
  2
01_PLANES
 70
0
 62
7
  6
CONTINUOUS
370
-3
390
F
  0
LAYER
  5
200
100
AcDbSymbolTableRecord
100
AcDbLayerTableRecord
  2
02_COORD_SYS
 70
0
 62
7
  6
CONTINUOUS
370
-3
390
F
  0
LAYER
  5
201
100
AcDbSymbolTableRecord
100
AcDbLayerTableRecord
  2
03_AXES
 70
0
 62
7
  6
CONTINUOUS
370
-3
390
F
  0
LAYER
  5
202
100
AcDbSymbolTableRecord
100
AcDbLayerTableRecord
  2
04_POINTS
 70
0
 62
7
  6
CONTINUOUS
370
-3
390
F
  0
LAYER
  5
203
100
AcDbSymbolTableRecord
100
AcDbLayerTableRecord
  2
05_CURVES
 70
0
 62
7
  6
CONTINUOUS
370
-3
390
F
  0
LAYER
  5
204
100
AcDbSymbolTableRecord
100
AcDbLayerTableRecord
  2
06_SURFS
 70
0
 62
7
  6
CONTINUOUS
370
-3
390
F
  0
LAYER
  5
205
100
AcDbSymbolTableRecord
100
AcDbLayerTableRecord
  2
07_COSMETICS
 70
0
 62
7
  6
CONTINUOUS
370
-3
390
F
  0
LAYER
  5
206
100
AcDbSymbolTableRecord
100
AcDbLayerTableRecord
  2
10_NOTES
 70
0
 62
7
  6
CONTINUOUS
370
-3
390
F
  0
LAYER
  5
207
100
AcDbSymbolTableRecord
100
AcDbLayerTableRecord
  2
11_NOTES_PUB
 70
0
 62
7
  6
CONTINUOUS
370
-3
390
F
  0
LAYER
  5
208
100
AcDbSymbolTableRecord
100
AcDbLayerTableRecord
  2
13_REF_GTOL
 70
0
 62
7
  6
CONTINUOUS
370
-3
390
F
  0
LAYER
  5
209
100
AcDbSymbolTableRecord
100
AcDbLayerTableRecord
  2
16_MISC
 70
0
 62
7
  6
CONTINUOUS
370
-3
390
F
  0
LAYER
  5
20A
100
AcDbSymbolTableRecord
100
AcDbLayerTableRecord
  2
17_NO_PRINT
 70
0
 62
7
  6
CONTINUOUS
370
-3
390
F
  0
LAYER
  5
20B
100
AcDbSymbolTableRecord
100
AcDbLayerTableRecord
  2
18_DATUM_CAMS_JOINTS
 70
0
 62
7
  6
CONTINUOUS
370
-3
390
F
  0
LAYER
  5
20C
100
AcDbSymbolTableRecord
100
AcDbLayerTableRecord
  2
19_DATUM_FUNCTIONAL
 70
0
 62
7
  6
CONTINUOUS
370
-3
390
F
  0
LAYER
  5
20D
100
AcDbSymbolTableRecord
100
AcDbLayerTableRecord
  2
20_DATUM_KINEMATIC_SCHEME
 70
0
 62
7
  6
CONTINUOUS
370
-3
390
F
  0
ENDTAB
  0
TABLE
  2
STYLE
  5
3
100
AcDbSymbolTable
 70
1
  0
STYLE
  5
11
100
AcDbSymbolTableRecord
100
AcDbTextStyleTableRecord
  2
STANDARD
 70
0
 40
0.0
 41
1.0
 50
0.0
 71
0
 42
0.2
  3
ARIAL.TTF
  4

  0
STYLE
  5
20E
100
AcDbSymbolTableRecord
100
AcDbTextStyleTableRecord
  2
TEXTSTYLE_1
 70
0
 40
0.0
 41
0.8
 50
0.0
 71
0
 42
0.2
  3
gdt
  4

  0
ENDTAB
  0
TABLE
  2
VIEW
  5
6
100
AcDbSymbolTable
 70
0
  0
ENDTAB
  0
TABLE
  2
UCS
  5
7
100
AcDbSymbolTable
 70
0
  0
ENDTAB
  0
TABLE
  2
APPID
  5
9
100
AcDbSymbolTable
 70
1
  0
APPID
  5
20F
100
AcDbSymbolTableRecord
100
AcDbRegAppTableRecord
  2
ACAD
 70
0
  0
ENDTAB
  0
TABLE
  2
BLOCK_RECORD
  5
1
100
AcDbSymbolTable
 70
0
  0
BLOCK_RECORD
  5
210
100
AcDbSymbolTableRecord
100
AcDbBlockTableRecord
  2
*Model_Space
  0
BLOCK_RECORD
  5
211
100
AcDbSymbolTableRecord
100
AcDbBlockTableRecord
  2
*Paper_Space
  0
BLOCK_RECORD
  5
212
100
AcDbSymbolTableRecord
100
AcDbBlockTableRecord
  2
_FILLED
  0
ENDTAB
  0
TABLE
  2
DIMSTYLE
  5
A
100
AcDbSymbolTable
 70
1
100
AcDbDimStyleTable
 71
0
  0
DIMSTYLE
105
213
100
AcDbSymbolTableRecord
100
AcDbDimStyleTableRecord
  2
STANDARD
 70
0
  3

  4

 40
1.0
 41
0.4045355516
 42
1.0
 43
0.38
 44
1.0
 45
0.0
 46
0.0
 47
0.01
 48
0.01
140
0.5663497722
141
0.09
142
0.0
143
25.4
144
1.0
145
0.0
146
1.0
147
0.625
 71
1
 72
0
 73
0
 74
0
 75
0
 76
0
 77
1
 78
8
 79
2
170
0
171
1
172
0
173
0
174
0
175
0
176
0
177
0
178
0
270
2
179
2
271
2
272
2
273
2
274
2
275
0
280
0
281
0
282
0
283
1
284
8
285
0
286
0
287
3
288
0
340
11
278
46
341
212
342
212
343
212
344
212
  0
ENDTAB
  0
ENDSEC
  0
SECTION
  2
BLOCKS
  0
BLOCK
  5
20
100
AcDbEntity
  8
0
100
AcDbBlockBegin
  2
*Model_Space
 70
0
 10
0.0
 20
0.0
 30
0.0
  3
*Model_Space
  1

  0
ENDBLK
  5
21
100
AcDbEntity
  8
0
100
AcDbBlockEnd
  0
BLOCK
  5
1C
100
AcDbEntity
  8
0
100
AcDbBlockBegin
  2
*Paper_Space
 70
0
 10
0.0
 20
0.0
 30
0.0
  3
*Paper_Space
  1

  0
ENDBLK
  5
1D
100
AcDbEntity
  8
0
100
AcDbBlockEnd
  0
BLOCK
  5
214
100
AcDbEntity
  8
0
100
AcDbBlockBegin
  2
_FILLED
 70
64
 10
0.0
 20
0.0
  3
_FILLED
  1

  0
SOLID
  5
215
100
AcDbEntity
  8
0
  6
BYBLOCK
 62
0
100
AcDbTrace
 10
0.0
 20
0.0
 11
-1.0
 21
0.25
 12
-1.0
 22
-0.25
 13
-1.0
 23
-0.25
  0
ENDBLK
  5
216
100
AcDbEntity
  8
0
  6
BYBLOCK
 62
0
100
AcDbBlockEnd
  0
ENDSEC
  0
SECTION
  2
ENTITIES
  0
LINE
  5
217
100
AcDbEntity
  8
0
100
AcDbLine
 62
7
  6
BYLAYER
 10
23.8380063109
 20
7.9757352941
 11
11.084156494
 21
7.9757352941
  0
LINE
  5
218
100
AcDbEntity
  8
0
100
AcDbLine
 62
7
  6
BYLAYER
 10
24.1887291371
 20
8.3889112053
 11
22.7745155747
 21
8.3889112053
  0
LINE
  5
219
100
AcDbEntity
  8
0
100
AcDbLine
 62
7
  6
BYLAYER
 10
20.9178061278
 20
8.3889112053
 11
14.0043566767
 21
8.3889112053
  0
LINE
  5
21A
100
AcDbEntity
  8
0
100
AcDbLine
 62
7
  6
BYLAYER
 10
12.1476472298
 20
8.3889112053
 11
11.7630302068
 21
8.3889112053
  0
LINE
  5
21B
100
AcDbEntity
  8
0
100
AcDbLine
 62
7
  6
BYLAYER
 10
11.0559241585
 20
8.3889112053
 11
10.7334336674
 21
8.3889112053
  0
LINE
  5
21C
100
AcDbEntity
  8
0
100
AcDbLine
 62
7
  6
BYLAYER
 10
11.5421109602
 20
8.4257376007
 11
11.7584313616
 21
8.4257371906
  0
LINE
  5
21D
100
AcDbEntity
  8
0
100
AcDbLine
 62
7
  6
BYLAYER
 10
11.7396980431
 20
8.5757352941
 11
11.6481861682
 21
8.5757352941
  0
LINE
  5
21E
100
AcDbEntity
  8
0
100
AcDbLine
 62
7
  6
BYLAYER
 10
11.5437315322
 20
8.6996880674
 11
11.7242175355
 21
8.6996880674
  0
LINE
  5
21F
100
AcDbEntity
  8
0
100
AcDbLine
 62
7
  6
BYLAYER
 10
6.1610814023
 20
13.1257352941
 11
5.9610814023
 21
13.3257352941
  0
LINE
  5
220
100
AcDbEntity
  8
0
100
AcDbLine
 62
7
  6
BYLAYER
 10
7.315731983
 20
12.5578726309
 11
7.8827692387
 21
11.5757352941
  0
LINE
  5
221
100
AcDbEntity
  8
0
100
AcDbLine
 62
7
  6
BYLAYER
 10
3.9610814023
 20
25.3257352941
 11
3.9610814023
 21
18.8257352941
  0
LINE
  5
222
100
AcDbEntity
  8
0
100
AcDbLine
 62
7
  6
BYLAYER
 10
4.0110814023
 20
26.6257352941
 11
4.0110814023
 21
25.3257352941
  0
LINE
  5
223
100
AcDbEntity
  8
0
100
AcDbLine
 62
7
  6
BYLAYER
 10
4.6609857729
 20
18.8257352941
 11
4.6609821118
 21
25.3257352941
  0
LINE
  5
224
100
AcDbEntity
  8
0
100
AcDbLine
 62
7
  6
BYLAYER
 10
4.7110814023
 20
25.3257352941
 11
4.7110814023
 21
27.1257352941
  0
LINE
  5
225
100
AcDbEntity
  8
0
100
AcDbLine
 62
7
  6
BYLAYER
 10
4.4610814023
 20
27.1257352941
 11
4.6120996721
 21
28.8518820169
  0
LINE
  5
226
100
AcDbEntity
  8
0
100
AcDbLine
 62
7
  6
BYLAYER
 10
10.9610808802
 20
35.6257351447
 11
11.4610815371
 21
36.125735773
  0
LINE
  5
227
100
AcDbEntity
  8
0
100
AcDbLine
 62
7
  6
BYLAYER
 10
13.6855166995
 20
10.912559383
 11
21.236646105
 21
10.912559383
  0
LINE
  5
228
100
AcDbEntity
  8
0
100
AcDbLine
 62
7
  6
BYLAYER
 10
26.6063244504
 20
11.3257352941
 11
11.3576036545
 21
11.3257352941
  0
LINE
  5
229
100
AcDbEntity
  8
0
100
AcDbLine
 62
7
  6
BYLAYER
 10
10.6891659702
 20
11.3257352941
 11
8.3161808943
 21
11.3257352941
  0
LINE
  5
22A
100
AcDbEntity
  8
0
100
AcDbLine
 62
7
  6
BYLAYER
 10
27.0393935658
 20
11.5757352941
 11
11.0509794915
 21
11.5757352941
  0
LINE
  5
22B
100
AcDbEntity
  8
0
100
AcDbLine
 62
7
  6
BYLAYER
 10
10.3438728563
 20
11.5757352941
 11
7.8831870821
 21
11.5757352941
  0
LINE
  5
22C
100
AcDbEntity
  8
0
100
AcDbLine
 62
7
  6
BYLAYER
 10
7.315731983
 20
12.5578726309
 11
7.2488208373
 21
12.7991464277
  0
LINE
  5
22D
100
AcDbEntity
  8
0
100
AcDbLine
 62
7
  6
BYLAYER
 10
5.4610814023
 20
18.2257352941
 11
5.4610814023
 21
18.8257352941
  0
LINE
  5
22E
100
AcDbEntity
  8
0
100
AcDbLine
 62
7
  6
BYLAYER
 10
5.6197402562
 20
18.2257352941
 11
5.6197402562
 21
18.8257352941
  0
LINE
  5
22F
100
AcDbEntity
  8
0
100
AcDbLine
 62
7
  6
BYLAYER
 10
5.9610814023
 20
13.3257352941
 11
5.9610814023
 21
18.1257352941
  0
LINE
  5
230
100
AcDbEntity
  8
0
100
AcDbLine
 62
7
  6
BYLAYER
 10
6.1610814023
 20
18.3257352941
 11
6.1610814023
 21
18.8257352941
  0
LINE
  5
231
100
AcDbEntity
  8
0
100
AcDbLine
 62
7
  6
BYLAYER
 10
5.8144797673
 20
18.2257352941
 11
5.8226841809
 21
18.8257352941
  0
LINE
  5
232
100
AcDbEntity
  8
0
100
AcDbLine
 62
7
  6
BYLAYER
 10
8.6869037032
 20
34.5139638618
 11
7.5110814023
 21
30.1257352941
  0
LINE
  5
233
100
AcDbEntity
  8
0
100
AcDbLine
 62
7
  6
BYLAYER
 10
7.3159347509
 20
12.5578726309
 11
9.9424001398
 21
12.5578726309
  0
LINE
  5
234
100
AcDbEntity
  8
0
100
AcDbLine
 62
7
  6
BYLAYER
 10
10.649506921
 20
12.5578726309
 11
27.6064308215
 21
12.5578726309
  0
LINE
  5
235
100
AcDbEntity
  8
0
100
AcDbLine
 62
7
  6
BYLAYER
 10
10.4673586886
 20
12.7976059178
 11
10.602111764
 21
12.7976059178
  0
LINE
  5
236
100
AcDbEntity
  8
0
100
AcDbLine
 62
7
  6
BYLAYER
 10
27.6733419672
 20
12.7991464277
 11
10.6016078736
 21
12.7991464277
  0
LINE
  5
237
100
AcDbEntity
  8
0
100
AcDbLine
 62
7
  6
BYLAYER
 10
9.8955088029
 20
12.7991464277
 11
7.2490249425
 21
12.7991464277
  0
LINE
  5
238
100
AcDbEntity
  8
0
100
AcDbLine
 62
7
  6
BYLAYER
 10
7.2431202074
 20
13.1257352941
 11
7.2488208373
 21
12.7991464277
  0
LINE
  5
239
100
AcDbEntity
  8
0
100
AcDbLine
 62
7
  6
BYLAYER
 10
6.6804004279
 20
18.8257352941
 11
6.6804004279
 21
18.2257352941
  0
LINE
  5
23A
100
AcDbEntity
  8
0
100
AcDbLine
 62
7
  6
BYLAYER
 10
7.5110814023
 20
29.1257352941
 11
7.5110814023
 21
30.1257352941
  0
LINE
  5
23B
100
AcDbEntity
  8
0
100
AcDbLine
 62
7
  6
BYLAYER
 10
28.7610814023
 20
13.1257352941
 11
26.1610814023
 21
13.1257352941
  0
LINE
  5
23C
100
AcDbEntity
  8
0
100
AcDbLine
 62
7
  6
BYLAYER
 10
8.7610814023
 20
13.1257352941
 11
6.1610814023
 21
13.1257352941
  0
LINE
  5
23D
100
AcDbEntity
  8
0
100
AcDbLine
 62
7
  6
BYLAYER
 10
10.4110743169
 20
13.2601282025
 11
10.5964197922
 21
13.2601282025
  0
LINE
  5
23E
100
AcDbEntity
  8
0
100
AcDbLine
 62
7
  6
BYLAYER
 10
28.9610814023
 20
13.3257352941
 11
25.9610814023
 21
13.3257352941
  0
LINE
  5
23F
100
AcDbEntity
  8
0
100
AcDbLine
 62
7
  6
BYLAYER
 10
8.9610814023
 20
13.3257352941
 11
5.9610814023
 21
13.3257352941
  0
LINE
  5
240
100
AcDbEntity
  8
0
100
AcDbLine
 62
7
  6
BYLAYER
 10
8.9610814023
 20
18.1257352941
 11
8.8610814023
 21
18.2257352941
  0
LINE
  5
241
100
AcDbEntity
  8
0
100
AcDbLine
 62
7
  6
BYLAYER
 10
7.9787194925
 20
18.2257352941
 11
7.9787194925
 21
18.8257352941
  0
LINE
  5
242
100
AcDbEntity
  8
0
100
AcDbLine
 62
7
  6
BYLAYER
 10
8.9610814023
 20
13.3257352941
 11
8.9610814023
 21
18.1257352941
  0
LINE
  5
243
100
AcDbEntity
  8
0
100
AcDbLine
 62
7
  6
BYLAYER
 10
9.8329391839
 20
17.8257352941
 11
9.8950049828
 21
12.7991464277
  0
LINE
  5
244
100
AcDbEntity
  8
0
100
AcDbLine
 62
7
  6
BYLAYER
 10
10.602111764
 20
12.7991464277
 11
10.5400459651
 21
17.8257352941
  0
LINE
  5
245
100
AcDbEntity
  8
0
100
AcDbLine
 62
7
  6
BYLAYER
 10
10.1989585321
 20
13.2574917532
 11
10.1425275628
 21
17.8296624748
  0
LINE
  5
246
100
AcDbEntity
  8
0
100
AcDbLine
 62
7
  6
BYLAYER
 10
10.3546582513
 20
17.8309714148
 11
10.4110743169
 21
13.2601282025
  0
LINE
  5
247
100
AcDbEntity
  8
0
100
AcDbLine
 62
7
  6
BYLAYER
 10
9.8329391839
 20
17.8257352941
 11
9.8329276244
 21
18.2257352941
  0
LINE
  5
248
100
AcDbEntity
  8
0
100
AcDbLine
 62
7
  6
BYLAYER
 10
10.1425272479
 20
18.2257352941
 11
10.1425275628
 21
17.8296624748
  0
LINE
  5
249
100
AcDbEntity
  8
0
100
AcDbLine
 62
7
  6
BYLAYER
 10
10.3546582513
 20
17.8309714148
 11
10.3546582513
 21
18.2257352941
  0
LINE
  5
24A
100
AcDbEntity
  8
0
100
AcDbLine
 62
7
  6
BYLAYER
 10
10.5400344056
 20
18.2257352941
 11
10.5400459651
 21
17.8257352941
  0
LINE
  5
24B
100
AcDbEntity
  8
0
100
AcDbLine
 62
7
  6
BYLAYER
 10
11.333204504
 20
8.673705253
 11
10.9949674598
 21
11.3864852501
  0
LINE
  5
24C
100
AcDbEntity
  8
0
100
AcDbLine
 62
7
  6
BYLAYER
 10
11.2093171583
 20
11.3818263375
 11
11.5437315322
 21
8.6996880674
  0
LINE
  5
24D
100
AcDbEntity
  8
0
100
AcDbLine
 62
7
  6
BYLAYER
 10
10.4610814023
 20
27.1257352941
 11
10.3100631324
 21
28.8518820169
  0
LINE
  5
24E
100
AcDbEntity
  8
0
100
AcDbLine
 62
7
  6
BYLAYER
 10
11.9286599457
 20
18.8257352941
 11
11.9286599457
 21
18.2257352941
  0
LINE
  5
24F
100
AcDbEntity
  8
0
100
AcDbLine
 62
7
  6
BYLAYER
 10
25.9610814023
 20
17.8257352941
 11
10.5402858329
 21
17.8257352941
  0
LINE
  5
250
100
AcDbEntity
  8
0
100
AcDbLine
 62
7
  6
BYLAYER
 10
9.832434806
 20
17.8257352941
 11
8.9610814023
 21
17.8257352941
  0
LINE
  5
251
100
AcDbEntity
  8
0
100
AcDbLine
 62
7
  6
BYLAYER
 10
10.5400459651
 20
17.8309714148
 11
10.3546582513
 21
17.8309714148
  0
LINE
  5
252
100
AcDbEntity
  8
0
100
AcDbLine
 62
7
  6
BYLAYER
 10
5.9610814023
 20
18.1257352941
 11
8.9610814023
 21
18.1257352941
  0
LINE
  5
253
100
AcDbEntity
  8
0
100
AcDbLine
 62
7
  6
BYLAYER
 10
25.9610814023
 20
18.1257352941
 11
28.9610814023
 21
18.1257352941
  0
LINE
  5
254
100
AcDbEntity
  8
0
100
AcDbLine
 62
7
  6
BYLAYER
 10
29.4610361929
 20
18.2257352941
 11
28.8610814023
 21
18.2257352941
  0
LINE
  5
255
100
AcDbEntity
  8
0
100
AcDbLine
 62
7
  6
BYLAYER
 10
28.2417623766
 20
18.2257352941
 11
22.9935028588
 21
18.2257352941
  0
LINE
  5
256
100
AcDbEntity
  8
0
100
AcDbLine
 62
7
  6
BYLAYER
 10
11.9286599457
 20
18.2257352941
 11
6.6804004279
 21
18.2257352941
  0
LINE
  5
257
100
AcDbEntity
  8
0
100
AcDbLine
 62
7
  6
BYLAYER
 10
6.0610814023
 20
18.2257352941
 11
5.4611266116
 21
18.2257352941
  0
LINE
  5
258
100
AcDbEntity
  8
0
100
AcDbLine
 62
7
  6
BYLAYER
 10
28.7610814023
 20
18.3257352941
 11
28.2417623766
 21
18.3257352941
  0
LINE
  5
259
100
AcDbEntity
  8
0
100
AcDbLine
 62
7
  6
BYLAYER
 10
6.6804004279
 20
18.3257352941
 11
6.1610814023
 21
18.3257352941
  0
LINE
  5
25A
100
AcDbEntity
  8
0
100
AcDbLine
 62
7
  6
BYLAYER
 10
12.4610814023
 20
36.1257352941
 11
12.4610814023
 21
38.860989332
  0
LINE
  5
25B
100
AcDbEntity
  8
0
100
AcDbLine
 62
7
  6
BYLAYER
 10
30.9610814023
 20
18.8257352941
 11
3.9610814023
 21
18.8257352941
  0
LINE
  5
25C
100
AcDbEntity
  8
0
100
AcDbLine
 62
7
  6
BYLAYER
 10
5.9610814023
 20
18.1257352941
 11
6.1610814023
 21
18.3257352941
  0
LINE
  5
25D
100
AcDbEntity
  8
0
100
AcDbLine
 62
7
  6
BYLAYER
 10
26.1610814023
 20
13.1257352941
 11
25.9610814023
 21
13.3257352941
  0
LINE
  5
25E
100
AcDbEntity
  8
0
100
AcDbLine
 62
7
  6
BYLAYER
 10
3.9610814023
 20
25.3257352941
 11
30.9610814023
 21
25.3257352941
  0
LINE
  5
25F
100
AcDbEntity
  8
0
100
AcDbLine
 62
7
  6
BYLAYER
 10
8.7610814023
 20
13.1257352941
 11
8.9610814023
 21
13.3257352941
  0
LINE
  5
260
100
AcDbEntity
  8
0
100
AcDbLine
 62
7
  6
BYLAYER
 10
4.0110814023
 20
26.6257352941
 11
30.9110814023
 21
26.6257352941
  0
LINE
  5
261
100
AcDbEntity
  8
0
100
AcDbLine
 62
7
  6
BYLAYER
 10
4.4610814023
 20
27.1257352941
 11
30.4610814023
 21
27.1257352941
  0
LINE
  5
262
100
AcDbEntity
  8
0
100
AcDbLine
 62
7
  6
BYLAYER
 10
9.1845025989
 20
28.3257352941
 11
9.7872205092
 21
28.3257352941
  0
LINE
  5
263
100
AcDbEntity
  8
0
100
AcDbLine
 62
7
  6
BYLAYER
 10
29.1845025989
 20
28.3257352941
 11
29.7872205092
 21
28.3257352941
  0
LINE
  5
264
100
AcDbEntity
  8
0
100
AcDbLine
 62
7
  6
BYLAYER
 10
28.9610814023
 20
18.1257352941
 11
28.7610814023
 21
18.3257352941
  0
LINE
  5
265
100
AcDbEntity
  8
0
100
AcDbLine
 62
7
  6
BYLAYER
 10
22.4610814023
 20
36.1257352941
 11
22.4610814023
 21
38.860989332
  0
LINE
  5
266
100
AcDbEntity
  8
0
100
AcDbLine
 62
7
  6
BYLAYER
 10
22.9935028588
 20
18.2257352941
 11
22.9935028588
 21
18.8257352941
  0
LINE
  5
267
100
AcDbEntity
  8
0
100
AcDbLine
 62
7
  6
BYLAYER
 10
4.6120996721
 20
28.8518820169
 11
9.1403481132
 21
28.8518820169
  0
LINE
  5
268
100
AcDbEntity
  8
0
100
AcDbLine
 62
7
  6
BYLAYER
 10
9.7625505444
 20
28.8518820169
 11
10.3100631324
 21
28.8518820169
  0
LINE
  5
269
100
AcDbEntity
  8
0
100
AcDbLine
 62
7
  6
BYLAYER
 10
24.6120996721
 20
28.8518820169
 11
29.1403481132
 21
28.8518820169
  0
LINE
  5
26A
100
AcDbEntity
  8
0
100
AcDbLine
 62
7
  6
BYLAYER
 10
29.7625505444
 20
28.8518820169
 11
30.3100631324
 21
28.8518820169
  0
LINE
  5
26B
100
AcDbEntity
  8
0
100
AcDbLine
 62
7
  6
BYLAYER
 10
4.9109580815
 20
29.1257352941
 11
10.011204723
 21
29.1257352941
  0
LINE
  5
26C
100
AcDbEntity
  8
0
100
AcDbLine
 62
7
  6
BYLAYER
 10
24.9109580815
 20
29.1257352941
 11
30.011204723
 21
29.1257352941
  0
LINE
  5
26D
100
AcDbEntity
  8
0
100
AcDbLine
 62
7
  6
BYLAYER
 10
24.4610814023
 20
27.1257352941
 11
24.6120996721
 21
28.8518820169
  0
LINE
  5
26E
100
AcDbEntity
  8
0
100
AcDbLine
 62
7
  6
BYLAYER
 10
7.5110814023
 20
30.1257352941
 11
27.4110814023
 21
30.1257352941
  0
LINE
  5
26F
100
AcDbEntity
  8
0
100
AcDbLine
 62
7
  6
BYLAYER
 10
25.9610814023
 20
13.3257352941
 11
25.9610814023
 21
18.1257352941
  0
LINE
  5
270
100
AcDbEntity
  8
0
100
AcDbLine
 62
7
  6
BYLAYER
 10
26.943443312
 20
18.8257352941
 11
26.943443312
 21
18.2257352941
  0
LINE
  5
271
100
AcDbEntity
  8
0
100
AcDbLine
 62
7
  6
BYLAYER
 10
27.4110814023
 20
29.1257352941
 11
27.4110814023
 21
30.1257352941
  0
LINE
  5
272
100
AcDbEntity
  8
0
100
AcDbLine
 62
7
  6
BYLAYER
 10
28.2417623766
 20
18.2257352941
 11
28.2417623766
 21
18.8257352941
  0
LINE
  5
273
100
AcDbEntity
  8
0
100
AcDbLine
 62
7
  6
BYLAYER
 10
28.7610814023
 20
18.3257352941
 11
28.7610814023
 21
18.8257352941
  0
LINE
  5
274
100
AcDbEntity
  8
0
100
AcDbLine
 62
7
  6
BYLAYER
 10
27.6733419672
 20
12.7991464277
 11
27.6790425971
 21
13.1257352941
  0
LINE
  5
275
100
AcDbEntity
  8
0
100
AcDbLine
 62
7
  6
BYLAYER
 10
25.9610814023
 20
18.1257352941
 11
26.0610814023
 21
18.2257352941
  0
LINE
  5
276
100
AcDbEntity
  8
0
100
AcDbLine
 62
7
  6
BYLAYER
 10
8.6869037067
 20
34.513963875
 11
26.2352590978
 21
34.513963875
  0
LINE
  5
277
100
AcDbEntity
  8
0
100
AcDbLine
 62
7
  6
BYLAYER
 10
26.2352591014
 20
34.5139638618
 11
27.4110814023
 21
30.1257352941
  0
LINE
  5
278
100
AcDbEntity
  8
0
100
AcDbLine
 62
7
  6
BYLAYER
 10
29.0994786237
 20
18.8257352941
 11
29.1076830372
 21
18.2257352941
  0
LINE
  5
279
100
AcDbEntity
  8
0
100
AcDbLine
 62
7
  6
BYLAYER
 10
28.9610814023
 20
13.3257352941
 11
28.9610814023
 21
18.1257352941
  0
LINE
  5
27A
100
AcDbEntity
  8
0
100
AcDbLine
 62
7
  6
BYLAYER
 10
29.3024225484
 20
18.8257352941
 11
29.3024225484
 21
18.2257352941
  0
LINE
  5
27B
100
AcDbEntity
  8
0
100
AcDbLine
 62
7
  6
BYLAYER
 10
29.4610814023
 20
18.2257352941
 11
29.4610814023
 21
18.8257352941
  0
LINE
  5
27C
100
AcDbEntity
  8
0
100
AcDbLine
 62
7
  6
BYLAYER
 10
30.2110813773
 20
27.1257352941
 11
30.2110814023
 21
25.3257352941
  0
LINE
  5
27D
100
AcDbEntity
  8
0
100
AcDbLine
 62
7
  6
BYLAYER
 10
30.2611770324
 20
18.8257352941
 11
30.2611806933
 21
25.3257352941
  0
LINE
  5
27E
100
AcDbEntity
  8
0
100
AcDbLine
 62
7
  6
BYLAYER
 10
24.7862802355
 20
35.6257352941
 11
10.135882569
 21
35.6257352941
  0
LINE
  5
27F
100
AcDbEntity
  8
0
100
AcDbLine
 62
7
  6
BYLAYER
 10
11.4610815371
 20
36.1257352941
 11
23.4610812674
 21
36.1257352941
  0
LINE
  5
280
100
AcDbEntity
  8
0
100
AcDbLine
 62
7
  6
BYLAYER
 10
23.4610812674
 20
36.125735773
 11
23.9610819243
 21
35.6257351447
  0
LINE
  5
281
100
AcDbEntity
  8
0
100
AcDbLine
 62
7
  6
BYLAYER
 10
30.4610814023
 20
27.1257352941
 11
30.3100631324
 21
28.8518820169
  0
LINE
  5
282
100
AcDbEntity
  8
0
100
AcDbLine
 62
7
  6
BYLAYER
 10
30.9110814023
 20
25.3257352941
 11
30.9110814023
 21
26.6257352941
  0
LINE
  5
283
100
AcDbEntity
  8
0
100
AcDbLine
 62
7
  6
BYLAYER
 10
30.9610814023
 20
18.8257352941
 11
30.9610814023
 21
25.3257352941
  0
LINE
  5
284
100
AcDbEntity
  8
0
100
AcDbLine
 62
7
  6
BYLAYER
 10
27.6064308215
 20
12.5578726309
 11
27.6733419672
 21
12.7991464277
  0
LINE
  5
285
100
AcDbEntity
  8
0
100
AcDbLine
 62
7
  6
BYLAYER
 10
27.0393935658
 20
11.5757352941
 11
27.6064308215
 21
12.5578726309
  0
LINE
  5
286
100
AcDbEntity
  8
0
100
AcDbLine
 62
7
  6
BYLAYER
 10
12.4610814023
 20
38.860989332
 11
22.4610814023
 21
38.860989332
  0
LINE
  5
287
100
AcDbEntity
  8
0
100
AcDbLine
 62
7
  6
BYLAYER
 10
28.7610814023
 20
13.1257352941
 11
28.9610814023
 21
13.3257352941
  0
ARC
  5
288
100
AcDbEntity
  8
0
100
AcDbCircle
 62
7
  6
BYLAYER
 10
17.4610814023
 20
30.2007352941
 40
10.0
100
AcDbArc
 50
60.0
 51
120.0
  0
ARC
  5
289
100
AcDbEntity
  8
0
100
AcDbCircle
 62
7
  6
BYLAYER
 10
12.9022853832
 20
13.3721637194
 40
2.5017962898
100
AcDbArc
 50
193.276943957
 51
199.8662010963
  0
ARC
  5
28A
100
AcDbEntity
  8
0
100
AcDbCircle
 62
7
  6
BYLAYER
 10
24.7863703619
 20
34.1257352941
 40
1.5
100
AcDbArc
 50
15.0000005224
 51
90.0
  0
ARC
  5
28B
100
AcDbEntity
  8
0
100
AcDbCircle
 62
7
  6
BYLAYER
 10
10.1357924426
 20
34.1257352941
 40
1.5
100
AcDbArc
 50
90.0
 51
164.9999994776
  0
ARC
  5
28C
100
AcDbEntity
  8
0
100
AcDbCircle
 62
7
  6
BYLAYER
 10
4.5110814023
 20
26.6257352941
 40
0.5
100
AcDbArc
 50
90.0
 51
180.0000000004
  0
ARC
  5
28D
100
AcDbEntity
  8
0
100
AcDbCircle
 62
7
  6
BYLAYER
 10
30.4110814023
 20
26.6257352941
 40
0.5
100
AcDbArc
 50
0.0
 51
90.0000000001
  0
ARC
  5
28E
100
AcDbEntity
  8
0
100
AcDbCircle
 62
7
  6
BYLAYER
 10
26.6063808639
 20
11.8257352941
 40
0.5
100
AcDbArc
 50
270.0
 51
330.0
  0
ARC
  5
28F
100
AcDbEntity
  8
0
100
AcDbCircle
 62
7
  6
BYLAYER
 10
8.3157819406
 20
11.8257352941
 40
0.5
100
AcDbArc
 50
210.0
 51
270.0
  0
ARC
  5
290
100
AcDbEntity
  8
0
100
AcDbCircle
 62
7
  6
BYLAYER
 10
24.9109580815
 20
28.8257352941
 40
0.3
100
AcDbArc
 50
90.0
 51
175.0
  0
ARC
  5
291
100
AcDbEntity
  8
0
100
AcDbCircle
 62
7
  6
BYLAYER
 10
30.011204723
 20
28.8257352941
 40
0.3
100
AcDbArc
 50
5.0
 51
90.0
  0
ARC
  5
292
100
AcDbEntity
  8
0
100
AcDbCircle
 62
7
  6
BYLAYER
 10
4.9109580815
 20
28.8257352941
 40
0.3
100
AcDbArc
 50
90.0
 51
175.0
  0
ARC
  5
293
100
AcDbEntity
  8
0
100
AcDbCircle
 62
7
  6
BYLAYER
 10
10.011204723
 20
28.8257352941
 40
0.3
100
AcDbArc
 50
5.0
 51
90.0
  0
SPLINE
  5
294
100
AcDbEntity
  8
0
100
AcDbSpline
 62
7
  6
BYLAYER
 70
0
 71
3
 72
14
 73
10
 74
0
 42
0.0000001
 43
0.0000001
 44
0.0000000001
 40
0.0
 40
0.0
 40
0.0
 40
0.0
 40
0.2867233189
 40
0.4231521399
 40
0.5525171901
 40
0.6740528291
 40
0.7880176694
 40
0.8958870982
 40
1.0
 40
1.0
 40
1.0
 40
1.0
 10
29.1403481132
 20
28.8518820169
 30
0.0
 10
29.1372823484
 20
28.8883682051
 30
0.0
 10
29.1256750219
 20
28.9420837499
 30
0.0
 10
29.0960893115
 20
29.0063600379
 30
0.0
 10
29.0684864894
 20
29.0476935435
 30
0.0
 10
29.0360104743
 20
29.0814785392
 30
0.0
 10
28.9996790851
 20
29.1066262472
 30
0.0
 10
28.9606635561
 20
29.1221725736
 30
0.0
 10
28.9334793042
 20
29.1257352941
 30
0.0
 10
28.9201840159
 20
29.1257352941
 30
0.0
  0
LINE
  5
295
100
AcDbEntity
  8
0
100
AcDbLine
 62
7
  6
BYLAYER
 10
29.1845025989
 20
28.3257352941
 11
29.1403481132
 21
28.8518820169
  0
SPLINE
  5
296
100
AcDbEntity
  8
0
100
AcDbSpline
 62
7
  6
BYLAYER
 70
0
 71
3
 72
14
 73
10
 74
0
 42
0.0000001
 43
0.0000001
 44
0.0000000001
 40
0.0
 40
0.0
 40
0.0
 40
0.0
 40
0.1048995872
 40
0.2127236991
 40
0.3261106281
 40
0.4468884979
 40
0.5756408254
 40
0.7118594986
 40
1.0
 40
1.0
 40
1.0
 40
1.0
 10
29.5525279146
 20
29.1257352941
 30
0.0
 10
29.5657609917
 20
29.1257352941
 30
0.0
 10
29.5927172334
 20
29.1222175466
 30
0.0
 10
29.6312318016
 20
29.1066771965
 30
0.0
 10
29.6667004999
 20
29.0814962896
 30
0.0
 10
29.6979662454
 20
29.0476630055
 30
0.0
 10
29.7240527482
 20
29.0062848342
 30
0.0
 10
29.7513130081
 20
28.9418223285
 30
0.0
 10
29.760844288
 20
28.8881908564
 30
0.0
 10
29.7625505444
 20
28.8518820169
 30
0.0
  0
LINE
  5
297
100
AcDbEntity
  8
0
100
AcDbLine
 62
7
  6
BYLAYER
 10
29.7625505444
 20
28.8518820169
 11
29.7872205092
 21
28.3257352941
  0
SPLINE
  5
298
100
AcDbEntity
  8
0
100
AcDbSpline
 62
7
  6
BYLAYER
 70
0
 71
3
 72
14
 73
10
 74
0
 42
0.0000001
 43
0.0000001
 44
0.0000000001
 40
0.0
 40
0.0
 40
0.0
 40
0.0
 40
0.2867233189
 40
0.4231521399
 40
0.5525171901
 40
0.6740528291
 40
0.7880176694
 40
0.8958870982
 40
1.0
 40
1.0
 40
1.0
 40
1.0
 10
9.1403481132
 20
28.8518820169
 30
0.0
 10
9.1372823484
 20
28.8883682051
 30
0.0
 10
9.1256750219
 20
28.9420837499
 30
0.0
 10
9.0960893115
 20
29.0063600379
 30
0.0
 10
9.0684864894
 20
29.0476935435
 30
0.0
 10
9.0360104743
 20
29.0814785392
 30
0.0
 10
8.9996790851
 20
29.1066262472
 30
0.0
 10
8.9606635561
 20
29.1221725736
 30
0.0
 10
8.9334793042
 20
29.1257352941
 30
0.0
 10
8.9201840159
 20
29.1257352941
 30
0.0
  0
LINE
  5
299
100
AcDbEntity
  8
0
100
AcDbLine
 62
7
  6
BYLAYER
 10
9.1845025989
 20
28.3257352941
 11
9.1403481132
 21
28.8518820169
  0
SPLINE
  5
29A
100
AcDbEntity
  8
0
100
AcDbSpline
 62
7
  6
BYLAYER
 70
0
 71
3
 72
14
 73
10
 74
0
 42
0.0000001
 43
0.0000001
 44
0.0000000001
 40
0.0
 40
0.0
 40
0.0
 40
0.0
 40
0.1048995872
 40
0.2127236991
 40
0.3261106281
 40
0.4468884979
 40
0.5756408254
 40
0.7118594986
 40
1.0
 40
1.0
 40
1.0
 40
1.0
 10
9.5525279146
 20
29.1257352941
 30
0.0
 10
9.5657609917
 20
29.1257352941
 30
0.0
 10
9.5927172334
 20
29.1222175466
 30
0.0
 10
9.6312318016
 20
29.1066771965
 30
0.0
 10
9.6667004999
 20
29.0814962896
 30
0.0
 10
9.6979662454
 20
29.0476630055
 30
0.0
 10
9.7240527482
 20
29.0062848342
 30
0.0
 10
9.7513130081
 20
28.9418223285
 30
0.0
 10
9.760844288
 20
28.8881908564
 30
0.0
 10
9.7625505444
 20
28.8518820169
 30
0.0
  0
LINE
  5
29B
100
AcDbEntity
  8
0
100
AcDbLine
 62
7
  6
BYLAYER
 10
9.7625505444
 20
28.8518820169
 11
9.7872205092
 21
28.3257352941
  0
LINE
  5
29C
100
AcDbEntity
  8
0
100
AcDbLine
 62
7
  6
BYLAYER
 10
10.649506921
 20
12.5578726309
 11
11.0509903873
 21
11.5757088267
  0
SPLINE
  5
29D
100
AcDbEntity
  8
0
100
AcDbSpline
 62
7
  6
BYLAYER
 70
0
 71
3
 72
9
 73
5
 74
0
 42
0.0000001
 43
0.0000001
 44
0.0000000001
 40
0.0
 40
0.0
 40
0.0
 40
0.0
 40
0.2558910568
 40
1.0
 40
1.0
 40
1.0
 40
1.0
 10
10.602111764
 20
12.7991464277
 30
0.0
 10
10.6023717487
 20
12.7781075994
 30
0.0
 10
10.607091586
 20
12.6960072706
 30
0.0
 10
10.6263575257
 20
12.6145079316
 30
0.0
 10
10.649506921
 20
12.5578726309
 30
0.0
  0
SPLINE
  5
29E
100
AcDbEntity
  8
0
100
AcDbSpline
 62
7
  6
BYLAYER
 70
0
 71
3
 72
14
 73
10
 74
0
 42
0.0000001
 43
0.0000001
 44
0.0000000001
 40
0.0
 40
0.0
 40
0.0
 40
0.0
 40
0.110605648
 40
0.2232399594
 40
0.3392924177
 40
0.4600286236
 40
0.5863376291
 40
0.7186543978
 40
1.0
 40
1.0
 40
1.0
 40
1.0
 10
11.357610285
 20
11.3257352941
 30
0.0
 10
11.3421607504
 20
11.3257352941
 30
0.0
 10
11.3109074412
 20
11.3286636058
 30
0.0
 10
11.2650632141
 20
11.341597266
 30
0.0
 10
11.2209073442
 20
11.3629410251
 30
0.0
 10
11.1792184164
 20
11.3921739471
 30
0.0
 10
11.1406693408
 20
11.4287994091
 30
0.0
 10
11.093337775
 20
11.4877354792
 30
0.0
 10
11.0658612782
 20
11.5393323957
 30
0.0
 10
11.0509903873
 20
11.5757088267
 30
0.0
  0
SPLINE
  5
29F
100
AcDbEntity
  8
0
100
AcDbSpline
 62
7
  6
BYLAYER
 70
0
 71
3
 72
14
 73
10
 74
0
 42
0.0000001
 43
0.0000001
 44
0.0000000001
 40
0.0
 40
0.0
 40
0.0
 40
0.0
 40
0.1053464883
 40
0.2138716267
 40
0.3278331352
 40
0.448855888
 40
0.7122879011
 40
0.8541083866
 40
1.0
 40
1.0
 40
1.0
 40
1.0
 10
12.1119156392
 20
7.9757352941
 30
0.0
 10
12.0912892203
 20
7.9757352941
 30
0.0
 10
12.0492461357
 20
7.9809785289
 30
0.0
 10
11.9887653803
 20
8.0040756475
 30
0.0
 10
11.9323782024
 20
8.0416742383
 30
0.0
 10
11.863021547
 20
8.1110320118
 30
0.0
 10
11.8107703659
 20
8.2021892167
 30
0.0
 10
11.7771189951
 20
8.3048661332
 30
0.0
 10
11.7665889278
 20
8.3604203353
 30
0.0
 10
11.7630488181
 20
8.3887651117
 30
0.0
  0
LINE
  5
2A0
100
AcDbEntity
  8
0
100
AcDbLine
 62
7
  6
BYLAYER
 10
10.364892426
 20
11.3257352941
 11
10.7334336674
 21
8.3889112053
  0
LINE
  5
2A1
100
AcDbEntity
  8
0
100
AcDbLine
 62
7
  6
BYLAYER
 10
11.3962727514
 20
11.3257352941
 11
11.7630488181
 21
8.3887651117
  0
LINE
  5
2A2
100
AcDbEntity
  8
0
100
AcDbLine
 62
7
  6
BYLAYER
 10
24.1887291371
 20
8.3889112053
 11
24.5572703785
 21
11.3257352941
  0
SPLINE
  5
2A3
100
AcDbEntity
  8
0
100
AcDbSpline
 62
7
  6
BYLAYER
 70
0
 71
3
 72
14
 73
10
 74
0
 42
0.0000001
 43
0.0000001
 44
0.0000000001
 40
0.0
 40
0.0
 40
0.0
 40
0.0
 40
0.1459625039
 40
0.287813232
 40
0.5511726147
 40
0.6721028114
 40
0.7860098519
 40
0.8945872825
 40
1.0
 40
1.0
 40
1.0
 40
1.0
 10
24.1887291371
 20
8.3889112053
 30
0.0
 10
24.1851605553
 20
8.360485126
 30
0.0
 10
24.1745488395
 20
8.3047822952
 30
0.0
 10
24.1406473871
 20
8.2019004284
 30
0.0
 10
24.0880254542
 20
8.1106628156
 30
0.0
 10
24.0182215965
 20
8.0414612859
 30
0.0
 10
23.9615252763
 20
8.004071801
 30
0.0
 10
23.9008597779
 20
7.981032006
 30
0.0
 10
23.8586964883
 20
7.9757352941
 30
0.0
 10
23.8380063101
 20
7.9757352941
 30
0.0
  0
SPLINE
  5
2A4
100
AcDbEntity
  8
0
100
AcDbSpline
 62
7
  6
BYLAYER
 70
0
 71
3
 72
14
 73
10
 74
0
 42
0.0000001
 43
0.0000001
 44
0.0000000001
 40
0.0
 40
0.0
 40
0.0
 40
0.0
 40
0.1054134087
 40
0.2139932309
 40
0.3279014269
 40
0.4488339404
 40
0.7121950149
 40
0.8540390323
 40
1.0
 40
1.0
 40
1.0
 40
1.0
 10
11.0841565553
 20
7.9757352941
 30
0.0
 10
11.0634662075
 20
7.9757352941
 30
0.0
 10
11.0213023618
 20
7.9810331134
 30
0.0
 10
10.9606358726
 20
8.0040720446
 30
0.0
 10
10.9039366572
 20
8.0414601641
 30
0.0
 10
10.8341377098
 20
8.1106684748
 30
0.0
 10
10.7815128417
 20
8.2019025115
 30
0.0
 10
10.7476106439
 20
8.3047835511
 30
0.0
 10
10.7370022175
 20
8.3604853784
 30
0.0
 10
10.7334336674
 20
8.3889112053
 30
0.0
  0
SPLINE
  5
2A5
100
AcDbEntity
  8
0
100
AcDbSpline
 62
7
  6
BYLAYER
 70
0
 71
3
 72
14
 73
10
 74
0
 42
0.0000001
 43
0.0000001
 44
0.0000000001
 40
0.0
 40
0.0
 40
0.0
 40
0.0
 40
0.1052248056
 40
0.2138335856
 40
0.3278680582
 40
0.4488367492
 40
0.7123286175
 40
0.8542656596
 40
1.0
 40
1.0
 40
1.0
 40
1.0
 10
11.5421109602
 20
8.4257376007
 30
0.0
 10
11.529756204
 20
8.4257376007
 30
0.0
 10
11.5045545167
 20
8.4289472889
 30
0.0
 10
11.468298818
 20
8.4428343452
 30
0.0
 10
11.4345137611
 20
8.4654482563
 30
0.0
 10
11.3929541063
 20
8.5070801706
 30
0.0
 10
11.3616794145
 20
8.5618038045
 30
0.0
 10
11.3416155981
 20
8.6234147861
 30
0.0
 10
11.3353215584
 20
8.6567256226
 30
0.0
 10
11.333204504
 20
8.673705253
 30
0.0
  0
SPLINE
  5
2A6
100
AcDbEntity
  8
0
100
AcDbSpline
 62
7
  6
BYLAYER
 70
0
 71
3
 72
14
 73
10
 74
0
 42
0.0000001
 43
0.0000001
 44
0.0000000001
 40
0.0
 40
0.0
 40
0.0
 40
0.0
 40
0.1458929689
 40
0.2877157137
 40
0.5511502215
 40
0.6721721207
 40
0.7861315976
 40
0.8946539252
 40
1.0
 40
1.0
 40
1.0
 40
1.0
 10
11.0559368216
 20
8.388806871
 30
0.0
 10
11.0594774113
 20
8.3604582511
 30
0.0
 10
11.0700056932
 20
8.3048959191
 30
0.0
 10
11.1036536402
 20
8.2022022212
 30
0.0
 10
11.1559092127
 20
8.1110303399
 30
0.0
 10
11.2252759601
 20
8.0416650261
 30
0.0
 10
11.281671811
 20
8.0040654661
 30
0.0
 10
11.3421627336
 20
7.9809740376
 30
0.0
 10
11.3842105932
 20
7.9757352941
 30
0.0
 10
11.4048395363
 20
7.9757352941
 30
0.0
  0
SPLINE
  5
2A7
100
AcDbEntity
  8
0
100
AcDbSpline
 62
7
  6
BYLAYER
 70
0
 71
3
 72
14
 73
10
 74
0
 42
0.0000001
 43
0.0000001
 44
0.0000000001
 40
0.0
 40
0.0
 40
0.0
 40
0.0
 40
0.2813463325
 40
0.4136630686
 40
0.5399720104
 40
0.6607082012
 40
0.7767602135
 40
0.8893939902
 40
1.0
 40
1.0
 40
1.0
 40
1.0
 10
10.3438835756
 20
11.5757089017
 30
0.0
 10
10.3587549169
 20
11.5393313691
 30
0.0
 10
10.3862323814
 20
11.4877329653
 30
0.0
 10
10.4335659586
 20
11.4287956917
 30
0.0
 10
10.4721166568
 20
11.3921698128
 30
0.0
 10
10.513807184
 20
11.3629368306
 30
0.0
 10
10.5579648412
 20
11.3415938018
 30
0.0
 10
10.6038110541
 20
11.3286624825
 30
0.0
 10
10.6350651968
 20
11.3257352941
 30
0.0
 10
10.6505152097
 20
11.3257352941
 30
0.0
  0
LINE
  5
2A8
100
AcDbEntity
  8
0
100
AcDbLine
 62
7
  6
BYLAYER
 10
20.9178061278
 20
8.3889112053
 11
21.236646105
 21
10.912559383
  0
LINE
  5
2A9
100
AcDbEntity
  8
0
100
AcDbLine
 62
7
  6
BYLAYER
 10
13.6855166995
 20
10.912559383
 11
14.0043566767
 21
8.3889112053
  0
SPLINE
  5
2AA
100
AcDbEntity
  8
0
100
AcDbSpline
 62
7
  6
BYLAYER
 70
0
 71
3
 72
13
 73
9
 74
0
 42
0.0000001
 43
0.0000001
 44
0.0000000001
 40
0.0
 40
0.0
 40
0.0
 40
0.0
 40
0.2870578319
 40
0.5535851312
 40
0.6754532606
 40
0.7893508235
 40
0.8967447968
 40
1.0
 40
1.0
 40
1.0
 40
1.0
 10
11.542120151
 20
8.4257352941
 30
0.0
 10
11.542120151
 20
8.4450578237
 30
0.0
 10
11.5471529671
 20
8.4825090638
 30
0.0
 10
11.5662460487
 20
8.5247556372
 30
0.0
 10
11.5882742415
 20
8.5506735152
 30
0.0
 10
11.606744488
 20
8.5648873756
 30
0.0
 10
11.6269917374
 20
8.5736824829
 30
0.0
 10
11.6412358206
 20
8.5757352941
 30
0.0
 10
11.6481861682
 20
8.5757352941
 30
0.0
  0
SPLINE
  5
2AB
100
AcDbEntity
  8
0
100
AcDbSpline
 62
7
  6
BYLAYER
 70
0
 71
3
 72
11
 73
7
 74
0
 42
0.0000001
 43
0.0000001
 44
0.0000000001
 40
0.0
 40
0.0
 40
0.0
 40
0.0
 40
0.2286317406
 40
0.4984452907
 40
0.7690687819
 40
1.0
 40
1.0
 40
1.0
 40
1.0
 10
11.5437315322
 20
8.6996880673
 30
0.0
 10
11.5275377588
 20
8.6996880673
 30
0.0
 10
11.4922408315
 20
8.6979334849
 30
0.0
 10
11.4380264158
 20
8.6924900926
 30
0.0
 10
11.3839589319
 20
8.6845290666
 30
0.0
 10
11.3490815259
 20
8.6775984088
 30
0.0
 10
11.333210879
 20
8.6736408407
 30
0.0
  0
SPLINE
  5
2AC
100
AcDbEntity
  8
0
100
AcDbSpline
 62
7
  6
BYLAYER
 70
0
 71
3
 72
13
 73
9
 74
0
 42
0.0000001
 43
0.0000001
 44
0.0000000001
 40
0.0
 40
0.0
 40
0.0
 40
0.0
 40
0.1053235078
 40
0.2140264089
 40
0.4481227425
 40
0.5767777488
 40
0.7126790273
 40
1.0
 40
1.0
 40
1.0
 40
1.0
 10
11.6481861682
 20
8.5757352941
 30
0.0
 10
11.6420096896
 20
8.5757352941
 30
0.0
 10
11.6294093009
 20
8.5773385321
 30
0.0
 10
11.6046679548
 20
8.5868013648
 30
0.0
 10
11.5829931426
 20
8.6053450694
 30
0.0
 10
11.5662162925
 20
8.6293692009
 30
0.0
 10
11.5518955351
 20
8.6585156485
 30
0.0
 10
11.5458162007
 20
8.6829681842
 30
0.0
 10
11.5437315322
 20
8.6996880674
 30
0.0
  0
SPLINE
  5
2AD
100
AcDbEntity
  8
0
100
AcDbSpline
 62
7
  6
BYLAYER
 70
0
 71
3
 72
11
 73
7
 74
0
 42
0.0000001
 43
0.0000001
 44
0.0000000001
 40
0.0
 40
0.0
 40
0.0
 40
0.0
 40
0.2205747256
 40
0.4788208684
 40
0.7476540544
 40
1.0
 40
1.0
 40
1.0
 40
1.0
 10
10.9949646474
 20
11.3865121563
 30
0.0
 10
11.0078376362
 20
11.3897222164
 30
0.0
 10
11.0360609832
 20
11.3955623443
 30
0.0
 10
11.0804733897
 20
11.4026818895
 30
0.0
 10
11.1270295371
 20
11.4082867245
 30
0.0
 10
11.1582888365
 20
11.4108084161
 30
0.0
 10
11.1734455505
 20
11.4116152551
 30
0.0
  0
SPLINE
  5
2AE
100
AcDbEntity
  8
0
100
AcDbSpline
 62
7
  6
BYLAYER
 70
0
 71
3
 72
11
 73
7
 74
0
 42
0.0000001
 43
0.0000001
 44
0.0000000001
 40
0.0
 40
0.0
 40
0.0
 40
0.0
 40
0.246804196
 40
0.5039331744
 40
0.7586600672
 40
1.0
 40
1.0
 40
1.0
 40
1.0
 10
10.8843713118
 20
11.6207791664
 30
0.0
 10
10.8896588963
 20
11.6324971322
 30
0.0
 10
10.9027781848
 20
11.6554133743
 30
0.0
 10
10.9277634325
 20
11.6862311287
 30
0.0
 10
10.9570743355
 20
11.7125494678
 30
0.0
 10
10.9790522867
 20
11.7264580075
 30
0.0
 10
10.9903019475
 20
11.732068468
 30
0.0
  0
SPLINE
  5
2AF
100
AcDbEntity
  8
0
100
AcDbSpline
 62
7
  6
BYLAYER
 70
0
 71
3
 72
9
 73
5
 74
0
 42
0.0000001
 43
0.0000001
 44
0.0000000001
 40
0.0
 40
0.0
 40
0.0
 40
0.0
 40
0.4842605203
 40
1.0
 40
1.0
 40
1.0
 40
1.0
 10
10.9164137886
 20
11.881068583
 30
0.0
 10
10.8378249985
 20
11.9713902797
 30
0.0
 10
10.6954572239
 20
12.1757565752
 30
0.0
 10
10.5927542026
 20
12.4020891745
 30
0.0
 10
10.5493741078
 20
12.5219912629
 30
0.0
  0
SPLINE
  5
2B0
100
AcDbEntity
  8
0
100
AcDbSpline
 62
7
  6
BYLAYER
 70
0
 71
3
 72
13
 73
9
 74
0
 42
0.0000001
 43
0.0000001
 44
0.0000000001
 40
0.0
 40
0.0
 40
0.0
 40
0.0
 40
0.1103092913
 40
0.234526118
 40
0.5051516904
 40
0.7730763741
 40
0.8940231189
 40
1.0
 40
1.0
 40
1.0
 40
1.0
 10
10.2607246709
 20
12.7499370041
 30
0.0
 10
10.2678123528
 20
12.7532965562
 30
0.0
 10
10.2831842419
 20
12.759802548
 30
0.0
 10
10.317027519
 20
12.7718762656
 30
0.0
 10
10.3625387574
 20
12.7843619771
 30
0.0
 10
10.4086916429
 20
12.7930574924
 30
0.0
 10
10.4436870781
 20
12.7968529271
 30
0.0
 10
10.4598231613
 20
12.7976059178
 30
0.0
 10
10.4673586886
 20
12.7976059178
 30
0.0
  0
SPLINE
  5
2B1
100
AcDbEntity
  8
0
100
AcDbSpline
 62
7
  6
BYLAYER
 70
0
 71
3
 72
9
 73
5
 74
0
 42
0.0000001
 43
0.0000001
 44
0.0000000001
 40
0.0
 40
0.0
 40
0.0
 40
0.0
 40
0.4999842299
 40
1.0
 40
1.0
 40
1.0
 40
1.0
 10
10.4110743169
 20
13.2601282025
 30
0.0
 10
10.3757196312
 20
13.2601282025
 30
0.0
 10
10.305009494
 20
13.2594673073
 30
0.0
 10
10.2343045853
 20
13.2583828679
 30
0.0
 10
10.1989584369
 20
13.2575103415
 30
0.0
  0
SPLINE
  5
2B2
100
AcDbEntity
  8
0
100
AcDbSpline
 62
7
  6
BYLAYER
 70
0
 71
3
 72
9
 73
5
 74
0
 42
0.0000001
 43
0.0000001
 44
0.0000000001
 40
0.0
 40
0.0
 40
0.0
 40
0.0
 40
0.2473973782
 40
1.0
 40
1.0
 40
1.0
 40
1.0
 10
10.4673586886
 20
12.7976059178
 30
0.0
 10
10.4584876912
 20
12.8350365363
 30
0.0
 10
10.42696579
 20
12.9873353286
 30
0.0
 10
10.412518551
 20
13.1431160109
 30
0.0
 10
10.4110743169
 20
13.2601282025
 30
0.0
  0
LINE
  5
2B3
100
AcDbEntity
  8
0
100
AcDbLine
 62
7
  6
BYLAYER
 10
12.1476472298
 20
8.3889112053
 11
11.7791059884
 21
11.3257352941
  0
SPLINE
  5
2B4
100
AcDbEntity
  8
0
100
AcDbSpline
 62
7
  6
BYLAYER
 70
0
 71
3
 72
14
 73
10
 74
0
 42
0.0000001
 43
0.0000001
 44
0.0000000001
 40
0.0
 40
0.0
 40
0.0
 40
0.0
 40
0.1460141448
 40
0.2878671993
 40
0.5511318399
 40
0.6720184458
 40
0.7859187419
 40
0.8945310097
 40
1.0
 40
1.0
 40
1.0
 40
1.0
 10
13.6855166995
 20
10.912559383
 30
0.0
 10
13.6819216308
 20
10.9410411123
 30
0.0
 10
13.6712272238
 20
10.9968389909
 30
0.0
 10
13.6370707059
 20
11.0998246265
 30
0.0
 10
13.5841097642
 20
11.1910481976
 30
0.0
 10
13.5140142183
 20
11.2601472789
 30
0.0
 10
13.4571364181
 20
11.2974585508
 30
0.0
 10
13.3963217983
 20
11.3204470108
 30
0.0
 10
13.3540709881
 20
11.3257352941
 30
0.0
 10
13.3333348144
 20
11.3257352941
 30
0.0
  0
SPLINE
  5
2B5
100
AcDbEntity
  8
0
100
AcDbSpline
 62
7
  6
BYLAYER
 70
0
 71
3
 72
15
 73
11
 74
0
 42
0.0000001
 43
0.0000001
 44
0.0000000001
 40
0.0
 40
0.0
 40
0.0
 40
0.0
 40
0.1054351375
 40
0.2139698543
 40
0.3277390971
 40
0.4484707526
 40
0.5767640378
 40
0.7122810479
 40
0.8540405573
 40
1.0
 40
1.0
 40
1.0
 40
1.0
 10
14.3579881599
 20
7.9757352941
 30
0.0
 10
14.3372011314
 20
7.9757352941
 30
0.0
 10
14.2948573625
 20
7.9809800812
 30
0.0
 10
14.233854719
 20
8.0038355416
 30
0.0
 10
14.1767535157
 20
8.0410010445
 30
0.0
 10
14.1253696779
 20
8.0913481106
 30
0.0
 10
14.0810659393
 20
8.1532936254
 30
0.0
 10
14.0451527486
 20
8.2250703291
 30
0.0
 10
14.018695458
 20
8.3044687989
 30
0.0
 10
14.0079672088
 20
8.3603620224
 30
0.0
 10
14.0043566767
 20
8.3889112053
 30
0.0
  0
SPLINE
  5
2B6
100
AcDbEntity
  8
0
100
AcDbSpline
 62
7
  6
BYLAYER
 70
0
 71
3
 72
14
 73
10
 74
0
 42
0.0000001
 43
0.0000001
 44
0.0000000001
 40
0.0
 40
0.0
 40
0.0
 40
0.0
 40
0.1459625039
 40
0.287813232
 40
0.5511726147
 40
0.6721028114
 40
0.7860098519
 40
0.8945872825
 40
1.0
 40
1.0
 40
1.0
 40
1.0
 10
12.1476472298
 20
8.3889112053
 30
0.0
 10
12.1512158116
 20
8.360485126
 30
0.0
 10
12.1618275274
 20
8.3047822952
 30
0.0
 10
12.1957289798
 20
8.2019004285
 30
0.0
 10
12.2483509126
 20
8.1106628156
 30
0.0
 10
12.3181547703
 20
8.041461286
 30
0.0
 10
12.3748510905
 20
8.004071801
 30
0.0
 10
12.4355165889
 20
7.981032006
 30
0.0
 10
12.4776798785
 20
7.9757352941
 30
0.0
 10
12.4983700566
 20
7.9757352941
 30
0.0
  0
SPLINE
  5
2B7
100
AcDbEntity
  8
0
100
AcDbSpline
 62
7
  6
BYLAYER
 70
0
 71
3
 72
14
 73
10
 74
0
 42
0.0000001
 43
0.0000001
 44
0.0000000001
 40
0.0
 40
0.0
 40
0.0
 40
0.0
 40
0.1054134087
 40
0.2139932308
 40
0.3279014269
 40
0.4488339403
 40
0.7121950149
 40
0.8540390323
 40
1.0
 40
1.0
 40
1.0
 40
1.0
 10
22.423792686
 20
7.9757352941
 30
0.0
 10
22.4444830338
 20
7.9757352941
 30
0.0
 10
22.4866468796
 20
7.9810331133
 30
0.0
 10
22.547313369
 20
8.0040720443
 30
0.0
 10
22.6040125845
 20
8.0414601637
 30
0.0
 10
22.6738115321
 20
8.1106684745
 30
0.0
 10
22.7264364003
 20
8.2019025112
 30
0.0
 10
22.7603385982
 20
8.3047835509
 30
0.0
 10
22.7709470246
 20
8.3604853784
 30
0.0
 10
22.7745155747
 20
8.3889112053
 30
0.0
  0
SPLINE
  5
2B8
100
AcDbEntity
  8
0
100
AcDbSpline
 62
7
  6
BYLAYER
 70
0
 71
3
 72
14
 73
10
 74
0
 42
0.0000001
 43
0.0000001
 44
0.0000000001
 40
0.0
 40
0.0
 40
0.0
 40
0.0
 40
0.1460809969
 40
0.2879651825
 40
0.5511681586
 40
0.6719945077
 40
0.7858552541
 40
0.8944785211
 40
1.0
 40
1.0
 40
1.0
 40
1.0
 10
20.9178061278
 20
8.3889112053
 30
0.0
 10
20.9141955978
 20
8.360362039
 30
0.0
 10
20.9034480721
 20
8.3044405075
 30
0.0
 10
20.8691056316
 20
8.2012852258
 30
0.0
 10
20.8158443442
 20
8.1100002297
 30
0.0
 10
20.7454135125
 20
8.0410110535
 30
0.0
 10
20.6883089683
 20
8.003838532
 30
0.0
 10
20.6273103984
 20
7.9809822795
 30
0.0
 10
20.584967014
 20
7.9757352941
 30
0.0
 10
20.5641802861
 20
7.9757352941
 30
0.0
  0
SPLINE
  5
2B9
100
AcDbEntity
  8
0
100
AcDbSpline
 62
7
  6
BYLAYER
 70
0
 71
3
 72
14
 73
10
 74
0
 42
0.0000001
 43
0.0000001
 44
0.0000000001
 40
0.0
 40
0.0
 40
0.0
 40
0.0
 40
0.1054684041
 40
0.2140831762
 40
0.3279842517
 40
0.4488740467
 40
0.7121426091
 40
0.8539883447
 40
1.0
 40
1.0
 40
1.0
 40
1.0
 10
21.5888064901
 20
11.3257352941
 30
0.0
 10
21.568071146
 20
11.3257352941
 30
0.0
 10
21.5258216582
 20
11.320441444
 30
0.0
 10
21.4650113998
 20
11.2974486227
 30
0.0
 10
21.4081328881
 20
11.2601399675
 30
0.0
 10
21.3380465946
 20
11.1910336884
 30
0.0
 10
21.2850863565
 20
11.0998158063
 30
0.0
 10
21.2509311437
 20
10.9968342778
 30
0.0
 10
21.2402409886
 20
10.9410396455
 30
0.0
 10
21.236646105
 20
10.912559383
 30
0.0
  0
SPLINE
  5
2BA
100
AcDbEntity
  8
0
100
AcDbSpline
 62
7
  6
BYLAYER
 70
0
 71
3
 72
9
 73
5
 74
0
 42
0.0000001
 43
0.0000001
 44
0.0000000001
 40
0.0
 40
0.0
 40
0.0
 40
0.0
 40
0.2432898652
 40
1.0
 40
1.0
 40
1.0
 40
1.0
 10
9.9424001398
 20
12.5578726309
 30
0.0
 10
9.9348304735
 20
12.5763919194
 30
0.0
 10
9.9076742659
 20
12.6540956368
 30
0.0
 10
9.8957738862
 20
12.7369241958
 30
0.0
 10
9.8950049828
 20
12.7991464277
 30
0.0
  0
LINE
  5
2BB
100
AcDbEntity
  8
0
100
AcDbLine
 62
7
  6
BYLAYER
 10
23.1430568161
 20
11.3257352941
 11
22.7745155747
 21
8.3889112053
  0
LINE
  5
2BC
100
AcDbEntity
  8
0
100
AcDbLine
 62
7
  6
BYLAYER
 10
11.0559368216
 20
8.388806871
 11
10.6891659702
 21
11.3257352941
  0
LINE
  5
2BD
100
AcDbEntity
  8
0
100
AcDbLine
 62
7
  6
BYLAYER
 10
10.3438835756
 20
11.5757089017
 11
9.9424001398
 21
12.5578726309
  0
SPLINE
  5
2BE
100
AcDbEntity
  8
0
100
AcDbSpline
 62
7
  6
BYLAYER
 70
0
 71
3
 72
11
 73
7
 74
0
 42
0.0000001
 43
0.0000001
 44
0.0000000001
 40
0.0
 40
0.0
 40
0.0
 40
0.0
 40
0.2294015741
 40
0.4999965892
 40
0.7705948413
 40
1.0
 40
1.0
 40
1.0
 40
1.0
 10
10.142526217
 20
17.8296624841
 30
0.0
 10
10.1587448746
 20
17.8293380646
 30
0.0
 10
10.1941069974
 20
17.8291765597
 30
0.0
 10
10.2485886777
 20
17.8302974118
 30
0.0
 10
10.3030791006
 20
17.8307872205
 30
0.0
 10
10.3384360959
 20
17.8309702992
 30
0.0
 10
10.3546582513
 20
17.8309714148
 30
0.0
  0
SPLINE
  5
2BF
100
AcDbEntity
  8
0
100
AcDbSpline
 62
7
  6
BYLAYER
 70
0
 71
3
 72
9
 73
5
 74
0
 42
0.0000001
 43
0.0000001
 44
0.0000000001
 40
0.0
 40
0.0
 40
0.0
 40
0.0
 40
0.2473974604
 40
1.0
 40
1.0
 40
1.0
 40
1.0
 10
10.2607216738
 20
12.7499508096
 30
0.0
 10
10.2509872328
 20
12.7910246747
 30
0.0
 10
10.2163981717
 20
12.9581473441
 30
0.0
 10
10.2005433376
 20
13.1290904325
 30
0.0
 10
10.1989585321
 20
13.2574917532
 30
0.0
  0
SPLINE
  5
2C0
100
AcDbEntity
  8
0
100
AcDbSpline
 62
7
  6
BYLAYER
 70
0
 71
3
 72
11
 73
7
 74
0
 42
0.0000001
 43
0.0000001
 44
0.0000000001
 40
0.0
 40
0.0
 40
0.0
 40
0.0
 40
0.2307086294
 40
0.4751844063
 40
0.7323699759
 40
1.0
 40
1.0
 40
1.0
 40
1.0
 10
10.8843708039
 20
11.6207780354
 30
0.0
 10
10.8096929783
 20
11.6881725478
 30
0.0
 10
10.6689723913
 20
11.8419672202
 30
0.0
 10
10.4943211163
 20
12.1107324932
 30
0.0
 10
10.3543011509
 20
12.4167218005
 30
0.0
 10
10.287631714
 20
12.6364055776
 30
0.0
 10
10.2607216738
 20
12.7499508096
 30
0.0
  0
SPLINE
  5
2C1
100
AcDbEntity
  8
0
100
AcDbSpline
 62
7
  6
BYLAYER
 70
0
 71
3
 72
10
 73
6
 74
0
 42
0.0000001
 43
0.0000001
 44
0.0000000001
 40
0.0
 40
0.0
 40
0.0
 40
0.0
 40
0.2692698717
 40
0.5285868998
 40
1.0
 40
1.0
 40
1.0
 40
1.0
 10
10.9949674598
 20
11.3864852501
 30
0.0
 10
10.9920413476
 20
11.4099538512
 30
0.0
 10
10.982874862
 20
11.4557270043
 30
0.0
 10
10.9525788045
 20
11.538268004
 30
0.0
 10
10.9151089739
 20
11.5930377535
 30
0.0
 10
10.8843708039
 20
11.6207780354
 30
0.0
  0
ENDSEC
  0
SECTION
  2
OBJECTS
  0
DICTIONARY
  5
C
100
AcDbDictionary
280
0
281
1
  3
ACAD_GROUP
350
D
  3
ACAD_MLINESTYLE
350
17
  3
ACAD_LAYOUT
350
1A
  3
ACAD_PLOTSETTINGS
350
19
  3
ACAD_PLOTSTYLENAME
350
E
  0
DICTIONARY
  5
D
102
{ACAD_REACTORS
330
C
102
}
100
AcDbDictionary
280
0
281
1
  0
ACDBDICTIONARYWDFLT
  5
E
102
{ACAD_REACTORS
330
C
102
}
100
AcDbDictionary
281
1
  3
Normal
350
F
100
AcDbDictionaryWithDefault
340
F
  0
DICTIONARY
  5
17
102
{ACAD_REACTORS
330
C
102
}
100
AcDbDictionary
280
0
281
1
  3
Standard
350
18
  0
DICTIONARY
  5
19
102
{ACAD_REACTORS
330
C
102
}
100
AcDbDictionary
281
1
  0
DICTIONARY
  5
1A
102
{ACAD_REACTORS
330
C
102
}
100
AcDbDictionary
281
1
  3
Model
350
2C2
  3
Layout1
350
2C3
  0
ACDBPLACEHOLDER
  5
F
102
{ACAD_REACTORS
330
E
102
}
  0
MLINESTYLE
  5
18
102
{ACAD_REACTORS
330
17
102
}
100
AcDbMlineStyle
  2
STANDARD
 70
0
  3

 62
256
 51
90.0
 52
90.0
 71
2
 49
0.5
 62
256
  6
BYLAYER
 49
-0.5
 62
256
  6
BYLAYER
  0
LAYOUT
  5
2C2
102
{ACAD_REACTORS
330
1A
102
}
100
AcDbPlotSettings
  1

  2
none_device
  4

  6

 40
0.0
 41
0.0
 42
0.0
 43
0.0
 44
210.0
 45
297.0
 46
0.0
 47
0.0
 48
0.0
 49
0.0
140
0.0
141
0.0
142
1.0
143
1.0
 70
1024
 72
1
 73
0
 74
0
  7

 75
0
147
1.0
148
0.0
149
0.0
100
AcDbLayout
  1
Model
 70
0
 71
0
 10
0.0
 20
0.0
 11
210.0
 21
297.0
 12
0.0
 22
0.0
 32
0.0
 14
0.0
 24
0.0
 34
0.0
 15
0.0
 25
0.0
 35
0.0
146
0.0
 13
0.0
 23
0.0
 33
0.0
 16
1.0
 26
0.0
 36
0.0
 17
0.0
 27
1.0
 37
0.0
 76
0
330
210
345
0
346
0
  0
LAYOUT
  5
2C3
102
{ACAD_REACTORS
330
1A
102
}
100
AcDbPlotSettings
  1

  2
none_device
  4

  6

 40
0.0
 41
0.0
 42
0.0
 43
0.0
 44
210.0
 45
297.0
 46
0.0
 47
0.0
 48
0.0
 49
0.0
140
0.0
141
0.0
142
1.0
143
1.0
 70
0
 72
1
 73
0
 74
0
  7

 75
0
147
1.0
148
0.0
149
0.0
100
AcDbLayout
  1
Layout1
 70
0
 71
1
 10
0.0
 20
0.0
 11
210.0
 21
297.0
 12
0.0
 22
0.0
 32
0.0
 14
0.0
 24
0.0
 34
0.0
 15
0.0
 25
0.0
 35
0.0
146
0.0
 13
0.0
 23
0.0
 33
0.0
 16
1.0
 26
0.0
 36
0.0
 17
0.0
 27
1.0
 37
0.0
 76
0
330
211
345
0
346
0
  0
ENDSEC
  0
EOF
