999
DXF file: C:\Users\sesa63760\Dev\_Creo\CAD\MCADID0004765_3D-CAD\drw0001_2.dxf
999
Pro/ENGINEER 2019471 by Parametric Technology Corporation
  0
SECTION
  2
HEADER
  9
$ACADVER
  1
AC1024
  9
$DWGCODEPAGE
  3
ANSI_1252
  9
$EXTMAX
 10
33.9809863339
 20
48.0588235294
 30
0.0
  9
$EXTMIN
 10
0.0
 20
0.0
 30
0.0
  9
$LIMMIN
 10
0.0
 20
0.0
  9
$LIMMAX
 10
33.9809863339
 20
48.0588235294
  9
$VIEWCTR
 10
16.990493167
 20
24.0294117647
  9
$VIEWSIZE
 40
48.0588235294
  9
$CLAYER
  8
0
  9
$LTSCALE
 40
3.1327233115
  9
$CELTYPE
  6
BYLAYER
  9
$DIMSCALE
 40
1.0
  9
$DIMASZ
 40
0.4045355516
  9
$DIMEXO
 40
1.0
  9
$DIMDLI
 40
2.1644270153
  9
$DIMEXE
 40
1.0
  9
$DIMCEN
 40
0.512627451
  9
$DIMLFAC
 40
1.0
  9
$DIMBLK
  1
_FILLED
  9
$DIMALT
 70
0
  9
$DIMALTF
 40
0.0393700787
  9
$DIMTXT
 40
0.5663497722
  9
$DIMTOL
 70
1
  9
$DIMLIM
 70
0
  9
$DIMTFAC
 40
1.0
  9
$DIMTP
 40
0.01
  9
$DIMTM
 40
0.01
  9
$DIMGAP
 40
0.625
  9
$DIMDSEP
 70
46
  9
$AUNITS
 70
0
  9
$PDMODE
 70
3
  9
$PDSIZE
 40
0.3125
  9
$HANDSEED
  5
2C4
  9
$TILEMODE
 70
1
  9
$MEASUREMENT
 70
1
  9
$INSUNITS
 70
4
  0
ENDSEC
  0
SECTION
  2
CLASSES
  0
CLASS
  1
ACDBDICTIONARYWDFLT
  2
AcDbDictionaryWithDefault
  3
AutoCAD 2000
 90
0
 91
1
280
0
281
0
  0
CLASS
  1
ACDBPLACEHOLDER
  2
AcDbPlaceHolder
  3
AutoCAD 2000
 90
0
 91
1
280
0
281
0
  0
CLASS
  1
LAYOUT
  2
AcDbLayout
  3
AutoCAD 2000
 90
0
 91
0
280
0
281
0
  0
ENDSEC
  0
SECTION
  2
TABLES
  0
TABLE
  2
VPORT
  5
8
100
AcDbSymbolTable
 70
2
  0
VPORT
  5
1F4
100
AcDbSymbolTableRecord
100
AcDbViewportTableRecord
  2
*ACTIVE
 70
0
 10
0.0
 20
0.0
 11
1.0
 21
1.0
 12
16.990493167
 22
24.0294117647
 13
0.0
 23
0.0
 14
1.0
 24
1.0
 15
0.0
 25
0.0
 16
0.0
 26
0.0
 36
1.0
 17
0.0
 27
0.0
 37
0.0
 40
48.0588235294
 41
0.7070707071
 42
50.0
 43
0.0
 44
0.0
 50
0.0
 51
0.0
 71
0
 72
100
 73
1
 74
1
 75
0
 76
0
 77
0
 78
0
  0
ENDTAB
  0
TABLE
  2
LTYPE
  5
5
100
AcDbSymbolTable
 70
6
  0
LTYPE
  5
14
100
AcDbSymbolTableRecord
100
AcDbLinetypeTableRecord
  2
BYBLOCK
 70
0
  3

 72
65
 73
0
 40
0.0
  0
LTYPE
  5
15
100
AcDbSymbolTableRecord
100
AcDbLinetypeTableRecord
  2
BYLAYER
 70
0
  3

 72
65
 73
0
 40
0.0
  0
LTYPE
  5
16
100
AcDbSymbolTableRecord
100
AcDbLinetypeTableRecord
  2
CONTINUOUS
 70
64
  3
Solid line
 72
65
 73
0
 40
0.0
  0
LTYPE
  5
1F5
100
AcDbSymbolTableRecord
100
AcDbLinetypeTableRecord
  2
CENTER
 70
64
  3
____ _ ____ _ ____ _ ____ _ ____ _ ____ _ ____
 72
65
 73
4
 40
0.6
 49
0.375
 74
0
 49
-0.075
 74
0
 49
0.075
 74
0
 49
-0.075
 74
0
  0
LTYPE
  5
1F6
100
AcDbSymbolTableRecord
100
AcDbLinetypeTableRecord
  2
HIDDEN
 70
64
  3
- - - - - - - - - - - - - - - - - - - -
 72
65
 73
2
 40
0.2
 49
0.1
 74
0
 49
-0.1
 74
0
  0
LTYPE
  5
1F7
100
AcDbSymbolTableRecord
100
AcDbLinetypeTableRecord
  2
PHANTOM
 70
64
  3
_____ _ _ _____ _ _ _____ _ _ _____
 72
65
 73
6
 40
0.8
 49
0.45
 74
0
 49
-0.05
 74
0
 49
0.1
 74
0
 49
-0.05
 74
0
 49
0.1
 74
0
 49
-0.05
 74
0
  0
LTYPE
  5
1F8
100
AcDbSymbolTableRecord
100
AcDbLinetypeTableRecord
  2
DOT
 70
64
  3
. . . . . . . . . . . . . . . . . . . .
 72
65
 73
2
 40
0.2
 49
0.1
 74
0
 49
-0.1
 74
0
  0
LTYPE
  5
1F9
100
AcDbSymbolTableRecord
100
AcDbLinetypeTableRecord
  2
DASHED
 70
64
  3
- - - - - - - - - - - - - - - - - - - -
 72
65
 73
2
 40
0.2
 49
0.1
 74
0
 49
-0.1
 74
0
  0
ENDTAB
  0
TABLE
  2
LAYER
  5
2
100
AcDbSymbolTable
 70
36
  0
LAYER
  5
10
100
AcDbSymbolTableRecord
100
AcDbLayerTableRecord
  2
0
 70
0
 62
7
  6
CONTINUOUS
370
-3
390
F
  0
LAYER
  5
1FA
100
AcDbSymbolTableRecord
100
AcDbLayerTableRecord
  2
DEFAULT_1
 70
0
 62
7
  6
CENTER
370
-3
390
F
  0
LAYER
  5
1FB
100
AcDbSymbolTableRecord
100
AcDbLayerTableRecord
  2
DEFAULT_2
 70
0
 62
7
  6
HIDDEN
370
-3
390
F
  0
LAYER
  5
1FC
100
AcDbSymbolTableRecord
100
AcDbLayerTableRecord
  2
DEFAULT_3
 70
0
 62
7
  6
PHANTOM
370
-3
390
F
  0
LAYER
  5
1FD
100
AcDbSymbolTableRecord
100
AcDbLayerTableRecord
  2
00_COMPONENTS
 70
0
 62
7
  6
CONTINUOUS
370
-3
390
F
  0
LAYER
  5
1FE
100
AcDbSymbolTableRecord
100
AcDbLayerTableRecord
  2
01_1_DEFAULT_DATUMS
 70
0
 62
7
  6
CONTINUOUS
370
-3
390
F
  0
LAYER
  5
1FF
100
AcDbSymbolTableRecord
100
AcDbLayerTableRecord
  2
01_PLANES
 70
0
 62
7
  6
CONTINUOUS
370
-3
390
F
  0
LAYER
  5
200
100
AcDbSymbolTableRecord
100
AcDbLayerTableRecord
  2
02_COORD_SYS
 70
0
 62
7
  6
CONTINUOUS
370
-3
390
F
  0
LAYER
  5
201
100
AcDbSymbolTableRecord
100
AcDbLayerTableRecord
  2
03_AXES
 70
0
 62
7
  6
CONTINUOUS
370
-3
390
F
  0
LAYER
  5
202
100
AcDbSymbolTableRecord
100
AcDbLayerTableRecord
  2
04_POINTS
 70
0
 62
7
  6
CONTINUOUS
370
-3
390
F
  0
LAYER
  5
203
100
AcDbSymbolTableRecord
100
AcDbLayerTableRecord
  2
05_CURVES
 70
0
 62
7
  6
CONTINUOUS
370
-3
390
F
  0
LAYER
  5
204
100
AcDbSymbolTableRecord
100
AcDbLayerTableRecord
  2
06_SURFS
 70
0
 62
7
  6
CONTINUOUS
370
-3
390
F
  0
LAYER
  5
205
100
AcDbSymbolTableRecord
100
AcDbLayerTableRecord
  2
07_COSMETICS
 70
0
 62
7
  6
CONTINUOUS
370
-3
390
F
  0
LAYER
  5
206
100
AcDbSymbolTableRecord
100
AcDbLayerTableRecord
  2
10_NOTES
 70
0
 62
7
  6
CONTINUOUS
370
-3
390
F
  0
LAYER
  5
207
100
AcDbSymbolTableRecord
100
AcDbLayerTableRecord
  2
11_NOTES_PUB
 70
0
 62
7
  6
CONTINUOUS
370
-3
390
F
  0
LAYER
  5
208
100
AcDbSymbolTableRecord
100
AcDbLayerTableRecord
  2
13_REF_GTOL
 70
0
 62
7
  6
CONTINUOUS
370
-3
390
F
  0
LAYER
  5
209
100
AcDbSymbolTableRecord
100
AcDbLayerTableRecord
  2
16_MISC
 70
0
 62
7
  6
CONTINUOUS
370
-3
390
F
  0
LAYER
  5
20A
100
AcDbSymbolTableRecord
100
AcDbLayerTableRecord
  2
17_NO_PRINT
 70
0
 62
7
  6
CONTINUOUS
370
-3
390
F
  0
LAYER
  5
20B
100
AcDbSymbolTableRecord
100
AcDbLayerTableRecord
  2
18_DATUM_CAMS_JOINTS
 70
0
 62
7
  6
CONTINUOUS
370
-3
390
F
  0
LAYER
  5
20C
100
AcDbSymbolTableRecord
100
AcDbLayerTableRecord
  2
19_DATUM_FUNCTIONAL
 70
0
 62
7
  6
CONTINUOUS
370
-3
390
F
  0
LAYER
  5
20D
100
AcDbSymbolTableRecord
100
AcDbLayerTableRecord
  2
20_DATUM_KINEMATIC_SCHEME
 70
0
 62
7
  6
CONTINUOUS
370
-3
390
F
  0
ENDTAB
  0
TABLE
  2
STYLE
  5
3
100
AcDbSymbolTable
 70
1
  0
STYLE
  5
11
100
AcDbSymbolTableRecord
100
AcDbTextStyleTableRecord
  2
STANDARD
 70
0
 40
0.0
 41
1.0
 50
0.0
 71
0
 42
0.2
  3
ARIAL.TTF
  4

  0
STYLE
  5
20E
100
AcDbSymbolTableRecord
100
AcDbTextStyleTableRecord
  2
TEXTSTYLE_1
 70
0
 40
0.0
 41
0.8
 50
0.0
 71
0
 42
0.2
  3
gdt
  4

  0
ENDTAB
  0
TABLE
  2
VIEW
  5
6
100
AcDbSymbolTable
 70
0
  0
ENDTAB
  0
TABLE
  2
UCS
  5
7
100
AcDbSymbolTable
 70
0
  0
ENDTAB
  0
TABLE
  2
APPID
  5
9
100
AcDbSymbolTable
 70
1
  0
APPID
  5
20F
100
AcDbSymbolTableRecord
100
AcDbRegAppTableRecord
  2
ACAD
 70
0
  0
ENDTAB
  0
TABLE
  2
BLOCK_RECORD
  5
1
100
AcDbSymbolTable
 70
0
  0
BLOCK_RECORD
  5
210
100
AcDbSymbolTableRecord
100
AcDbBlockTableRecord
  2
*Model_Space
  0
BLOCK_RECORD
  5
211
100
AcDbSymbolTableRecord
100
AcDbBlockTableRecord
  2
*Paper_Space
  0
BLOCK_RECORD
  5
212
100
AcDbSymbolTableRecord
100
AcDbBlockTableRecord
  2
_FILLED
  0
ENDTAB
  0
TABLE
  2
DIMSTYLE
  5
A
100
AcDbSymbolTable
 70
1
100
AcDbDimStyleTable
 71
0
  0
DIMSTYLE
105
213
100
AcDbSymbolTableRecord
100
AcDbDimStyleTableRecord
  2
STANDARD
 70
0
  3

  4

 40
1.0
 41
0.4045355516
 42
1.0
 43
0.38
 44
1.0
 45
0.0
 46
0.0
 47
0.01
 48
0.01
140
0.5663497722
141
0.09
142
0.0
143
25.4
144
1.0
145
0.0
146
1.0
147
0.625
 71
1
 72
0
 73
0
 74
0
 75
0
 76
0
 77
1
 78
8
 79
2
170
0
171
1
172
0
173
0
174
0
175
0
176
0
177
0
178
0
270
2
179
2
271
2
272
2
273
2
274
2
275
0
280
0
281
0
282
0
283
1
284
8
285
0
286
0
287
3
288
0
340
11
278
46
341
212
342
212
343
212
344
212
  0
ENDTAB
  0
ENDSEC
  0
SECTION
  2
BLOCKS
  0
BLOCK
  5
20
100
AcDbEntity
  8
0
100
AcDbBlockBegin
  2
*Model_Space
 70
0
 10
0.0
 20
0.0
 30
0.0
  3
*Model_Space
  1

  0
ENDBLK
  5
21
100
AcDbEntity
  8
0
100
AcDbBlockEnd
  0
BLOCK
  5
1C
100
AcDbEntity
  8
0
100
AcDbBlockBegin
  2
*Paper_Space
 70
0
 10
0.0
 20
0.0
 30
0.0
  3
*Paper_Space
  1

  0
ENDBLK
  5
1D
100
AcDbEntity
  8
0
100
AcDbBlockEnd
  0
BLOCK
  5
214
100
AcDbEntity
  8
0
100
AcDbBlockBegin
  2
_FILLED
 70
64
 10
0.0
 20
0.0
  3
_FILLED
  1

  0
SOLID
  5
215
100
AcDbEntity
  8
0
  6
BYBLOCK
 62
0
100
AcDbTrace
 10
0.0
 20
0.0
 11
-1.0
 21
0.25
 12
-1.0
 22
-0.25
 13
-1.0
 23
-0.25
  0
ENDBLK
  5
216
100
AcDbEntity
  8
0
  6
BYBLOCK
 62
0
100
AcDbBlockEnd
  0
ENDSEC
  0
SECTION
  2
ENTITIES
  0
LINE
  5
217
100
AcDbEntity
  8
0
100
AcDbLine
 62
7
  6
BYLAYER
 10
23.6027121933
 20
7.8286764706
 11
10.8488623764
 21
7.8286764706
  0
LINE
  5
218
100
AcDbEntity
  8
0
100
AcDbLine
 62
7
  6
BYLAYER
 10
23.9534350195
 20
8.2418523818
 11
23.6309445288
 21
8.2418523818
  0
LINE
  5
219
100
AcDbEntity
  8
0
100
AcDbLine
 62
7
  6
BYLAYER
 10
22.9238384807
 20
8.2418523818
 11
22.5392214571
 21
8.2418523818
  0
LINE
  5
21A
100
AcDbEntity
  8
0
100
AcDbLine
 62
7
  6
BYLAYER
 10
20.6825120102
 20
8.2418523818
 11
13.7690625591
 21
8.2418523818
  0
LINE
  5
21B
100
AcDbEntity
  8
0
100
AcDbLine
 62
7
  6
BYLAYER
 10
11.9123531121
 20
8.2418523818
 11
10.4981395497
 21
8.2418523818
  0
LINE
  5
21C
100
AcDbEntity
  8
0
100
AcDbLine
 62
7
  6
BYLAYER
 10
22.9284373254
 20
8.2786783672
 11
23.1447025706
 21
8.2786787772
  0
LINE
  5
21D
100
AcDbEntity
  8
0
100
AcDbLine
 62
7
  6
BYLAYER
 10
23.0386825187
 20
8.4286764706
 11
22.9471706438
 21
8.4286764706
  0
LINE
  5
21E
100
AcDbEntity
  8
0
100
AcDbLine
 62
7
  6
BYLAYER
 10
22.9626511514
 20
8.5526292439
 11
23.1431371547
 21
8.5526292439
  0
LINE
  5
21F
100
AcDbEntity
  8
0
100
AcDbLine
 62
7
  6
BYLAYER
 10
5.9257872846
 20
12.9786764706
 11
5.7257872846
 21
13.1786764706
  0
LINE
  5
220
100
AcDbEntity
  8
0
100
AcDbLine
 62
7
  6
BYLAYER
 10
7.6474751211
 20
11.4286764706
 11
7.0804378653
 21
12.4108138074
  0
LINE
  5
221
100
AcDbEntity
  8
0
100
AcDbLine
 62
7
  6
BYLAYER
 10
3.7257872846
 20
25.1786764706
 11
3.7257872846
 21
18.6786764706
  0
LINE
  5
222
100
AcDbEntity
  8
0
100
AcDbLine
 62
7
  6
BYLAYER
 10
3.7757872846
 20
26.4786764706
 11
3.7757872846
 21
25.1786764706
  0
LINE
  5
223
100
AcDbEntity
  8
0
100
AcDbLine
 62
7
  6
BYLAYER
 10
4.425689473
 20
18.6786764706
 11
4.4256865392
 21
25.1786764706
  0
LINE
  5
224
100
AcDbEntity
  8
0
100
AcDbLine
 62
7
  6
BYLAYER
 10
4.4757872846
 20
25.1786764706
 11
4.4757872846
 21
26.9786764706
  0
LINE
  5
225
100
AcDbEntity
  8
0
100
AcDbLine
 62
7
  6
BYLAYER
 10
4.3768055544
 20
28.7048231934
 11
4.2257872846
 21
26.9786764706
  0
LINE
  5
226
100
AcDbEntity
  8
0
100
AcDbLine
 62
7
  6
BYLAYER
 10
10.7257867625
 20
35.4786763212
 11
11.2257874195
 21
35.9786769494
  0
LINE
  5
227
100
AcDbEntity
  8
0
100
AcDbLine
 62
7
  6
BYLAYER
 10
13.4502225819
 20
10.7655005594
 11
21.0013519874
 21
10.7655005594
  0
LINE
  5
228
100
AcDbEntity
  8
0
100
AcDbLine
 62
7
  6
BYLAYER
 10
26.3709707755
 20
11.1786764706
 11
23.9977027166
 21
11.1786764706
  0
LINE
  5
229
100
AcDbEntity
  8
0
100
AcDbLine
 62
7
  6
BYLAYER
 10
23.3292650788
 20
11.1786764706
 11
8.0806051034
 21
11.1786764706
  0
LINE
  5
22A
100
AcDbEntity
  8
0
100
AcDbLine
 62
7
  6
BYLAYER
 10
26.8040994481
 20
11.4286764706
 11
24.3429958241
 21
11.4286764706
  0
LINE
  5
22B
100
AcDbEntity
  8
0
100
AcDbLine
 62
7
  6
BYLAYER
 10
23.6358891883
 20
11.4286764706
 11
7.6474751211
 21
11.4286764706
  0
LINE
  5
22C
100
AcDbEntity
  8
0
100
AcDbLine
 62
7
  6
BYLAYER
 10
7.0804378653
 20
12.4108138074
 11
7.0135267196
 21
12.6520876041
  0
LINE
  5
22D
100
AcDbEntity
  8
0
100
AcDbLine
 62
7
  6
BYLAYER
 10
5.2257872846
 20
18.0786764706
 11
5.2257872846
 21
18.6786764706
  0
LINE
  5
22E
100
AcDbEntity
  8
0
100
AcDbLine
 62
7
  6
BYLAYER
 10
5.3844461385
 20
18.0786764706
 11
5.3844461385
 21
18.6786764706
  0
LINE
  5
22F
100
AcDbEntity
  8
0
100
AcDbLine
 62
7
  6
BYLAYER
 10
5.7257872846
 20
17.9786764706
 11
5.7257872846
 21
13.1786764706
  0
LINE
  5
230
100
AcDbEntity
  8
0
100
AcDbLine
 62
7
  6
BYLAYER
 10
5.9257872846
 20
18.6786764706
 11
5.9257872846
 21
18.1786764706
  0
LINE
  5
231
100
AcDbEntity
  8
0
100
AcDbLine
 62
7
  6
BYLAYER
 10
5.5791856497
 20
18.0786764706
 11
5.5873900632
 21
18.6786764706
  0
LINE
  5
232
100
AcDbEntity
  8
0
100
AcDbLine
 62
7
  6
BYLAYER
 10
8.4516095891
 20
34.3669050515
 11
7.2757872846
 21
29.9786764706
  0
LINE
  5
233
100
AcDbEntity
  8
0
100
AcDbLine
 62
7
  6
BYLAYER
 10
7.0804378653
 20
12.4108138074
 11
24.0373617658
 21
12.4108138074
  0
LINE
  5
234
100
AcDbEntity
  8
0
100
AcDbLine
 62
7
  6
BYLAYER
 10
24.744468547
 20
12.4108138074
 11
27.3711367039
 21
12.4108138074
  0
LINE
  5
235
100
AcDbEntity
  8
0
100
AcDbLine
 62
7
  6
BYLAYER
 10
24.0847569228
 20
12.6505470942
 11
24.2195099983
 21
12.6505470942
  0
LINE
  5
236
100
AcDbEntity
  8
0
100
AcDbLine
 62
7
  6
BYLAYER
 10
27.4380478496
 20
12.6520876041
 11
24.791359884
 21
12.6520876041
  0
LINE
  5
237
100
AcDbEntity
  8
0
100
AcDbLine
 62
7
  6
BYLAYER
 10
24.0852608133
 20
12.6520876041
 11
7.0135267196
 21
12.6520876041
  0
LINE
  5
238
100
AcDbEntity
  8
0
100
AcDbLine
 62
7
  6
BYLAYER
 10
7.0135267196
 20
12.6520876041
 11
7.0078260898
 21
12.9786764706
  0
LINE
  5
239
100
AcDbEntity
  8
0
100
AcDbLine
 62
7
  6
BYLAYER
 10
6.4451063103
 20
18.6786764706
 11
6.4451063103
 21
18.0786764706
  0
LINE
  5
23A
100
AcDbEntity
  8
0
100
AcDbLine
 62
7
  6
BYLAYER
 10
7.2757872846
 20
29.9786764706
 11
7.2757872846
 21
28.9786764706
  0
LINE
  5
23B
100
AcDbEntity
  8
0
100
AcDbLine
 62
7
  6
BYLAYER
 10
28.5257848429
 20
12.9786764706
 11
25.9257897263
 21
12.9786764706
  0
LINE
  5
23C
100
AcDbEntity
  8
0
100
AcDbLine
 62
7
  6
BYLAYER
 10
8.5257848429
 20
12.9786764706
 11
5.9257897263
 21
12.9786764706
  0
LINE
  5
23D
100
AcDbEntity
  8
0
100
AcDbLine
 62
7
  6
BYLAYER
 10
24.0904488946
 20
13.113069379
 11
24.27579437
 21
13.1130693789
  0
LINE
  5
23E
100
AcDbEntity
  8
0
100
AcDbLine
 62
7
  6
BYLAYER
 10
28.7257872846
 20
13.1786764706
 11
25.7257872846
 21
13.1786764706
  0
LINE
  5
23F
100
AcDbEntity
  8
0
100
AcDbLine
 62
7
  6
BYLAYER
 10
8.7257872846
 20
13.1786764706
 11
5.7257872846
 21
13.1786764706
  0
LINE
  5
240
100
AcDbEntity
  8
0
100
AcDbLine
 62
7
  6
BYLAYER
 10
8.6257872846
 20
18.0786764706
 11
8.7257872846
 21
17.9786764706
  0
LINE
  5
241
100
AcDbEntity
  8
0
100
AcDbLine
 62
7
  6
BYLAYER
 10
7.7434253748
 20
18.0786764706
 11
7.7434253748
 21
18.6786764706
  0
LINE
  5
242
100
AcDbEntity
  8
0
100
AcDbLine
 62
7
  6
BYLAYER
 10
8.7257872846
 20
17.9786764706
 11
8.7257872846
 21
13.1786764706
  0
LINE
  5
243
100
AcDbEntity
  8
0
100
AcDbLine
 62
7
  6
BYLAYER
 10
10.0747690148
 20
28.7048231934
 11
10.2257872846
 21
26.9786764706
  0
LINE
  5
244
100
AcDbEntity
  8
0
100
AcDbLine
 62
7
  6
BYLAYER
 10
11.6933658281
 20
18.6786764706
 11
11.6933658281
 21
18.0786764706
  0
LINE
  5
245
100
AcDbEntity
  8
0
100
AcDbLine
 62
7
  6
BYLAYER
 10
25.7257872846
 20
17.6786764706
 11
24.8541939785
 21
17.6786764706
  0
LINE
  5
246
100
AcDbEntity
  8
0
100
AcDbLine
 62
7
  6
BYLAYER
 10
24.1463184137
 20
17.6786764706
 11
8.7257872846
 21
17.6786764706
  0
LINE
  5
247
100
AcDbEntity
  8
0
100
AcDbLine
 62
7
  6
BYLAYER
 10
24.3322104355
 20
17.6839125913
 11
24.1468227217
 21
17.6839125913
  0
LINE
  5
248
100
AcDbEntity
  8
0
100
AcDbLine
 62
7
  6
BYLAYER
 10
5.7257872846
 20
17.9786764706
 11
8.7257872846
 21
17.9786764706
  0
LINE
  5
249
100
AcDbEntity
  8
0
100
AcDbLine
 62
7
  6
BYLAYER
 10
25.7257872846
 20
17.9786764706
 11
28.7257872846
 21
17.9786764706
  0
LINE
  5
24A
100
AcDbEntity
  8
0
100
AcDbLine
 62
7
  6
BYLAYER
 10
29.2257872846
 20
18.0786764706
 11
28.6257872846
 21
18.0786764706
  0
LINE
  5
24B
100
AcDbEntity
  8
0
100
AcDbLine
 62
7
  6
BYLAYER
 10
28.0064682589
 20
18.0786764706
 11
22.7582087412
 21
18.0786764706
  0
LINE
  5
24C
100
AcDbEntity
  8
0
100
AcDbLine
 62
7
  6
BYLAYER
 10
11.6933658281
 20
18.0786764706
 11
6.4451063103
 21
18.0786764706
  0
LINE
  5
24D
100
AcDbEntity
  8
0
100
AcDbLine
 62
7
  6
BYLAYER
 10
5.8257872846
 20
18.0786764706
 11
5.2257872846
 21
18.0786764706
  0
LINE
  5
24E
100
AcDbEntity
  8
0
100
AcDbLine
 62
7
  6
BYLAYER
 10
28.5257872846
 20
18.1786764706
 11
28.0064682589
 21
18.1786764706
  0
LINE
  5
24F
100
AcDbEntity
  8
0
100
AcDbLine
 62
7
  6
BYLAYER
 10
6.4451063103
 20
18.1786764706
 11
5.9257872846
 21
18.1786764706
  0
LINE
  5
250
100
AcDbEntity
  8
0
100
AcDbLine
 62
7
  6
BYLAYER
 10
12.2257872846
 20
38.7139305084
 11
12.2257872846
 21
35.9786764706
  0
LINE
  5
251
100
AcDbEntity
  8
0
100
AcDbLine
 62
7
  6
BYLAYER
 10
30.7257872846
 20
18.6786764706
 11
3.7257872846
 21
18.6786764706
  0
LINE
  5
252
100
AcDbEntity
  8
0
100
AcDbLine
 62
7
  6
BYLAYER
 10
5.9257872846
 20
18.1786764706
 11
5.7257872846
 21
17.9786764706
  0
LINE
  5
253
100
AcDbEntity
  8
0
100
AcDbLine
 62
7
  6
BYLAYER
 10
25.9257872846
 20
12.9786764706
 11
25.7257872846
 21
13.1786764706
  0
LINE
  5
254
100
AcDbEntity
  8
0
100
AcDbLine
 62
7
  6
BYLAYER
 10
3.7257872846
 20
25.1786764706
 11
30.7257872846
 21
25.1786764706
  0
LINE
  5
255
100
AcDbEntity
  8
0
100
AcDbLine
 62
7
  6
BYLAYER
 10
8.5257872846
 20
12.9786764706
 11
8.7257872846
 21
13.1786764706
  0
LINE
  5
256
100
AcDbEntity
  8
0
100
AcDbLine
 62
7
  6
BYLAYER
 10
3.7757872846
 20
26.4786764706
 11
30.6757872846
 21
26.4786764706
  0
LINE
  5
257
100
AcDbEntity
  8
0
100
AcDbLine
 62
7
  6
BYLAYER
 10
4.2258375346
 20
26.9786764706
 11
30.2257370346
 21
26.9786764706
  0
LINE
  5
258
100
AcDbEntity
  8
0
100
AcDbLine
 62
7
  6
BYLAYER
 10
4.8996481776
 20
28.1786764706
 11
5.502366088
 21
28.1786764706
  0
LINE
  5
259
100
AcDbEntity
  8
0
100
AcDbLine
 62
7
  6
BYLAYER
 10
24.8996481776
 20
28.1786764706
 11
25.502366088
 21
28.1786764706
  0
LINE
  5
25A
100
AcDbEntity
  8
0
100
AcDbLine
 62
7
  6
BYLAYER
 10
28.5257872846
 20
18.1786764706
 11
28.7257872846
 21
17.9786764706
  0
LINE
  5
25B
100
AcDbEntity
  8
0
100
AcDbLine
 62
7
  6
BYLAYER
 10
22.2257872846
 20
38.7139305084
 11
22.2257872846
 21
35.9786764706
  0
LINE
  5
25C
100
AcDbEntity
  8
0
100
AcDbLine
 62
7
  6
BYLAYER
 10
22.7582087412
 20
18.0786764706
 11
22.7582087412
 21
18.6786764706
  0
LINE
  5
25D
100
AcDbEntity
  8
0
100
AcDbLine
 62
7
  6
BYLAYER
 10
4.3768055544
 20
28.7048231934
 11
4.9243181424
 21
28.7048231934
  0
LINE
  5
25E
100
AcDbEntity
  8
0
100
AcDbLine
 62
7
  6
BYLAYER
 10
5.5465205737
 20
28.7048231934
 11
10.0747690148
 21
28.7048231934
  0
LINE
  5
25F
100
AcDbEntity
  8
0
100
AcDbLine
 62
7
  6
BYLAYER
 10
24.3768055544
 20
28.7048231934
 11
24.9243181424
 21
28.7048231934
  0
LINE
  5
260
100
AcDbEntity
  8
0
100
AcDbLine
 62
7
  6
BYLAYER
 10
25.5465205737
 20
28.7048231934
 11
30.0747690148
 21
28.7048231934
  0
LINE
  5
261
100
AcDbEntity
  8
0
100
AcDbLine
 62
7
  6
BYLAYER
 10
4.6756962958
 20
28.9786764706
 11
9.7758782735
 21
28.9786764706
  0
LINE
  5
262
100
AcDbEntity
  8
0
100
AcDbLine
 62
7
  6
BYLAYER
 10
24.6756962958
 20
28.9786764706
 11
29.7758782735
 21
28.9786764706
  0
LINE
  5
263
100
AcDbEntity
  8
0
100
AcDbLine
 62
7
  6
BYLAYER
 10
24.1468227217
 20
17.6786764706
 11
24.1468342813
 21
18.0786764706
  0
LINE
  5
264
100
AcDbEntity
  8
0
100
AcDbLine
 62
7
  6
BYLAYER
 10
24.3322104355
 20
18.0786764706
 11
24.3322104355
 21
17.6839125913
  0
LINE
  5
265
100
AcDbEntity
  8
0
100
AcDbLine
 62
7
  6
BYLAYER
 10
24.1468227217
 20
17.6786764706
 11
24.0847569228
 21
12.6520876041
  0
LINE
  5
266
100
AcDbEntity
  8
0
100
AcDbLine
 62
7
  6
BYLAYER
 10
24.27579437
 20
13.1130693789
 11
24.3322104355
 21
17.6839125913
  0
LINE
  5
267
100
AcDbEntity
  8
0
100
AcDbLine
 62
7
  6
BYLAYER
 10
24.3768055544
 20
28.7048231934
 11
24.2257872846
 21
26.9786764706
  0
LINE
  5
268
100
AcDbEntity
  8
0
100
AcDbLine
 62
7
  6
BYLAYER
 10
7.2757872846
 20
29.9786764706
 11
27.1757872846
 21
29.9786764706
  0
LINE
  5
269
100
AcDbEntity
  8
0
100
AcDbLine
 62
7
  6
BYLAYER
 10
24.5443411233
 20
17.6826035152
 11
24.5443414386
 21
18.0786764706
  0
LINE
  5
26A
100
AcDbEntity
  8
0
100
AcDbLine
 62
7
  6
BYLAYER
 10
24.8539410625
 20
18.0786764706
 11
24.8539295029
 21
17.6786764706
  0
LINE
  5
26B
100
AcDbEntity
  8
0
100
AcDbLine
 62
7
  6
BYLAYER
 10
25.7257872846
 20
17.9786764706
 11
25.7257872846
 21
13.1786764706
  0
LINE
  5
26C
100
AcDbEntity
  8
0
100
AcDbLine
 62
7
  6
BYLAYER
 10
24.5443411233
 20
17.6826035152
 11
24.4879101547
 21
13.1104329291
  0
LINE
  5
26D
100
AcDbEntity
  8
0
100
AcDbLine
 62
7
  6
BYLAYER
 10
24.791863704
 20
12.6520876041
 11
24.8539295029
 21
17.6786764706
  0
LINE
  5
26E
100
AcDbEntity
  8
0
100
AcDbLine
 62
7
  6
BYLAYER
 10
23.1431371547
 20
8.5526292439
 11
23.4775513847
 21
11.2347663605
  0
LINE
  5
26F
100
AcDbEntity
  8
0
100
AcDbLine
 62
7
  6
BYLAYER
 10
23.6919012412
 20
11.2394265622
 11
23.3536546055
 21
8.5265696165
  0
LINE
  5
270
100
AcDbEntity
  8
0
100
AcDbLine
 62
7
  6
BYLAYER
 10
26.7081491944
 20
18.6786764706
 11
26.7081491944
 21
18.0786764706
  0
LINE
  5
271
100
AcDbEntity
  8
0
100
AcDbLine
 62
7
  6
BYLAYER
 10
27.1757872846
 20
29.9786764706
 11
27.1757872846
 21
28.9786764706
  0
LINE
  5
272
100
AcDbEntity
  8
0
100
AcDbLine
 62
7
  6
BYLAYER
 10
28.0064682589
 20
18.0786764706
 11
28.0064682589
 21
18.6786764706
  0
LINE
  5
273
100
AcDbEntity
  8
0
100
AcDbLine
 62
7
  6
BYLAYER
 10
28.5257872846
 20
18.6786764706
 11
28.5257872846
 21
18.1786764706
  0
LINE
  5
274
100
AcDbEntity
  8
0
100
AcDbLine
 62
7
  6
BYLAYER
 10
27.4380478496
 20
12.6520876041
 11
27.4437484794
 21
12.9786764706
  0
LINE
  5
275
100
AcDbEntity
  8
0
100
AcDbLine
 62
7
  6
BYLAYER
 10
25.8257872846
 20
18.0786764706
 11
25.7257872846
 21
17.9786764706
  0
LINE
  5
276
100
AcDbEntity
  8
0
100
AcDbLine
 62
7
  6
BYLAYER
 10
8.4516095891
 20
34.3669050515
 11
25.9995331717
 21
34.3669050515
  0
LINE
  5
277
100
AcDbEntity
  8
0
100
AcDbLine
 62
7
  6
BYLAYER
 10
25.9999649802
 20
34.3669050515
 11
27.1757872846
 21
29.9786764706
  0
LINE
  5
278
100
AcDbEntity
  8
0
100
AcDbLine
 62
7
  6
BYLAYER
 10
28.864184506
 20
18.6786764706
 11
28.8723889196
 21
18.0786764706
  0
LINE
  5
279
100
AcDbEntity
  8
0
100
AcDbLine
 62
7
  6
BYLAYER
 10
28.7257872846
 20
17.9786764706
 11
28.7257872846
 21
13.1786764706
  0
LINE
  5
27A
100
AcDbEntity
  8
0
100
AcDbLine
 62
7
  6
BYLAYER
 10
29.0671284307
 20
18.6786764706
 11
29.0671284307
 21
18.0786764706
  0
LINE
  5
27B
100
AcDbEntity
  8
0
100
AcDbLine
 62
7
  6
BYLAYER
 10
29.2257872846
 20
18.6786764706
 11
29.2257872846
 21
18.0786764706
  0
LINE
  5
27C
100
AcDbEntity
  8
0
100
AcDbLine
 62
7
  6
BYLAYER
 10
29.9757872596
 20
26.9786764706
 11
29.9757872846
 21
25.1786764706
  0
LINE
  5
27D
100
AcDbEntity
  8
0
100
AcDbLine
 62
7
  6
BYLAYER
 10
30.0258829148
 20
25.1786764706
 11
30.0258829148
 21
18.6786764706
  0
LINE
  5
27E
100
AcDbEntity
  8
0
100
AcDbLine
 62
7
  6
BYLAYER
 10
9.9004983518
 20
35.4786764706
 11
24.5507157139
 21
35.4786764706
  0
LINE
  5
27F
100
AcDbEntity
  8
0
100
AcDbLine
 62
7
  6
BYLAYER
 10
11.2257874195
 20
35.9786764706
 11
23.2257871497
 21
35.9786764706
  0
LINE
  5
280
100
AcDbEntity
  8
0
100
AcDbLine
 62
7
  6
BYLAYER
 10
23.7257878067
 20
35.4786763212
 11
23.2257871497
 21
35.9786769494
  0
LINE
  5
281
100
AcDbEntity
  8
0
100
AcDbLine
 62
7
  6
BYLAYER
 10
30.0747690148
 20
28.7048231934
 11
30.2257872846
 21
26.9786764706
  0
LINE
  5
282
100
AcDbEntity
  8
0
100
AcDbLine
 62
7
  6
BYLAYER
 10
30.6757872846
 20
25.1786764706
 11
30.6757872846
 21
26.4786764706
  0
LINE
  5
283
100
AcDbEntity
  8
0
100
AcDbLine
 62
7
  6
BYLAYER
 10
30.7257872846
 20
18.6786764706
 11
30.7257872846
 21
25.1786764706
  0
LINE
  5
284
100
AcDbEntity
  8
0
100
AcDbLine
 62
7
  6
BYLAYER
 10
27.3711367039
 20
12.4108138074
 11
27.4380478496
 21
12.6520876041
  0
LINE
  5
285
100
AcDbEntity
  8
0
100
AcDbLine
 62
7
  6
BYLAYER
 10
26.8040994481
 20
11.4286764706
 11
27.3711367039
 21
12.4108138074
  0
LINE
  5
286
100
AcDbEntity
  8
0
100
AcDbLine
 62
7
  6
BYLAYER
 10
12.2257872846
 20
38.7139305084
 11
22.2257872846
 21
38.7139305084
  0
LINE
  5
287
100
AcDbEntity
  8
0
100
AcDbLine
 62
7
  6
BYLAYER
 10
28.5257872846
 20
12.9786764706
 11
28.7257872846
 21
13.1786764706
  0
ARC
  5
288
100
AcDbEntity
  8
0
100
AcDbCircle
 62
7
  6
BYLAYER
 10
17.2257872846
 20
30.0536764706
 40
10.0
100
AcDbArc
 50
60.0
 51
120.0
  0
ARC
  5
289
100
AcDbEntity
  8
0
100
AcDbCircle
 62
7
  6
BYLAYER
 10
21.7551116272
 20
13.2338707833
 40
2.5324939996
100
AcDbArc
 50
340.1829252168
 51
346.683165463
  0
ARC
  5
28A
100
AcDbEntity
  8
0
100
AcDbCircle
 62
7
  6
BYLAYER
 10
24.5510762443
 20
33.9786764706
 40
1.5
100
AcDbArc
 50
15.0000005224
 51
90.0000010253
  0
ARC
  5
28B
100
AcDbEntity
  8
0
100
AcDbCircle
 62
7
  6
BYLAYER
 10
9.900498325
 20
33.9786764706
 40
1.5
100
AcDbArc
 50
89.9999989747
 51
164.9999994776
  0
ARC
  5
28C
100
AcDbEntity
  8
0
100
AcDbCircle
 62
7
  6
BYLAYER
 10
30.1757872846
 20
26.4786764706
 40
0.5
100
AcDbArc
 50
0.0
 51
90.0000000001
  0
ARC
  5
28D
100
AcDbEntity
  8
0
100
AcDbCircle
 62
7
  6
BYLAYER
 10
4.2757872846
 20
26.4786764706
 40
0.5
100
AcDbArc
 50
90.0
 51
180.0000000004
  0
ARC
  5
28E
100
AcDbEntity
  8
0
100
AcDbCircle
 62
7
  6
BYLAYER
 10
26.3710867462
 20
11.6786764706
 40
0.5
100
AcDbArc
 50
270.0
 51
330.0
  0
ARC
  5
28F
100
AcDbEntity
  8
0
100
AcDbCircle
 62
7
  6
BYLAYER
 10
8.080487823
 20
11.6786764706
 40
0.5
100
AcDbArc
 50
210.0
 51
270.0
  0
ARC
  5
290
100
AcDbEntity
  8
0
100
AcDbCircle
 62
7
  6
BYLAYER
 10
4.6756639639
 20
28.6786764706
 40
0.3
100
AcDbArc
 50
90.0
 51
175.0
  0
ARC
  5
291
100
AcDbEntity
  8
0
100
AcDbCircle
 62
7
  6
BYLAYER
 10
9.7759106054
 20
28.6786764706
 40
0.3
100
AcDbArc
 50
5.0
 51
90.0
  0
ARC
  5
292
100
AcDbEntity
  8
0
100
AcDbCircle
 62
7
  6
BYLAYER
 10
24.6756639639
 20
28.6786764706
 40
0.3
100
AcDbArc
 50
90.0
 51
175.0
  0
ARC
  5
293
100
AcDbEntity
  8
0
100
AcDbCircle
 62
7
  6
BYLAYER
 10
29.7759106054
 20
28.6786764706
 40
0.3
100
AcDbArc
 50
5.0
 51
90.0
  0
SPLINE
  5
294
100
AcDbEntity
  8
0
100
AcDbSpline
 62
7
  6
BYLAYER
 70
0
 71
3
 72
14
 73
10
 74
0
 42
0.0000001
 43
0.0000001
 44
0.0000000001
 40
0.0
 40
0.0
 40
0.0
 40
0.0
 40
0.1041126864
 40
0.2119832382
 40
0.3259503295
 40
0.4474886714
 40
0.5768563707
 40
0.713286252
 40
1.0
 40
1.0
 40
1.0
 40
1.0
 10
5.766684671
 20
28.9786764706
 30
0.0
 10
5.7533894104
 20
28.9786764706
 30
0.0
 10
5.7262050271
 20
28.9751138086
 30
0.0
 10
5.6871891811
 20
28.9595671537
 30
0.0
 10
5.6508571842
 20
28.934418954
 30
0.0
 10
5.6183807248
 20
28.9006329981
 30
0.0
 10
5.5907779423
 20
28.859298476
 30
0.0
 10
5.5611931636
 20
28.7950225956
 30
0.0
 10
5.549586236
 20
28.7413081631
 30
0.0
 10
5.5465205737
 20
28.7048231934
 30
0.0
  0
LINE
  5
295
100
AcDbEntity
  8
0
100
AcDbLine
 62
7
  6
BYLAYER
 10
5.5465205737
 20
28.7048231934
 11
5.502366088
 21
28.1786764706
  0
SPLINE
  5
296
100
AcDbEntity
  8
0
100
AcDbSpline
 62
7
  6
BYLAYER
 70
0
 71
3
 72
14
 73
10
 74
0
 42
0.0000001
 43
0.0000001
 44
0.0000000001
 40
0.0
 40
0.0
 40
0.0
 40
0.0
 40
0.2881500792
 40
0.4243676591
 40
0.5531173285
 40
0.6738925104
 40
0.7872772036
 40
0.8951001995
 40
1.0
 40
1.0
 40
1.0
 40
1.0
 10
4.9243181424
 20
28.7048231934
 30
0.0
 10
4.9260244556
 20
28.7411332404
 30
0.0
 10
4.9355560872
 20
28.7947658256
 30
0.0
 10
4.9628172708
 20
28.8592287524
 30
0.0
 10
4.9889038531
 20
28.9006059078
 30
0.0
 10
5.0201691875
 20
28.9344382279
 30
0.0
 10
5.055637296
 20
28.9596186423
 30
0.0
 10
5.0941515561
 20
28.9751586636
 30
0.0
 10
5.121107668
 20
28.9786764706
 30
0.0
 10
5.1343407723
 20
28.9786764706
 30
0.0
  0
LINE
  5
297
100
AcDbEntity
  8
0
100
AcDbLine
 62
7
  6
BYLAYER
 10
4.8996481776
 20
28.1786764706
 11
4.9243181424
 21
28.7048231934
  0
SPLINE
  5
298
100
AcDbEntity
  8
0
100
AcDbSpline
 62
7
  6
BYLAYER
 70
0
 71
3
 72
14
 73
10
 74
0
 42
0.0000001
 43
0.0000001
 44
0.0000000001
 40
0.0
 40
0.0
 40
0.0
 40
0.0
 40
0.1041126864
 40
0.2119832382
 40
0.3259503295
 40
0.4474886714
 40
0.5768563707
 40
0.713286252
 40
1.0
 40
1.0
 40
1.0
 40
1.0
 10
25.766684671
 20
28.9786764706
 30
0.0
 10
25.7533894104
 20
28.9786764706
 30
0.0
 10
25.7262050271
 20
28.9751138086
 30
0.0
 10
25.6871891811
 20
28.9595671537
 30
0.0
 10
25.6508571842
 20
28.934418954
 30
0.0
 10
25.6183807248
 20
28.9006329981
 30
0.0
 10
25.5907779423
 20
28.859298476
 30
0.0
 10
25.5611931636
 20
28.7950225956
 30
0.0
 10
25.549586236
 20
28.7413081631
 30
0.0
 10
25.5465205737
 20
28.7048231934
 30
0.0
  0
LINE
  5
299
100
AcDbEntity
  8
0
100
AcDbLine
 62
7
  6
BYLAYER
 10
25.5465205737
 20
28.7048231934
 11
25.502366088
 21
28.1786764706
  0
SPLINE
  5
29A
100
AcDbEntity
  8
0
100
AcDbSpline
 62
7
  6
BYLAYER
 70
0
 71
3
 72
14
 73
10
 74
0
 42
0.0000001
 43
0.0000001
 44
0.0000000001
 40
0.0
 40
0.0
 40
0.0
 40
0.0
 40
0.2881500792
 40
0.4243676591
 40
0.5531173285
 40
0.6738925104
 40
0.7872772036
 40
0.8951001995
 40
1.0
 40
1.0
 40
1.0
 40
1.0
 10
24.9243181424
 20
28.7048231934
 30
0.0
 10
24.9260244556
 20
28.7411332404
 30
0.0
 10
24.9355560872
 20
28.7947658256
 30
0.0
 10
24.9628172708
 20
28.8592287524
 30
0.0
 10
24.9889038531
 20
28.9006059078
 30
0.0
 10
25.0201691875
 20
28.9344382279
 30
0.0
 10
25.055637296
 20
28.9596186423
 30
0.0
 10
25.0941515561
 20
28.9751586636
 30
0.0
 10
25.121107668
 20
28.9786764706
 30
0.0
 10
25.1343407723
 20
28.9786764706
 30
0.0
  0
LINE
  5
29B
100
AcDbEntity
  8
0
100
AcDbLine
 62
7
  6
BYLAYER
 10
24.8996481776
 20
28.1786764706
 11
24.9243181424
 21
28.7048231934
  0
SPLINE
  5
29C
100
AcDbEntity
  8
0
100
AcDbSpline
 62
7
  6
BYLAYER
 70
0
 71
3
 72
14
 73
10
 74
0
 42
0.0000001
 43
0.0000001
 44
0.0000000001
 40
0.0
 40
0.0
 40
0.0
 40
0.0
 40
0.1458929689
 40
0.2877157137
 40
0.5511502215
 40
0.6721721207
 40
0.7861315976
 40
0.8946539252
 40
1.0
 40
1.0
 40
1.0
 40
1.0
 10
22.9238250841
 20
8.2417480475
 30
0.0
 10
22.9202844944
 20
8.2133994276
 30
0.0
 10
22.9097562125
 20
8.1578370956
 30
0.0
 10
22.8761082654
 20
8.0551433976
 30
0.0
 10
22.823852693
 20
7.9639715164
 30
0.0
 10
22.7544859456
 20
7.8946062026
 30
0.0
 10
22.6980900947
 20
7.8570066426
 30
0.0
 10
22.6375991721
 20
7.8339152141
 30
0.0
 10
22.5955513125
 20
7.8286764706
 30
0.0
 10
22.5749223694
 20
7.8286764706
 30
0.0
  0
SPLINE
  5
29D
100
AcDbEntity
  8
0
100
AcDbSpline
 62
7
  6
BYLAYER
 70
0
 71
3
 72
14
 73
10
 74
0
 42
0.0000001
 43
0.0000001
 44
0.0000000001
 40
0.0
 40
0.0
 40
0.0
 40
0.0
 40
0.2813463325
 40
0.4136630686
 40
0.5399720104
 40
0.6607082012
 40
0.7767602135
 40
0.8893939902
 40
1.0
 40
1.0
 40
1.0
 40
1.0
 10
23.6358783301
 20
11.4286500782
 30
0.0
 10
23.6210069888
 20
11.3922725455
 30
0.0
 10
23.5935295243
 20
11.3406741418
 30
0.0
 10
23.5461959471
 20
11.2817368681
 30
0.0
 10
23.5076452489
 20
11.2451109893
 30
0.0
 10
23.4659547217
 20
11.2158780071
 30
0.0
 10
23.4217970645
 20
11.1945349783
 30
0.0
 10
23.3759508516
 20
11.181603659
 30
0.0
 10
23.3446967089
 20
11.1786764706
 30
0.0
 10
23.329246696
 20
11.1786764706
 30
0.0
  0
SPLINE
  5
29E
100
AcDbEntity
  8
0
100
AcDbSpline
 62
7
  6
BYLAYER
 70
0
 71
3
 72
9
 73
5
 74
0
 42
0.0000001
 43
0.0000001
 44
0.0000000001
 40
0.0
 40
0.0
 40
0.0
 40
0.0
 40
0.2432898652
 40
1.0
 40
1.0
 40
1.0
 40
1.0
 10
24.0373617658
 20
12.4108138074
 30
0.0
 10
24.0449314322
 20
12.4293330959
 30
0.0
 10
24.0720876398
 20
12.5070368133
 30
0.0
 10
24.0839880195
 20
12.5898653723
 30
0.0
 10
24.0847569228
 20
12.6520876041
 30
0.0
  0
LINE
  5
29F
100
AcDbEntity
  8
0
100
AcDbLine
 62
7
  6
BYLAYER
 10
23.6358783301
 20
11.4286500782
 11
24.0373617658
 21
12.4108138074
  0
LINE
  5
2A0
100
AcDbEntity
  8
0
100
AcDbLine
 62
7
  6
BYLAYER
 10
22.9238250841
 20
8.2417480475
 11
23.2905959354
 21
11.1786764706
  0
LINE
  5
2A1
100
AcDbEntity
  8
0
100
AcDbLine
 62
7
  6
BYLAYER
 10
23.9534350195
 20
8.2418523818
 11
24.3219762608
 21
11.1786764706
  0
SPLINE
  5
2A2
100
AcDbEntity
  8
0
100
AcDbSpline
 62
7
  6
BYLAYER
 70
0
 71
3
 72
14
 73
10
 74
0
 42
0.0000001
 43
0.0000001
 44
0.0000000001
 40
0.0
 40
0.0
 40
0.0
 40
0.0
 40
0.1459625039
 40
0.287813232
 40
0.5511726147
 40
0.6721028114
 40
0.7860098519
 40
0.8945872825
 40
1.0
 40
1.0
 40
1.0
 40
1.0
 10
23.9534350195
 20
8.2418523818
 30
0.0
 10
23.9498664377
 20
8.2134263025
 30
0.0
 10
23.9392547219
 20
8.1577234717
 30
0.0
 10
23.9053532695
 20
8.0548416049
 30
0.0
 10
23.8527313366
 20
7.9636039921
 30
0.0
 10
23.7829274789
 20
7.8944024625
 30
0.0
 10
23.7262311588
 20
7.8570129775
 30
0.0
 10
23.6655656604
 20
7.8339731825
 30
0.0
 10
23.6234023707
 20
7.8286764706
 30
0.0
 10
23.6027121926
 20
7.8286764706
 30
0.0
  0
SPLINE
  5
2A3
100
AcDbEntity
  8
0
100
AcDbSpline
 62
7
  6
BYLAYER
 70
0
 71
3
 72
14
 73
10
 74
0
 42
0.0000001
 43
0.0000001
 44
0.0000000001
 40
0.0
 40
0.0
 40
0.0
 40
0.0
 40
0.1054134087
 40
0.2139932308
 40
0.3279014269
 40
0.4488339403
 40
0.7121950149
 40
0.8540390323
 40
1.0
 40
1.0
 40
1.0
 40
1.0
 10
10.8488624385
 20
7.8286764706
 30
0.0
 10
10.8281720907
 20
7.8286764706
 30
0.0
 10
10.7860082449
 20
7.8339742898
 30
0.0
 10
10.7253417555
 20
7.8570132207
 30
0.0
 10
10.66864254
 20
7.8944013402
 30
0.0
 10
10.5988435924
 20
7.9636096509
 30
0.0
 10
10.5462187242
 20
8.0548436877
 30
0.0
 10
10.5123165263
 20
8.1577247274
 30
0.0
 10
10.5017080998
 20
8.2134265549
 30
0.0
 10
10.4981395497
 20
8.2418523818
 30
0.0
  0
LINE
  5
2A4
100
AcDbEntity
  8
0
100
AcDbLine
 62
7
  6
BYLAYER
 10
10.1295983084
 20
11.1786764706
 11
10.4981395497
 21
8.2418523818
  0
LINE
  5
2A5
100
AcDbEntity
  8
0
100
AcDbLine
 62
7
  6
BYLAYER
 10
11.9123531121
 20
8.2418523818
 11
11.5438118708
 21
11.1786764706
  0
SPLINE
  5
2A6
100
AcDbEntity
  8
0
100
AcDbSpline
 62
7
  6
BYLAYER
 70
0
 71
3
 72
14
 73
10
 74
0
 42
0.0000001
 43
0.0000001
 44
0.0000000001
 40
0.0
 40
0.0
 40
0.0
 40
0.0
 40
0.1460134159
 40
0.287865721
 40
0.5511321712
 40
0.6720188345
 40
0.7859182669
 40
0.894531864
 40
1.0
 40
1.0
 40
1.0
 40
1.0
 10
13.4502225819
 20
10.7655005594
 30
0.0
 10
13.4466276603
 20
10.7939811234
 30
0.0
 10
13.4359340602
 20
10.8497767686
 30
0.0
 10
13.4017789779
 20
10.9527588851
 30
0.0
 10
13.3488225436
 20
11.0439802023
 30
0.0
 10
13.2787326404
 20
11.1130808118
 30
0.0
 10
13.221855627
 20
11.1503888698
 30
0.0
 10
13.1610463325
 20
11.1733823723
 30
0.0
 10
13.1187971856
 20
11.1786764706
 30
0.0
 10
13.0980619247
 20
11.1786764706
 30
0.0
  0
SPLINE
  5
2A7
100
AcDbEntity
  8
0
100
AcDbSpline
 62
7
  6
BYLAYER
 70
0
 71
3
 72
15
 73
11
 74
0
 42
0.0000001
 43
0.0000001
 44
0.0000000001
 40
0.0
 40
0.0
 40
0.0
 40
0.0
 40
0.1054350221
 40
0.2139699424
 40
0.3277390816
 40
0.44847074
 40
0.5767642556
 40
0.7122812622
 40
0.8540406641
 40
1.0
 40
1.0
 40
1.0
 40
1.0
 10
14.1226909623
 20
7.8286764706
 30
0.0
 10
14.1019040657
 20
7.8286764706
 30
0.0
 10
14.0595605335
 20
7.8339220786
 30
0.0
 10
13.9985586542
 20
7.8567782898
 30
0.0
 10
13.9414575947
 20
7.8939433607
 30
0.0
 10
13.8900742982
 20
7.9442905482
 30
0.0
 10
13.8457712167
 20
8.0062360652
 30
0.0
 10
13.8098582797
 20
8.0780124363
 30
0.0
 10
13.783401214
 20
8.1574104766
 30
0.0
 10
13.7726730696
 20
8.2133033696
 30
0.0
 10
13.7690625591
 20
8.2418523818
 30
0.0
  0
SPLINE
  5
2A8
100
AcDbEntity
  8
0
100
AcDbSpline
 62
7
  6
BYLAYER
 70
0
 71
3
 72
14
 73
10
 74
0
 42
0.0000001
 43
0.0000001
 44
0.0000000001
 40
0.0
 40
0.0
 40
0.0
 40
0.0
 40
0.1459625039
 40
0.287813232
 40
0.5511726147
 40
0.6721028114
 40
0.7860098519
 40
0.8945872825
 40
1.0
 40
1.0
 40
1.0
 40
1.0
 10
11.9123531121
 20
8.2418523818
 30
0.0
 10
11.9159216939
 20
8.2134263025
 30
0.0
 10
11.9265334097
 20
8.1577234716
 30
0.0
 10
11.9604348621
 20
8.0548416049
 30
0.0
 10
12.013056795
 20
7.963603992
 30
0.0
 10
12.0828606527
 20
7.8944024624
 30
0.0
 10
12.1395569729
 20
7.8570129775
 30
0.0
 10
12.2002224713
 20
7.8339731825
 30
0.0
 10
12.2423857609
 20
7.8286764706
 30
0.0
 10
12.2630759391
 20
7.8286764706
 30
0.0
  0
SPLINE
  5
2A9
100
AcDbEntity
  8
0
100
AcDbSpline
 62
7
  6
BYLAYER
 70
0
 71
3
 72
14
 73
10
 74
0
 42
0.0000001
 43
0.0000001
 44
0.0000000001
 40
0.0
 40
0.0
 40
0.0
 40
0.0
 40
0.1054134087
 40
0.2139932309
 40
0.3279014269
 40
0.4488339404
 40
0.7121950149
 40
0.8540390323
 40
1.0
 40
1.0
 40
1.0
 40
1.0
 10
22.1884985692
 20
7.8286764706
 30
0.0
 10
22.209188917
 20
7.8286764706
 30
0.0
 10
22.2513527627
 20
7.8339742899
 30
0.0
 10
22.3120192519
 20
7.8570132211
 30
0.0
 10
22.3687184673
 20
7.8944013405
 30
0.0
 10
22.4385174147
 20
7.9636096513
 30
0.0
 10
22.4911422828
 20
8.054843688
 30
0.0
 10
22.5250444806
 20
8.1577247275
 30
0.0
 10
22.535652907
 20
8.2134265549
 30
0.0
 10
22.5392214571
 20
8.2418523818
 30
0.0
  0
SPLINE
  5
2AA
100
AcDbEntity
  8
0
100
AcDbSpline
 62
7
  6
BYLAYER
 70
0
 71
3
 72
14
 73
10
 74
0
 42
0.0000001
 43
0.0000001
 44
0.0000000001
 40
0.0
 40
0.0
 40
0.0
 40
0.0
 40
0.1460809655
 40
0.2879651526
 40
0.5511679074
 40
0.6719942953
 40
0.7858552158
 40
0.8944784701
 40
1.0
 40
1.0
 40
1.0
 40
1.0
 10
20.6825120102
 20
8.2418523818
 30
0.0
 10
20.6789014806
 20
8.2133032192
 30
0.0
 10
20.6681539291
 20
8.1573816951
 30
0.0
 10
20.6338115833
 20
8.0542264296
 30
0.0
 10
20.5805501858
 20
7.962941474
 30
0.0
 10
20.5101192489
 20
7.8939524683
 30
0.0
 10
20.453015018
 20
7.8567793965
 30
0.0
 10
20.3920163178
 20
7.8339231682
 30
0.0
 10
20.3496729043
 20
7.8286764706
 30
0.0
 10
20.3288861646
 20
7.8286764706
 30
0.0
  0
SPLINE
  5
2AB
100
AcDbEntity
  8
0
100
AcDbSpline
 62
7
  6
BYLAYER
 70
0
 71
3
 72
14
 73
10
 74
0
 42
0.0000001
 43
0.0000001
 44
0.0000000001
 40
0.0
 40
0.0
 40
0.0
 40
0.0
 40
0.1054690823
 40
0.2140827072
 40
0.3279844591
 40
0.4488742567
 40
0.7121413324
 40
0.8539877092
 40
1.0
 40
1.0
 40
1.0
 40
1.0
 10
21.3535297416
 20
11.1786764706
 30
0.0
 10
21.3327936532
 20
11.1786764706
 30
0.0
 10
21.2905428175
 20
11.1733874079
 30
0.0
 10
21.2297281944
 20
11.1503987804
 30
0.0
 10
21.172849024
 20
11.1130875085
 30
0.0
 10
21.102758209
 20
11.0439823723
 30
0.0
 10
21.0497941888
 20
10.9527626985
 30
0.0
 10
21.0156377964
 20
10.8497782627
 30
0.0
 10
21.0049469925
 20
10.793981785
 30
0.0
 10
21.0013519874
 20
10.7655005594
 30
0.0
  0
LINE
  5
2AC
100
AcDbEntity
  8
0
100
AcDbLine
 62
7
  6
BYLAYER
 10
13.4502225819
 20
10.7655005594
 11
13.7690625591
 21
8.2418523818
  0
LINE
  5
2AD
100
AcDbEntity
  8
0
100
AcDbLine
 62
7
  6
BYLAYER
 10
20.6825120102
 20
8.2418523818
 11
21.0013519874
 21
10.7655005594
  0
LINE
  5
2AE
100
AcDbEntity
  8
0
100
AcDbLine
 62
7
  6
BYLAYER
 10
24.744468547
 20
12.4108138074
 11
24.3429850808
 21
11.4286500032
  0
SPLINE
  5
2AF
100
AcDbEntity
  8
0
100
AcDbSpline
 62
7
  6
BYLAYER
 70
0
 71
3
 72
9
 73
5
 74
0
 42
0.0000001
 43
0.0000001
 44
0.0000000001
 40
0.0
 40
0.0
 40
0.0
 40
0.0
 40
0.2558910568
 40
1.0
 40
1.0
 40
1.0
 40
1.0
 10
24.791863704
 20
12.6520876041
 30
0.0
 10
24.7916037194
 20
12.6310487759
 30
0.0
 10
24.7868838821
 20
12.5489484471
 30
0.0
 10
24.7676179423
 20
12.467449108
 30
0.0
 10
24.744468547
 20
12.4108138074
 30
0.0
  0
SPLINE
  5
2B0
100
AcDbEntity
  8
0
100
AcDbSpline
 62
7
  6
BYLAYER
 70
0
 71
3
 72
14
 73
10
 74
0
 42
0.0000001
 43
0.0000001
 44
0.0000000001
 40
0.0
 40
0.0
 40
0.0
 40
0.0
 40
0.110605648
 40
0.2232399594
 40
0.3392924177
 40
0.4600286236
 40
0.5863376291
 40
0.7186543978
 40
1.0
 40
1.0
 40
1.0
 40
1.0
 10
24.0363651831
 20
11.1786764706
 30
0.0
 10
24.0518147177
 20
11.1786764706
 30
0.0
 10
24.0830680269
 20
11.1816047822
 30
0.0
 10
24.128912254
 20
11.1945384425
 30
0.0
 10
24.1730681239
 20
11.2158822015
 30
0.0
 10
24.2147570517
 20
11.2451151235
 30
0.0
 10
24.2533061273
 20
11.2817405856
 30
0.0
 10
24.3006376931
 20
11.3406766557
 30
0.0
 10
24.3281141899
 20
11.3922735722
 30
0.0
 10
24.3429850808
 20
11.4286500032
 30
0.0
  0
SPLINE
  5
2B1
100
AcDbEntity
  8
0
100
AcDbSpline
 62
7
  6
BYLAYER
 70
0
 71
3
 72
11
 73
7
 74
0
 42
0.0000001
 43
0.0000001
 44
0.0000000001
 40
0.0
 40
0.0
 40
0.0
 40
0.0
 40
0.2309314822
 40
0.5015549314
 40
0.7713683469
 40
1.0
 40
1.0
 40
1.0
 40
1.0
 10
23.3536578079
 20
8.5265820173
 30
0.0
 10
23.3377871429
 20
8.5305395899
 30
0.0
 10
23.3029097209
 20
8.5374702485
 30
0.0
 10
23.2488422307
 20
8.5454312741
 30
0.0
 10
23.1946278335
 20
8.550874663
 30
0.0
 10
23.1593309219
 20
8.5526292439
 30
0.0
 10
23.1431371547
 20
8.5526292439
 30
0.0
  0
SPLINE
  5
2B2
100
AcDbEntity
  8
0
100
AcDbSpline
 62
7
  6
BYLAYER
 70
0
 71
3
 72
13
 73
9
 74
0
 42
0.0000001
 43
0.0000001
 44
0.0000000001
 40
0.0
 40
0.0
 40
0.0
 40
0.0
 40
0.1032552214
 40
0.2106492466
 40
0.3245468651
 40
0.4464150668
 40
0.7129424449
 40
1.0
 40
1.0
 40
1.0
 40
1.0
 10
23.0386825187
 20
8.4286764706
 30
0.0
 10
23.0456328676
 20
8.4286764706
 30
0.0
 10
23.0598769549
 20
8.4266236538
 30
0.0
 10
23.080124212
 20
8.4178285442
 30
0.0
 10
23.0985944685
 20
8.4036146754
 30
0.0
 10
23.1206226587
 20
8.3776967767
 30
0.0
 10
23.1397157308
 20
8.335450209
 30
0.0
 10
23.1447485359
 20
8.2979989816
 30
0.0
 10
23.1447485359
 20
8.2786764706
 30
0.0
  0
SPLINE
  5
2B3
100
AcDbEntity
  8
0
100
AcDbSpline
 62
7
  6
BYLAYER
 70
0
 71
3
 72
13
 73
9
 74
0
 42
0.0000001
 43
0.0000001
 44
0.0000000001
 40
0.0
 40
0.0
 40
0.0
 40
0.0
 40
0.2873209727
 40
0.4232222512
 40
0.5518772575
 40
0.7859735911
 40
0.8946764922
 40
1.0
 40
1.0
 40
1.0
 40
1.0
 10
23.1431371547
 20
8.5526292439
 30
0.0
 10
23.1410524861
 20
8.5359093607
 30
0.0
 10
23.1349731517
 20
8.511456825
 30
0.0
 10
23.1206523943
 20
8.4823103774
 30
0.0
 10
23.1038755442
 20
8.4582862459
 30
0.0
 10
23.0822007321
 20
8.4397425413
 30
0.0
 10
23.057459386
 20
8.4302797086
 30
0.0
 10
23.0448589973
 20
8.4286764706
 30
0.0
 10
23.0386825187
 20
8.4286764706
 30
0.0
  0
SPLINE
  5
2B4
100
AcDbEntity
  8
0
100
AcDbSpline
 62
7
  6
BYLAYER
 70
0
 71
3
 72
11
 73
7
 74
0
 42
0.0000001
 43
0.0000001
 44
0.0000000001
 40
0.0
 40
0.0
 40
0.0
 40
0.0
 40
0.2468035014
 40
0.5039325104
 40
0.7586597713
 40
1.0
 40
1.0
 40
1.0
 40
1.0
 10
23.8024983882
 20
11.4737180921
 30
0.0
 10
23.7972108773
 20
11.4854362821
 30
0.0
 10
23.784091607
 20
11.5083530011
 30
0.0
 10
23.7591061514
 20
11.5391714092
 30
0.0
 10
23.7297948378
 20
11.565490317
 30
0.0
 10
23.707816511
 20
11.5793991341
 30
0.0
 10
23.6965666493
 20
11.5850096872
 30
0.0
  0
SPLINE
  5
2B5
100
AcDbEntity
  8
0
100
AcDbSpline
 62
7
  6
BYLAYER
 70
0
 71
3
 72
11
 73
7
 74
0
 42
0.0000001
 43
0.0000001
 44
0.0000000001
 40
0.0
 40
0.0
 40
0.0
 40
0.0
 40
0.2523449258
 40
0.5211781821
 40
0.779424871
 40
1.0
 40
1.0
 40
1.0
 40
1.0
 10
23.5134212608
 20
11.2645565297
 30
0.0
 10
23.5285780731
 20
11.2637497208
 30
0.0
 10
23.5598376454
 20
11.2612280578
 30
0.0
 10
23.6063942591
 20
11.255623216
 30
0.0
 10
23.6508071935
 20
11.2485036187
 30
0.0
 10
23.6790308929
 20
11.2426634304
 30
0.0
 10
23.6919040393
 20
11.2394533311
 30
0.0
  0
SPLINE
  5
2B6
100
AcDbEntity
  8
0
100
AcDbSpline
 62
7
  6
BYLAYER
 70
0
 71
3
 72
13
 73
9
 74
0
 42
0.0000001
 43
0.0000001
 44
0.0000000001
 40
0.0
 40
0.0
 40
0.0
 40
0.0
 40
0.1103096959
 40
0.2345267406
 40
0.5051523028
 40
0.7730766565
 40
0.894023231
 40
1.0
 40
1.0
 40
1.0
 40
1.0
 10
24.4261433561
 20
12.6028784932
 30
0.0
 10
24.4190556636
 20
12.6062380272
 30
0.0
 10
24.4036837735
 20
12.612743983
 30
0.0
 10
24.3698405541
 20
12.6248176257
 30
0.0
 10
24.32432947
 20
12.6373032537
 30
0.0
 10
24.2781767733
 20
12.645998706
 30
0.0
 10
24.2431814998
 20
12.6497941102
 30
0.0
 10
24.2270454918
 20
12.6505470942
 30
0.0
 10
24.2195099983
 20
12.6505470942
 30
0.0
  0
SPLINE
  5
2B7
100
AcDbEntity
  8
0
100
AcDbSpline
 62
7
  6
BYLAYER
 70
0
 71
3
 72
9
 73
5
 74
0
 42
0.0000001
 43
0.0000001
 44
0.0000000001
 40
0.0
 40
0.0
 40
0.0
 40
0.0
 40
0.5157459563
 40
1.0
 40
1.0
 40
1.0
 40
1.0
 10
24.1376307736
 20
12.3753089774
 30
0.0
 10
24.0942467329
 20
12.2553336886
 30
0.0
 10
23.9915188509
 20
12.0288644217
 30
0.0
 10
23.8490849031
 20
11.8243788241
 30
0.0
 10
23.7704548985
 20
11.7340097596
 30
0.0
  0
SPLINE
  5
2B8
100
AcDbEntity
  8
0
100
AcDbSpline
 62
7
  6
BYLAYER
 70
0
 71
3
 72
9
 73
5
 74
0
 42
0.0000001
 43
0.0000001
 44
0.0000000001
 40
0.0
 40
0.0
 40
0.0
 40
0.0
 40
0.5000157701
 40
1.0
 40
1.0
 40
1.0
 40
1.0
 10
24.48791025
 20
13.110451518
 30
0.0
 10
24.4525641016
 20
13.1113240443
 30
0.0
 10
24.3818591929
 20
13.1124084837
 30
0.0
 10
24.3111490557
 20
13.1130693789
 30
0.0
 10
24.27579437
 20
13.1130693789
 30
0.0
  0
SPLINE
  5
2B9
100
AcDbEntity
  8
0
100
AcDbSpline
 62
7
  6
BYLAYER
 70
0
 71
3
 72
9
 73
5
 74
0
 42
0.0000001
 43
0.0000001
 44
0.0000000001
 40
0.0
 40
0.0
 40
0.0
 40
0.0
 40
0.2522497865
 40
1.0
 40
1.0
 40
1.0
 40
1.0
 10
24.27579437
 20
13.113069379
 30
0.0
 10
24.2753103132
 20
13.0738509849
 30
0.0
 10
24.2691946493
 20
12.9184640424
 30
0.0
 10
24.2463218934
 20
12.7636782093
 30
0.0
 10
24.2195099983
 20
12.6505470942
 30
0.0
  0
SPLINE
  5
2BA
100
AcDbEntity
  8
0
100
AcDbSpline
 62
7
  6
BYLAYER
 70
0
 71
3
 72
10
 73
6
 74
0
 42
0.0000001
 43
0.0000001
 44
0.0000000001
 40
0.0
 40
0.0
 40
0.0
 40
0.0
 40
0.229424471
 40
0.5000059903
 40
1.0
 40
1.0
 40
1.0
 40
1.0
 10
24.5443424688
 20
17.6826034728
 30
0.0
 10
24.528134589
 20
17.6833279438
 30
0.0
 10
24.4927772828
 20
17.6841830395
 30
0.0
 10
24.4220602265
 20
17.6837855918
 30
0.0
 10
24.3675681911
 20
17.6839150224
 30
0.0
 10
24.3322104355
 20
17.6839125913
 30
0.0
  0
LINE
  5
2BB
100
AcDbEntity
  8
0
100
AcDbLine
 62
7
  6
BYLAYER
 10
23.9977027166
 20
11.1786764706
 11
23.6309266499
 21
8.2417062882
  0
SPLINE
  5
2BC
100
AcDbEntity
  8
0
100
AcDbSpline
 62
7
  6
BYLAYER
 70
0
 71
3
 72
14
 73
10
 74
0
 42
0.0000001
 43
0.0000001
 44
0.0000000001
 40
0.0
 40
0.0
 40
0.0
 40
0.0
 40
0.1053464883
 40
0.2138716267
 40
0.3278331352
 40
0.448855888
 40
0.7122879011
 40
0.8541083866
 40
1.0
 40
1.0
 40
1.0
 40
1.0
 10
23.2820598289
 20
7.8286764706
 30
0.0
 10
23.3026862477
 20
7.8286764706
 30
0.0
 10
23.3447293324
 20
7.8339197054
 30
0.0
 10
23.4052100878
 20
7.857016824
 30
0.0
 10
23.4615972657
 20
7.8946154148
 30
0.0
 10
23.530953921
 20
7.9639731882
 30
0.0
 10
23.5832051021
 20
8.0551303931
 30
0.0
 10
23.6168564729
 20
8.1578073096
 30
0.0
 10
23.6273865402
 20
8.2133615117
 30
0.0
 10
23.6309266499
 20
8.2417062882
 30
0.0
  0
SPLINE
  5
2BD
100
AcDbEntity
  8
0
100
AcDbSpline
 62
7
  6
BYLAYER
 70
0
 71
3
 72
14
 73
10
 74
0
 42
0.0000001
 43
0.0000001
 44
0.0000000001
 40
0.0
 40
0.0
 40
0.0
 40
0.0
 40
0.1457395404
 40
0.2876785101
 40
0.5511661994
 40
0.6721335614
 40
0.7861643411
 40
0.8947693469
 40
1.0
 40
1.0
 40
1.0
 40
1.0
 10
23.3536546055
 20
8.5265696165
 30
0.0
 10
23.3515376126
 20
8.5095904794
 30
0.0
 10
23.3452384388
 20
8.4762815396
 30
0.0
 10
23.3251575607
 20
8.4146802498
 30
0.0
 10
23.293874199
 20
8.3599670964
 30
0.0
 10
23.2523077048
 20
8.3183486853
 30
0.0
 10
23.2185180952
 20
8.2957473054
 30
0.0
 10
23.1822574838
 20
8.2818798551
 30
0.0
 10
23.1570572136
 20
8.2786787772
 30
0.0
 10
23.1447025706
 20
8.2786787772
 30
0.0
  0
SPLINE
  5
2BE
100
AcDbEntity
  8
0
100
AcDbSpline
 62
7
  6
BYLAYER
 70
0
 71
3
 72
10
 73
6
 74
0
 42
0.0000001
 43
0.0000001
 44
0.0000000001
 40
0.0
 40
0.0
 40
0.0
 40
0.0
 40
0.4714130989
 40
0.7307301266
 40
1.0
 40
1.0
 40
1.0
 40
1.0
 10
23.8024978806
 20
11.4737192172
 30
0.0
 10
23.7717597259
 20
11.4459789486
 30
0.0
 10
23.7342899043
 20
11.3912092347
 30
0.0
 10
23.7039938454
 20
11.3086682811
 30
0.0
 10
23.694827352
 20
11.2628951521
 30
0.0
 10
23.6919012412
 20
11.2394265622
 30
0.0
  0
LINE
  5
2BF
100
AcDbEntity
  8
0
100
AcDbLine
 62
7
  6
BYLAYER
 10
22.9077626985
 20
11.1786764706
 11
22.5392214571
 21
8.2418523818
  0
SPLINE
  5
2C0
100
AcDbEntity
  8
0
100
AcDbSpline
 62
7
  6
BYLAYER
 70
0
 71
3
 72
11
 73
7
 74
0
 42
0.0000001
 43
0.0000001
 44
0.0000000001
 40
0.0
 40
0.0
 40
0.0
 40
0.0
 40
0.2676300244
 40
0.5248155944
 40
0.7692913716
 40
1.0
 40
1.0
 40
1.0
 40
1.0
 10
24.4261470167
 20
12.6028920029
 30
0.0
 10
24.3992369762
 20
12.4893467695
 30
0.0
 10
24.3325675401
 20
12.2696629892
 30
0.0
 10
24.1925475736
 20
11.963673678
 30
0.0
 10
24.0178962996
 20
11.6949083997
 30
0.0
 10
23.8771757068
 20
11.5411137299
 30
0.0
 10
23.8024978806
 20
11.4737192172
 30
0.0
  0
SPLINE
  5
2C1
100
AcDbEntity
  8
0
100
AcDbSpline
 62
7
  6
BYLAYER
 70
0
 71
3
 72
9
 73
5
 74
0
 42
0.0000001
 43
0.0000001
 44
0.0000000001
 40
0.0
 40
0.0
 40
0.0
 40
0.0
 40
0.2522496949
 40
1.0
 40
1.0
 40
1.0
 40
1.0
 10
24.4879101547
 20
13.1104329291
 30
0.0
 10
24.4873789835
 20
13.0673973095
 30
0.0
 10
24.4806667401
 20
12.8968861543
 30
0.0
 10
24.4555685958
 20
12.7270345162
 30
0.0
 10
24.4261470167
 20
12.6028920029
 30
0.0
  0
ENDSEC
  0
SECTION
  2
OBJECTS
  0
DICTIONARY
  5
C
100
AcDbDictionary
280
0
281
1
  3
ACAD_GROUP
350
D
  3
ACAD_MLINESTYLE
350
17
  3
ACAD_LAYOUT
350
1A
  3
ACAD_PLOTSETTINGS
350
19
  3
ACAD_PLOTSTYLENAME
350
E
  0
DICTIONARY
  5
D
102
{ACAD_REACTORS
330
C
102
}
100
AcDbDictionary
280
0
281
1
  0
ACDBDICTIONARYWDFLT
  5
E
102
{ACAD_REACTORS
330
C
102
}
100
AcDbDictionary
281
1
  3
Normal
350
F
100
AcDbDictionaryWithDefault
340
F
  0
DICTIONARY
  5
17
102
{ACAD_REACTORS
330
C
102
}
100
AcDbDictionary
280
0
281
1
  3
Standard
350
18
  0
DICTIONARY
  5
19
102
{ACAD_REACTORS
330
C
102
}
100
AcDbDictionary
281
1
  0
DICTIONARY
  5
1A
102
{ACAD_REACTORS
330
C
102
}
100
AcDbDictionary
281
1
  3
Model
350
2C2
  3
Layout1
350
2C3
  0
ACDBPLACEHOLDER
  5
F
102
{ACAD_REACTORS
330
E
102
}
  0
MLINESTYLE
  5
18
102
{ACAD_REACTORS
330
17
102
}
100
AcDbMlineStyle
  2
STANDARD
 70
0
  3

 62
256
 51
90.0
 52
90.0
 71
2
 49
0.5
 62
256
  6
BYLAYER
 49
-0.5
 62
256
  6
BYLAYER
  0
LAYOUT
  5
2C2
102
{ACAD_REACTORS
330
1A
102
}
100
AcDbPlotSettings
  1

  2
none_device
  4

  6

 40
0.0
 41
0.0
 42
0.0
 43
0.0
 44
210.0
 45
297.0
 46
0.0
 47
0.0
 48
0.0
 49
0.0
140
0.0
141
0.0
142
1.0
143
1.0
 70
1024
 72
1
 73
0
 74
0
  7

 75
0
147
1.0
148
0.0
149
0.0
100
AcDbLayout
  1
Model
 70
0
 71
0
 10
0.0
 20
0.0
 11
210.0
 21
297.0
 12
0.0
 22
0.0
 32
0.0
 14
0.0
 24
0.0
 34
0.0
 15
0.0
 25
0.0
 35
0.0
146
0.0
 13
0.0
 23
0.0
 33
0.0
 16
1.0
 26
0.0
 36
0.0
 17
0.0
 27
1.0
 37
0.0
 76
0
330
210
345
0
346
0
  0
LAYOUT
  5
2C3
102
{ACAD_REACTORS
330
1A
102
}
100
AcDbPlotSettings
  1

  2
none_device
  4

  6

 40
0.0
 41
0.0
 42
0.0
 43
0.0
 44
210.0
 45
297.0
 46
0.0
 47
0.0
 48
0.0
 49
0.0
140
0.0
141
0.0
142
1.0
143
1.0
 70
0
 72
1
 73
0
 74
0
  7

 75
0
147
1.0
148
0.0
149
0.0
100
AcDbLayout
  1
Layout1
 70
0
 71
1
 10
0.0
 20
0.0
 11
210.0
 21
297.0
 12
0.0
 22
0.0
 32
0.0
 14
0.0
 24
0.0
 34
0.0
 15
0.0
 25
0.0
 35
0.0
146
0.0
 13
0.0
 23
0.0
 33
0.0
 16
1.0
 26
0.0
 36
0.0
 17
0.0
 27
1.0
 37
0.0
 76
0
330
211
345
0
346
0
  0
ENDSEC
  0
EOF
