999
DXF file: C:\Users\sesa63760\Dev\_Creo\CAD\MCADID0004530_3D-CAD\drw0001_2.dxf
999
Pro/ENGINEER 2019471 by Parametric Technology Corporation
  0
SECTION
  2
HEADER
  9
$ACADVER
  1
AC1024
  9
$DWGCODEPAGE
  3
ANSI_1252
  9
$EXTMAX
 10
64.6032094835
 20
91.3673962695
 30
0.0
  9
$EXTMIN
 10
0.0
 20
0.0
 30
0.0
  9
$LIMMIN
 10
0.0
 20
0.0
  9
$LIMMAX
 10
64.6032094835
 20
91.3673962695
  9
$VIEWCTR
 10
32.3016047418
 20
45.6836981348
  9
$VIEWSIZE
 40
91.3673962695
  9
$CLAYER
  8
0
  9
$LTSCALE
 40
5.9558006457
  9
$CELTYPE
  6
BYLAYER
  9
$DIMSCALE
 40
1.0
  9
$DIMASZ
 40
0.7690858272
  9
$DIMEXO
 40
1.0
  9
$DIMDLI
 40
4.1149168098
  9
$DIMEXE
 40
1.0
  9
$DIMCEN
 40
0.9745855602
  9
$DIMLFAC
 40
1.0
  9
$DIMBLK
  1
_FILLED
  9
$DIMALT
 70
0
  9
$DIMALTF
 40
0.0393700787
  9
$DIMTXT
 40
1.0767201581
  9
$DIMTOL
 70
1
  9
$DIMLIM
 70
0
  9
$DIMTFAC
 40
1.0
  9
$DIMTP
 40
0.01
  9
$DIMTM
 40
0.01
  9
$DIMGAP
 40
0.625
  9
$DIMDSEP
 70
46
  9
$AUNITS
 70
0
  9
$PDMODE
 70
3
  9
$PDSIZE
 40
0.3125
  9
$HANDSEED
  5
288
  9
$TILEMODE
 70
1
  9
$MEASUREMENT
 70
1
  9
$INSUNITS
 70
4
  0
ENDSEC
  0
SECTION
  2
CLASSES
  0
CLASS
  1
ACDBDICTIONARYWDFLT
  2
AcDbDictionaryWithDefault
  3
AutoCAD 2000
 90
0
 91
1
280
0
281
0
  0
CLASS
  1
ACDBPLACEHOLDER
  2
AcDbPlaceHolder
  3
AutoCAD 2000
 90
0
 91
1
280
0
281
0
  0
CLASS
  1
LAYOUT
  2
AcDbLayout
  3
AutoCAD 2000
 90
0
 91
0
280
0
281
0
  0
ENDSEC
  0
SECTION
  2
TABLES
  0
TABLE
  2
VPORT
  5
8
100
AcDbSymbolTable
 70
2
  0
VPORT
  5
1F4
100
AcDbSymbolTableRecord
100
AcDbViewportTableRecord
  2
*ACTIVE
 70
0
 10
0.0
 20
0.0
 11
1.0
 21
1.0
 12
32.3016047418
 22
45.6836981348
 13
0.0
 23
0.0
 14
1.0
 24
1.0
 15
0.0
 25
0.0
 16
0.0
 26
0.0
 36
1.0
 17
0.0
 27
0.0
 37
0.0
 40
91.3673962695
 41
0.7070707071
 42
50.0
 43
0.0
 44
0.0
 50
0.0
 51
0.0
 71
0
 72
100
 73
1
 74
1
 75
0
 76
0
 77
0
 78
0
  0
ENDTAB
  0
TABLE
  2
LTYPE
  5
5
100
AcDbSymbolTable
 70
6
  0
LTYPE
  5
14
100
AcDbSymbolTableRecord
100
AcDbLinetypeTableRecord
  2
BYBLOCK
 70
0
  3

 72
65
 73
0
 40
0.0
  0
LTYPE
  5
15
100
AcDbSymbolTableRecord
100
AcDbLinetypeTableRecord
  2
BYLAYER
 70
0
  3

 72
65
 73
0
 40
0.0
  0
LTYPE
  5
16
100
AcDbSymbolTableRecord
100
AcDbLinetypeTableRecord
  2
CONTINUOUS
 70
64
  3
Solid line
 72
65
 73
0
 40
0.0
  0
LTYPE
  5
1F5
100
AcDbSymbolTableRecord
100
AcDbLinetypeTableRecord
  2
CENTER
 70
64
  3
____ _ ____ _ ____ _ ____ _ ____ _ ____ _ ____
 72
65
 73
4
 40
0.6
 49
0.375
 74
0
 49
-0.075
 74
0
 49
0.075
 74
0
 49
-0.075
 74
0
  0
LTYPE
  5
1F6
100
AcDbSymbolTableRecord
100
AcDbLinetypeTableRecord
  2
HIDDEN
 70
64
  3
- - - - - - - - - - - - - - - - - - - -
 72
65
 73
2
 40
0.2
 49
0.1
 74
0
 49
-0.1
 74
0
  0
LTYPE
  5
1F7
100
AcDbSymbolTableRecord
100
AcDbLinetypeTableRecord
  2
PHANTOM
 70
64
  3
_____ _ _ _____ _ _ _____ _ _ _____
 72
65
 73
6
 40
0.8
 49
0.45
 74
0
 49
-0.05
 74
0
 49
0.1
 74
0
 49
-0.05
 74
0
 49
0.1
 74
0
 49
-0.05
 74
0
  0
LTYPE
  5
1F8
100
AcDbSymbolTableRecord
100
AcDbLinetypeTableRecord
  2
DOT
 70
64
  3
. . . . . . . . . . . . . . . . . . . .
 72
65
 73
2
 40
0.2
 49
0.1
 74
0
 49
-0.1
 74
0
  0
LTYPE
  5
1F9
100
AcDbSymbolTableRecord
100
AcDbLinetypeTableRecord
  2
DASHED
 70
64
  3
- - - - - - - - - - - - - - - - - - - -
 72
65
 73
2
 40
0.2
 49
0.1
 74
0
 49
-0.1
 74
0
  0
ENDTAB
  0
TABLE
  2
LAYER
  5
2
100
AcDbSymbolTable
 70
36
  0
LAYER
  5
10
100
AcDbSymbolTableRecord
100
AcDbLayerTableRecord
  2
0
 70
0
 62
7
  6
CONTINUOUS
370
-3
390
F
  0
LAYER
  5
1FA
100
AcDbSymbolTableRecord
100
AcDbLayerTableRecord
  2
DEFAULT_1
 70
0
 62
7
  6
CENTER
370
-3
390
F
  0
LAYER
  5
1FB
100
AcDbSymbolTableRecord
100
AcDbLayerTableRecord
  2
DEFAULT_2
 70
0
 62
7
  6
HIDDEN
370
-3
390
F
  0
LAYER
  5
1FC
100
AcDbSymbolTableRecord
100
AcDbLayerTableRecord
  2
DEFAULT_3
 70
0
 62
7
  6
PHANTOM
370
-3
390
F
  0
LAYER
  5
1FD
100
AcDbSymbolTableRecord
100
AcDbLayerTableRecord
  2
00_COMPONENTS
 70
0
 62
7
  6
CONTINUOUS
370
-3
390
F
  0
LAYER
  5
1FE
100
AcDbSymbolTableRecord
100
AcDbLayerTableRecord
  2
01_1_DEFAULT_DATUMS
 70
0
 62
7
  6
CONTINUOUS
370
-3
390
F
  0
LAYER
  5
1FF
100
AcDbSymbolTableRecord
100
AcDbLayerTableRecord
  2
01_PLANES
 70
0
 62
7
  6
CONTINUOUS
370
-3
390
F
  0
LAYER
  5
200
100
AcDbSymbolTableRecord
100
AcDbLayerTableRecord
  2
02_COORD_SYS
 70
0
 62
7
  6
CONTINUOUS
370
-3
390
F
  0
LAYER
  5
201
100
AcDbSymbolTableRecord
100
AcDbLayerTableRecord
  2
03_AXES
 70
0
 62
7
  6
CONTINUOUS
370
-3
390
F
  0
LAYER
  5
202
100
AcDbSymbolTableRecord
100
AcDbLayerTableRecord
  2
04_POINTS
 70
0
 62
7
  6
CONTINUOUS
370
-3
390
F
  0
LAYER
  5
203
100
AcDbSymbolTableRecord
100
AcDbLayerTableRecord
  2
05_CURVES
 70
0
 62
7
  6
CONTINUOUS
370
-3
390
F
  0
LAYER
  5
204
100
AcDbSymbolTableRecord
100
AcDbLayerTableRecord
  2
06_SURFS
 70
0
 62
7
  6
CONTINUOUS
370
-3
390
F
  0
LAYER
  5
205
100
AcDbSymbolTableRecord
100
AcDbLayerTableRecord
  2
07_COSMETICS
 70
0
 62
7
  6
CONTINUOUS
370
-3
390
F
  0
LAYER
  5
206
100
AcDbSymbolTableRecord
100
AcDbLayerTableRecord
  2
10_NOTES
 70
0
 62
7
  6
CONTINUOUS
370
-3
390
F
  0
LAYER
  5
207
100
AcDbSymbolTableRecord
100
AcDbLayerTableRecord
  2
11_NOTES_PUB
 70
0
 62
7
  6
CONTINUOUS
370
-3
390
F
  0
LAYER
  5
208
100
AcDbSymbolTableRecord
100
AcDbLayerTableRecord
  2
13_REF_GTOL
 70
0
 62
7
  6
CONTINUOUS
370
-3
390
F
  0
LAYER
  5
209
100
AcDbSymbolTableRecord
100
AcDbLayerTableRecord
  2
16_MISC
 70
0
 62
7
  6
CONTINUOUS
370
-3
390
F
  0
LAYER
  5
20A
100
AcDbSymbolTableRecord
100
AcDbLayerTableRecord
  2
17_NO_PRINT
 70
0
 62
7
  6
CONTINUOUS
370
-3
390
F
  0
LAYER
  5
20B
100
AcDbSymbolTableRecord
100
AcDbLayerTableRecord
  2
18_DATUM_CAMS_JOINTS
 70
0
 62
7
  6
CONTINUOUS
370
-3
390
F
  0
LAYER
  5
20C
100
AcDbSymbolTableRecord
100
AcDbLayerTableRecord
  2
19_DATUM_FUNCTIONAL
 70
0
 62
7
  6
CONTINUOUS
370
-3
390
F
  0
LAYER
  5
20D
100
AcDbSymbolTableRecord
100
AcDbLayerTableRecord
  2
20_DATUM_KINEMATIC_SCHEME
 70
0
 62
7
  6
CONTINUOUS
370
-3
390
F
  0
ENDTAB
  0
TABLE
  2
STYLE
  5
3
100
AcDbSymbolTable
 70
1
  0
STYLE
  5
11
100
AcDbSymbolTableRecord
100
AcDbTextStyleTableRecord
  2
STANDARD
 70
0
 40
0.0
 41
1.0
 50
0.0
 71
0
 42
0.2
  3
ARIAL.TTF
  4

  0
STYLE
  5
20E
100
AcDbSymbolTableRecord
100
AcDbTextStyleTableRecord
  2
TEXTSTYLE_1
 70
0
 40
0.0
 41
0.8
 50
0.0
 71
0
 42
0.2
  3
gdt
  4

  0
ENDTAB
  0
TABLE
  2
VIEW
  5
6
100
AcDbSymbolTable
 70
0
  0
ENDTAB
  0
TABLE
  2
UCS
  5
7
100
AcDbSymbolTable
 70
0
  0
ENDTAB
  0
TABLE
  2
APPID
  5
9
100
AcDbSymbolTable
 70
1
  0
APPID
  5
20F
100
AcDbSymbolTableRecord
100
AcDbRegAppTableRecord
  2
ACAD
 70
0
  0
ENDTAB
  0
TABLE
  2
BLOCK_RECORD
  5
1
100
AcDbSymbolTable
 70
0
  0
BLOCK_RECORD
  5
210
100
AcDbSymbolTableRecord
100
AcDbBlockTableRecord
  2
*Model_Space
  0
BLOCK_RECORD
  5
211
100
AcDbSymbolTableRecord
100
AcDbBlockTableRecord
  2
*Paper_Space
  0
BLOCK_RECORD
  5
212
100
AcDbSymbolTableRecord
100
AcDbBlockTableRecord
  2
_FILLED
  0
ENDTAB
  0
TABLE
  2
DIMSTYLE
  5
A
100
AcDbSymbolTable
 70
1
100
AcDbDimStyleTable
 71
0
  0
DIMSTYLE
105
213
100
AcDbSymbolTableRecord
100
AcDbDimStyleTableRecord
  2
STANDARD
 70
0
  3

  4

 40
1.0
 41
0.7690858272
 42
1.0
 43
0.38
 44
1.0
 45
0.0
 46
0.0
 47
0.01
 48
0.01
140
1.0767201581
141
0.09
142
0.0
143
25.4
144
1.0
145
0.0
146
1.0
147
0.625
 71
1
 72
0
 73
0
 74
0
 75
0
 76
0
 77
1
 78
8
 79
2
170
0
171
1
172
0
173
0
174
0
175
0
176
0
177
0
178
0
270
2
179
2
271
2
272
2
273
2
274
2
275
0
280
0
281
0
282
0
283
1
284
8
285
0
286
0
287
3
288
0
340
11
278
46
341
212
342
212
343
212
344
212
  0
ENDTAB
  0
ENDSEC
  0
SECTION
  2
BLOCKS
  0
BLOCK
  5
20
100
AcDbEntity
  8
0
100
AcDbBlockBegin
  2
*Model_Space
 70
0
 10
0.0
 20
0.0
 30
0.0
  3
*Model_Space
  1

  0
ENDBLK
  5
21
100
AcDbEntity
  8
0
100
AcDbBlockEnd
  0
BLOCK
  5
1C
100
AcDbEntity
  8
0
100
AcDbBlockBegin
  2
*Paper_Space
 70
0
 10
0.0
 20
0.0
 30
0.0
  3
*Paper_Space
  1

  0
ENDBLK
  5
1D
100
AcDbEntity
  8
0
100
AcDbBlockEnd
  0
BLOCK
  5
214
100
AcDbEntity
  8
0
100
AcDbBlockBegin
  2
_FILLED
 70
64
 10
0.0
 20
0.0
  3
_FILLED
  1

  0
SOLID
  5
215
100
AcDbEntity
  8
0
  6
BYBLOCK
 62
0
100
AcDbTrace
 10
0.0
 20
0.0
 11
-1.0
 21
0.25
 12
-1.0
 22
-0.25
 13
-1.0
 23
-0.25
  0
ENDBLK
  5
216
100
AcDbEntity
  8
0
  6
BYBLOCK
 62
0
100
AcDbBlockEnd
  0
ENDSEC
  0
SECTION
  2
ENTITIES
  0
LINE
  5
217
100
AcDbEntity
  8
0
100
AcDbLine
 62
7
  6
BYLAYER
 10
55.2499707996
 20
6.0898435363
 11
58.3499707996
 21
6.0898435363
  0
LINE
  5
218
100
AcDbEntity
  8
0
100
AcDbLine
 62
7
  6
BYLAYER
 10
58.3499707996
 20
6.2419045696
 11
55.2499707996
 21
6.2419045696
  0
LINE
  5
219
100
AcDbEntity
  8
0
100
AcDbLine
 62
7
  6
BYLAYER
 10
53.5400361721
 20
9.9762788976
 11
46.2939553504
 21
9.9762788976
  0
LINE
  5
21A
100
AcDbEntity
  8
0
100
AcDbLine
 62
7
  6
BYLAYER
 10
58.3499707996
 20
11.4189967455
 11
56.4087744441
 21
11.4189967455
  0
LINE
  5
21B
100
AcDbEntity
  8
0
100
AcDbLine
 62
7
  6
BYLAYER
 10
10.8172612082
 20
70.1874033829
 11
10.44946006
 21
69.9138022081
  0
LINE
  5
21C
100
AcDbEntity
  8
0
100
AcDbLine
 62
7
  6
BYLAYER
 10
56.8440350627
 20
11.7267724805
 11
58.3499707996
 21
11.7267724805
  0
LINE
  5
21D
100
AcDbEntity
  8
0
100
AcDbLine
 62
7
  6
BYLAYER
 10
7.1479010709
 20
54.1417454157
 11
7.1479010709
 21
64.4647144894
  0
LINE
  5
21E
100
AcDbEntity
  8
0
100
AcDbLine
 62
7
  6
BYLAYER
 10
10.44946006
 20
69.9138022081
 11
10.44946006
 21
48.692657697
  0
LINE
  5
21F
100
AcDbEntity
  8
0
100
AcDbLine
 62
7
  6
BYLAYER
 10
32.8684632969
 20
60.4579304909
 11
34.8684632969
 21
61.6126310293
  0
LINE
  5
220
100
AcDbEntity
  8
0
100
AcDbLine
 62
7
  6
BYLAYER
 10
10.8172612082
 20
48.4190565222
 11
10.44946006
 21
48.692657697
  0
LINE
  5
221
100
AcDbEntity
  8
0
100
AcDbLine
 62
7
  6
BYLAYER
 10
36.8684632969
 20
58.1485294141
 11
34.8684632969
 21
56.9938288758
  0
LINE
  5
222
100
AcDbEntity
  8
0
100
AcDbLine
 62
7
  6
BYLAYER
 10
32.8684632969
 20
60.4579304909
 11
32.8684632969
 21
58.1485294141
  0
LINE
  5
223
100
AcDbEntity
  8
0
100
AcDbLine
 62
7
  6
BYLAYER
 10
43.9684632969
 20
45.6480878973
 11
43.63440316
 21
45.6342850417
  0
LINE
  5
224
100
AcDbEntity
  8
0
100
AcDbLine
 62
7
  6
BYLAYER
 10
41.1984183264
 20
45.6342850417
 11
43.63440316
 21
45.6342850417
  0
LINE
  5
225
100
AcDbEntity
  8
0
100
AcDbLine
 62
7
  6
BYLAYER
 10
54.9542497345
 20
59.4903513443
 11
56.8440350627
 21
60.8266313648
  0
LINE
  5
226
100
AcDbEntity
  8
0
100
AcDbLine
 62
7
  6
BYLAYER
 10
10.8162364522
 20
48.4190565222
 11
11.3134213043
 21
48.4190565222
  0
LINE
  5
227
100
AcDbEntity
  8
0
100
AcDbLine
 62
7
  6
BYLAYER
 10
36.8684632969
 20
58.1485294141
 11
36.8684632969
 21
60.4579304909
  0
LINE
  5
228
100
AcDbEntity
  8
0
100
AcDbLine
 62
7
  6
BYLAYER
 10
22.7500954117
 20
51.0049231293
 11
41.0630574784
 21
51.0049231293
  0
LINE
  5
229
100
AcDbEntity
  8
0
100
AcDbLine
 62
7
  6
BYLAYER
 10
58.3499707996
 20
12.4276269426
 11
58.3039052966
 21
12.5175841708
  0
LINE
  5
22A
100
AcDbEntity
  8
0
100
AcDbLine
 62
7
  6
BYLAYER
 10
43.9684632969
 20
59.5719305294
 11
43.9684632969
 21
11.6725171718
  0
LINE
  5
22B
100
AcDbEntity
  8
0
100
AcDbLine
 62
7
  6
BYLAYER
 10
34.8684632969
 20
56.9938288758
 11
32.8684632969
 21
58.1485294141
  0
LINE
  5
22C
100
AcDbEntity
  8
0
100
AcDbLine
 62
7
  6
BYLAYER
 10
46.2939553504
 20
59.0761377819
 11
46.2939553504
 21
60.8266313648
  0
LINE
  5
22D
100
AcDbEntity
  8
0
100
AcDbLine
 62
7
  6
BYLAYER
 10
46.3684632969
 20
60.8833310737
 11
46.3684632969
 21
61.3199275206
  0
LINE
  5
22E
100
AcDbEntity
  8
0
100
AcDbLine
 62
7
  6
BYLAYER
 10
47.8684632969
 20
83.2166240312
 11
47.8684632969
 21
61.3199275206
  0
LINE
  5
22F
100
AcDbEntity
  8
0
100
AcDbLine
 62
7
  6
BYLAYER
 10
47.8684632969
 20
57.5059803565
 11
47.8684632969
 21
56.1648742159
  0
LINE
  5
230
100
AcDbEntity
  8
0
100
AcDbLine
 62
7
  6
BYLAYER
 10
47.8684632969
 20
45.4847931401
 11
47.8684632969
 21
44.8515376531
  0
LINE
  5
231
100
AcDbEntity
  8
0
100
AcDbLine
 62
7
  6
BYLAYER
 10
47.8684632969
 20
24.2715897045
 11
47.8684632969
 21
23.6383342175
  0
LINE
  5
232
100
AcDbEntity
  8
0
100
AcDbLine
 62
7
  6
BYLAYER
 10
47.8684632969
 20
83.2518317872
 11
47.8684632969
 21
84.9474384188
  0
LINE
  5
233
100
AcDbEntity
  8
0
100
AcDbLine
 62
7
  6
BYLAYER
 10
46.2939553504
 20
59.0761377819
 11
53.5400361722
 21
59.0761377819
  0
LINE
  5
234
100
AcDbEntity
  8
0
100
AcDbLine
 62
7
  6
BYLAYER
 10
46.2939553504
 20
60.8266313648
 11
56.8440350627
 21
60.8266313648
  0
LINE
  5
235
100
AcDbEntity
  8
0
100
AcDbLine
 62
7
  6
BYLAYER
 10
52.6701876912
 20
61.3199275206
 11
46.3684632969
 21
61.3199275206
  0
LINE
  5
236
100
AcDbEntity
  8
0
100
AcDbLine
 62
7
  6
BYLAYER
 10
34.8684632969
 20
61.6126310293
 11
36.8684632969
 21
60.4579304909
  0
LINE
  5
237
100
AcDbEntity
  8
0
100
AcDbLine
 62
7
  6
BYLAYER
 10
50.9770743314
 20
84.947438525
 11
50.9770743314
 21
83.7272686116
  0
LINE
  5
238
100
AcDbEntity
  8
0
100
AcDbLine
 62
7
  6
BYLAYER
 10
51.8684632969
 20
61.3199275206
 11
51.8684632969
 21
82.0627136582
  0
LINE
  5
239
100
AcDbEntity
  8
0
100
AcDbLine
 62
7
  6
BYLAYER
 10
58.3499707996
 20
64.6450079832
 11
55.1135510923
 21
64.6450079832
  0
LINE
  5
23A
100
AcDbEntity
  8
0
100
AcDbLine
 62
7
  6
BYLAYER
 10
53.5400361721
 20
59.0761377819
 11
53.5400361721
 21
9.9762788976
  0
LINE
  5
23B
100
AcDbEntity
  8
0
100
AcDbLine
 62
7
  6
BYLAYER
 10
54.3499707996
 20
82.0627136582
 11
54.3499707996
 21
62.7130235796
  0
LINE
  5
23C
100
AcDbEntity
  8
0
100
AcDbLine
 62
7
  6
BYLAYER
 10
54.9542497345
 20
10.3904924599
 11
54.9542497345
 21
59.4903513443
  0
LINE
  5
23D
100
AcDbEntity
  8
0
100
AcDbLine
 62
7
  6
BYLAYER
 10
55.1135510923
 20
64.9527837182
 11
58.3499707996
 21
64.9527837182
  0
LINE
  5
23E
100
AcDbEntity
  8
0
100
AcDbLine
 62
7
  6
BYLAYER
 10
22.7500954117
 20
67.6015367758
 11
41.0630574784
 21
67.6015367758
  0
LINE
  5
23F
100
AcDbEntity
  8
0
100
AcDbLine
 62
7
  6
BYLAYER
 10
55.1135510923
 20
64.6450079832
 11
55.1135510923
 21
64.9527837182
  0
LINE
  5
240
100
AcDbEntity
  8
0
100
AcDbLine
 62
7
  6
BYLAYER
 10
55.2499707996
 20
6.0899073324
 11
55.2499707996
 21
8.0052817362
  0
LINE
  5
241
100
AcDbEntity
  8
0
100
AcDbLine
 62
7
  6
BYLAYER
 10
55.2499707996
 20
69.0795612465
 11
55.2499707996
 21
81.5391160294
  0
LINE
  5
242
100
AcDbEntity
  8
0
100
AcDbLine
 62
7
  6
BYLAYER
 10
57.7641843619
 20
61.5915644238
 11
57.7641843619
 21
12.2631270399
  0
LINE
  5
243
100
AcDbEntity
  8
0
100
AcDbLine
 62
7
  6
BYLAYER
 10
11.3134213043
 20
70.1874033829
 11
10.8162364522
 21
70.1874033829
  0
LINE
  5
244
100
AcDbEntity
  8
0
100
AcDbLine
 62
7
  6
BYLAYER
 10
58.3499707996
 20
6.0899075044
 11
58.3499707996
 21
12.4275897554
  0
LINE
  5
245
100
AcDbEntity
  8
0
100
AcDbLine
 62
7
  6
BYLAYER
 10
58.3499707996
 20
12.5175841708
 11
58.3499707996
 21
81.5391160294
  0
LINE
  5
246
100
AcDbEntity
  8
0
100
AcDbLine
 62
7
  6
BYLAYER
 10
43.63440316
 20
72.9721748634
 11
41.1984183264
 21
72.9721748634
  0
LINE
  5
247
100
AcDbEntity
  8
0
100
AcDbLine
 62
7
  6
BYLAYER
 10
58.3499707996
 20
73.1488211118
 11
55.2499707996
 21
73.1488211118
  0
LINE
  5
248
100
AcDbEntity
  8
0
100
AcDbLine
 62
7
  6
BYLAYER
 10
43.63440316
 20
72.9721748634
 11
47.8684632969
 21
72.7972299525
  0
LINE
  5
249
100
AcDbEntity
  8
0
100
AcDbLine
 62
7
  6
BYLAYER
 10
47.8685609223
 20
83.2439499111
 11
47.8796850984
 21
83.2166240312
  0
LINE
  5
24A
100
AcDbEntity
  8
0
100
AcDbLine
 62
7
  6
BYLAYER
 10
58.3499707996
 20
78.8765972359
 11
55.2499707996
 21
78.8765972359
  0
LINE
  5
24B
100
AcDbEntity
  8
0
100
AcDbLine
 62
7
  6
BYLAYER
 10
51.8684632969
 20
82.0627136582
 11
54.3499707996
 21
82.0627136582
  0
LINE
  5
24C
100
AcDbEntity
  8
0
100
AcDbLine
 62
7
  6
BYLAYER
 10
47.8942034547
 20
83.2439499111
 11
47.8685609223
 21
83.2439499111
  0
LINE
  5
24D
100
AcDbEntity
  8
0
100
AcDbLine
 62
7
  6
BYLAYER
 10
54.7904393081
 20
83.727258558
 11
47.9767260952
 21
83.7272765218
  0
LINE
  5
24E
100
AcDbEntity
  8
0
100
AcDbLine
 62
7
  6
BYLAYER
 10
47.8684632969
 20
84.947501385
 11
50.9770743314
 21
84.947501385
  0
LINE
  5
24F
100
AcDbEntity
  8
0
100
AcDbLine
 62
7
  6
BYLAYER
 10
56.8440350627
 20
11.7267724805
 11
54.9542497345
 21
10.3904924599
  0
ARC
  5
250
100
AcDbEntity
  8
0
100
AcDbCircle
 62
7
  6
BYLAYER
 10
28.4991716025
 20
106.355403064
 40
60.4315336883
100
AcDbArc
 50
253.4779800254
 51
269.6956378917
  0
ARC
  5
251
100
AcDbEntity
  8
0
100
AcDbCircle
 62
7
  6
BYLAYER
 10
28.4991716025
 20
12.2510568411
 40
60.4315336883
100
AcDbArc
 50
90.3043621083
 51
106.5220199746
  0
ARC
  5
252
100
AcDbEntity
  8
0
100
AcDbCircle
 62
7
  6
BYLAYER
 10
34.2473584671
 20
92.5936958513
 40
20.8163714187
100
AcDbArc
 50
253.0486728022
 51
289.5069780473
  0
ARC
  5
253
100
AcDbEntity
  8
0
100
AcDbCircle
 62
7
  6
BYLAYER
 10
34.2473584671
 20
26.0127640538
 40
20.8163714187
100
AcDbArc
 50
70.4930219566
 51
106.9513271978
  0
ARC
  5
254
100
AcDbEntity
  8
0
100
AcDbCircle
 62
7
  6
BYLAYER
 10
68.7805880678
 20
65.677166697
 40
13.6862201966
100
AcDbArc
 50
180.0271152363
 51
183.0339633086
  0
ARC
  5
255
100
AcDbEntity
  8
0
100
AcDbCircle
 62
7
  6
BYLAYER
 10
68.3122795018
 20
10.6615485226
 40
13.2179379873
100
AcDbArc
 50
180.7536153673
 51
181.188905008
  0
ARC
  5
256
100
AcDbEntity
  8
0
100
AcDbCircle
 62
7
  6
BYLAYER
 10
41.5262560377
 20
14.8109468947
 40
6.4528482249
100
AcDbArc
 50
1.5831392943
 51
2.4358979897
  0
ARC
  5
257
100
AcDbEntity
  8
0
100
AcDbCircle
 62
7
  6
BYLAYER
 10
13.2954284751
 20
54.1417454157
 40
6.1475274042
100
AcDbArc
 50
180.0
 51
242.4226790486
  0
ARC
  5
258
100
AcDbEntity
  8
0
100
AcDbCircle
 62
7
  6
BYLAYER
 10
13.2954284751
 20
64.4647144894
 40
6.1475274042
100
AcDbArc
 50
117.5773209514
 51
180.0
  0
CIRCLE
  5
259
100
AcDbEntity
  8
0
100
AcDbCircle
 62
7
  6
BYLAYER
 10
34.8684632969
 20
59.3032299525
 40
4.25
  0
CIRCLE
  5
25A
100
AcDbEntity
  8
0
100
AcDbCircle
 62
7
  6
BYLAYER
 10
34.8684632969
 20
59.3032299525
 40
4.0
  0
ARC
  5
25B
100
AcDbEntity
  8
0
100
AcDbCircle
 62
7
  6
BYLAYER
 10
46.3684989282
 20
57.9031848592
 40
3.3658019452
100
AcDbArc
 50
90.0006065487
 51
91.2119417878
  0
ARC
  5
25C
100
AcDbEntity
  8
0
100
AcDbCircle
 62
7
  6
BYLAYER
 10
48.1999549547
 20
83.2518293413
 40
0.3314916579
100
AcDbArc
 50
180.0006472057
 51
181.3569181581
  0
SPLINE
  5
25D
100
AcDbEntity
  8
0
100
AcDbSpline
 62
7
  6
BYLAYER
 70
0
 71
3
 72
20
 73
16
 74
0
 42
0.0000001
 43
0.0000001
 44
0.0000000001
 40
0.0
 40
0.0
 40
0.0
 40
0.0
 40
0.1157831107
 40
0.2349098672
 40
0.3570650749
 40
0.4818957065
 40
0.609018468
 40
0.6733129095
 40
0.7380262497
 40
0.8031050842
 40
0.8684952099
 40
0.9012910821
 40
0.9341449896
 40
0.9670503386
 40
1.0
 40
1.0
 40
1.0
 40
1.0
 10
22.7500954117
 20
51.0049231293
 30
0.0
 10
23.082398881
 20
51.2450337636
 30
0.0
 10
23.7481731939
 20
51.7439216414
 30
0.0
 10
24.7381542586
 20
52.5305398228
 30
0.0
 10
25.7344708858
 20
53.3600808908
 30
0.0
 10
26.7376021281
 20
54.2253013506
 30
0.0
 10
27.5771536047
 20
54.9663254736
 30
0.0
 10
28.2557382304
 20
55.5680207118
 30
0.0
 10
28.7707350423
 20
56.0230786065
 30
0.0
 10
29.2915906875
 20
56.477343043
 30
0.0
 10
29.732676936
 20
56.8511180985
 30
0.0
 10
30.0933856101
 20
57.1430145252
 30
0.0
 10
30.3695850963
 20
57.3563908975
 30
0.0
 10
30.6532866439
 20
57.56065591
 30
0.0
 10
30.8495963604
 20
57.6869231349
 30
0.0
 10
30.9503343092
 20
57.745778351
 30
0.0
  0
SPLINE
  5
25E
100
AcDbEntity
  8
0
100
AcDbSpline
 62
7
  6
BYLAYER
 70
0
 71
3
 72
10
 73
6
 74
0
 42
0.0000001
 43
0.0000001
 44
0.0000000001
 40
0.0
 40
0.0
 40
0.0
 40
0.0
 40
0.2936902822
 40
0.5620459408
 40
1.0
 40
1.0
 40
1.0
 40
1.0
 10
22.7500954117
 20
51.0049231293
 30
0.0
 10
22.1688107328
 20
50.6704654056
 30
0.0
 10
21.0803740108
 20
49.9879879679
 30
0.0
 10
19.2217103965
 20
48.6600719235
 30
0.0
 10
17.9698931574
 20
47.6405029054
 30
0.0
 10
17.2127818905
 20
46.9871238288
 30
0.0
  0
SPLINE
  5
25F
100
AcDbEntity
  8
0
100
AcDbSpline
 62
7
  6
BYLAYER
 70
0
 71
3
 72
9
 73
5
 74
0
 42
0.0000001
 43
0.0000001
 44
0.0000000001
 40
0.0
 40
0.0
 40
0.0
 40
0.0
 40
0.2346300866
 40
1.0
 40
1.0
 40
1.0
 40
1.0
 10
44.0070282883
 20
49.0677386175
 30
0.0
 10
43.7852018244
 20
49.2314552899
 30
0.0
 10
42.8319791596
 20
49.9184687733
 30
0.0
 10
41.8425731533
 20
50.5564078877
 30
0.0
 10
41.0630574784
 20
51.0049231293
 30
0.0
  0
SPLINE
  5
260
100
AcDbEntity
  8
0
100
AcDbSpline
 62
7
  6
BYLAYER
 70
0
 71
3
 72
11
 73
7
 74
0
 42
0.0000001
 43
0.0000001
 44
0.0000000001
 40
0.0
 40
0.0
 40
0.0
 40
0.0
 40
0.2604949239
 40
0.5148091547
 40
0.7616799725
 40
1.0
 40
1.0
 40
1.0
 40
1.0
 10
35.9523080882
 20
55.2179933871
 30
0.0
 10
36.3830162617
 20
54.8365209312
 30
0.0
 10
37.2351195653
 20
54.083628242
 30
0.0
 10
38.5137484786
 20
52.9901374894
 30
0.0
 10
39.7817072929
 20
51.9602054144
 30
0.0
 10
40.6364052941
 20
51.3132067799
 30
0.0
 10
41.0630574784
 20
51.0049231293
 30
0.0
  0
SPLINE
  5
261
100
AcDbEntity
  8
0
100
AcDbSpline
 62
7
  6
BYLAYER
 70
0
 71
3
 72
9
 73
5
 74
0
 42
0.0000001
 43
0.0000001
 44
0.0000000001
 40
0.0
 40
0.0
 40
0.0
 40
0.0
 40
0.4380705439
 40
1.0
 40
1.0
 40
1.0
 40
1.0
 10
17.2127764154
 20
71.6193350813
 30
0.0
 10
17.9699050933
 20
70.9659661124
 30
0.0
 10
19.7408679478
 20
69.5236071331
 30
0.0
 10
21.638188427
 20
68.2413022685
 30
0.0
 10
22.7500954117
 20
67.6015367758
 30
0.0
  0
SPLINE
  5
262
100
AcDbEntity
  8
0
100
AcDbSpline
 62
7
  6
BYLAYER
 70
0
 71
3
 72
13
 73
9
 74
0
 42
0.0000001
 43
0.0000001
 44
0.0000000001
 40
0.0
 40
0.0
 40
0.0
 40
0.0
 40
0.3344705573
 40
0.6222031892
 40
0.7441875659
 40
0.8490498313
 40
0.9349026828
 40
1.0
 40
1.0
 40
1.0
 40
1.0
 10
41.0630574784
 20
67.6015367758
 30
0.0
 10
41.8890708632
 20
68.0768057213
 30
0.0
 10
43.3787872295
 20
69.0438983722
 30
0.0
 10
45.0641181286
 20
70.3324707224
 30
0.0
 10
46.1934957917
 20
71.2675604211
 30
0.0
 10
46.8685609346
 20
71.8490839519
 30
0.0
 10
47.4134831188
 20
72.3331720398
 30
0.0
 10
47.7316762587
 20
72.6225462607
 30
0.0
 10
47.8684632969
 20
72.7478105743
 30
0.0
  0
SPLINE
  5
263
100
AcDbEntity
  8
0
100
AcDbSpline
 62
7
  6
BYLAYER
 70
0
 71
3
 72
20
 73
16
 74
0
 42
0.0000001
 43
0.0000001
 44
0.0000000001
 40
0.0
 40
0.0
 40
0.0
 40
0.0
 40
0.1157830616
 40
0.2349097798
 40
0.3570649866
 40
0.4818956254
 40
0.6090183967
 40
0.6733128456
 40
0.738026195
 40
0.8031050402
 40
0.8684951794
 40
0.9012910621
 40
0.9341449817
 40
0.9670503473
 40
1.0
 40
1.0
 40
1.0
 40
1.0
 10
22.7500954117
 20
67.6015367758
 30
0.0
 10
23.0823986658
 20
67.3614262969
 30
0.0
 10
23.7481725966
 20
66.8625387354
 30
0.0
 10
24.7381531981
 20
66.0759209281
 30
0.0
 10
25.7344695337
 20
65.2463801406
 30
0.0
 10
26.7376006389
 20
64.3811598878
 30
0.0
 10
27.5771520008
 20
63.6401358818
 30
0.0
 10
28.2557365411
 20
63.0384407116
 30
0.0
 10
28.7707333394
 20
62.5833828887
 30
0.0
 10
29.2915888352
 20
62.1291183342
 30
0.0
 10
29.7326751296
 20
61.7553433466
 30
0.0
 10
30.0933837149
 20
61.4634467683
 30
0.0
 10
30.3695832536
 20
61.2500703748
 30
0.0
 10
30.6532846461
 20
61.0458051266
 30
0.0
 10
30.8495945702
 20
60.9195383092
 30
0.0
 10
30.9503322797
 20
60.8606827966
 30
0.0
  0
SPLINE
  5
264
100
AcDbEntity
  8
0
100
AcDbSpline
 62
7
  6
BYLAYER
 70
0
 71
3
 72
11
 73
7
 74
0
 42
0.0000001
 43
0.0000001
 44
0.0000000001
 40
0.0
 40
0.0
 40
0.0
 40
0.0
 40
0.2604937309
 40
0.514807796
 40
0.7616799059
 40
1.0
 40
1.0
 40
1.0
 40
1.0
 10
35.9521738097
 20
63.3883471956
 30
0.0
 10
36.3828911407
 20
63.7698288603
 30
0.0
 10
37.2350150906
 20
64.5227401966
 30
0.0
 10
38.5136766263
 20
65.6162627333
 30
0.0
 10
39.7816704752
 20
66.6462261059
 30
0.0
 10
40.6363936095
 20
67.2932446823
 30
0.0
 10
41.0630574784
 20
67.6015367758
 30
0.0
  0
SPLINE
  5
265
100
AcDbEntity
  8
0
100
AcDbSpline
 62
7
  6
BYLAYER
 70
0
 71
3
 72
11
 73
7
 74
0
 42
0.0000001
 43
0.0000001
 44
0.0000000001
 40
0.0
 40
0.0
 40
0.0
 40
0.0
 40
0.2773388957
 40
0.5372001494
 40
0.7785494621
 40
1.0
 40
1.0
 40
1.0
 40
1.0
 10
55.0971870707
 20
10.3872919353
 30
0.0
 10
55.1017628675
 20
10.1666579264
 30
0.0
 10
55.1211717701
 20
9.7394541274
 30
0.0
 10
55.1743168923
 20
9.1221539558
 30
0.0
 10
55.2288575721
 20
8.5498313085
 30
0.0
 10
55.2499707996
 20
8.1817413757
 30
0.0
 10
55.2499707996
 20
8.0055308719
 30
0.0
  0
SPLINE
  5
266
100
AcDbEntity
  8
0
100
AcDbSpline
 62
7
  6
BYLAYER
 70
0
 71
3
 72
10
 73
6
 74
0
 42
0.0000001
 43
0.0000001
 44
0.0000000001
 40
0.0
 40
0.0
 40
0.0
 40
0.0
 40
0.2446892275
 40
0.4935014104
 40
1.0
 40
1.0
 40
1.0
 40
1.0
 10
53.3773030285
 20
61.5888497195
 30
0.0
 10
53.3319156493
 20
61.5451624497
 30
0.0
 10
53.2302811796
 20
61.4669503974
 30
0.0
 10
52.9977310549
 20
61.3538103772
 30
0.0
 10
52.8005888955
 20
61.3199275206
 30
0.0
 10
52.6701876912
 20
61.3199275206
 30
0.0
  0
SPLINE
  5
267
100
AcDbEntity
  8
0
100
AcDbSpline
 62
7
  6
BYLAYER
 70
0
 71
3
 72
11
 73
7
 74
0
 42
0.0000001
 43
0.0000001
 44
0.0000000001
 40
0.0
 40
0.0
 40
0.0
 40
0.0
 40
0.2462471322
 40
0.5004463072
 40
0.753374176
 40
1.0
 40
1.0
 40
1.0
 40
1.0
 10
54.9570775807
 20
63.7754301568
 30
0.0
 10
54.8722065124
 20
63.5694496785
 30
0.0
 10
54.66385559
 20
63.1654273101
 30
0.0
 10
54.2831391304
 20
62.5989137279
 30
0.0
 10
53.851528797
 20
62.0698661265
 30
0.0
 10
53.5380481876
 20
61.7435734927
 30
0.0
 10
53.3772944724
 20
61.588841251
 30
0.0
  0
SPLINE
  5
268
100
AcDbEntity
  8
0
100
AcDbSpline
 62
7
  6
BYLAYER
 70
0
 71
3
 72
11
 73
7
 74
0
 42
0.0000001
 43
0.0000001
 44
0.0000000001
 40
0.0
 40
0.0
 40
0.0
 40
0.0
 40
0.2231861907
 40
0.4657756788
 40
0.7255821302
 40
1.0
 40
1.0
 40
1.0
 40
1.0
 10
55.1135510923
 20
64.6450079832
 30
0.0
 10
55.1135510923
 20
64.5789312168
 30
0.0
 10
55.1078140555
 20
64.4409991449
 30
0.0
 10
55.0830466884
 20
64.2274003693
 30
0.0
 10
55.0370265916
 20
64.0017576327
 30
0.0
 10
54.988114577
 20
63.8507333595
 30
0.0
 10
54.9571634289
 20
63.7756155082
 30
0.0
  0
SPLINE
  5
269
100
AcDbEntity
  8
0
100
AcDbSpline
 62
7
  6
BYLAYER
 70
0
 71
3
 72
14
 73
10
 74
0
 42
0.0000001
 43
0.0000001
 44
0.0000000001
 40
0.0
 40
0.0
 40
0.0
 40
0.0
 40
0.1036317035
 40
0.2109777558
 40
0.3246772599
 40
0.4463243477
 40
0.5760826316
 40
0.7129707217
 40
1.0
 40
1.0
 40
1.0
 40
1.0
 10
43.9684632969
 20
59.5719305294
 30
0.0
 10
43.9684632969
 20
59.6811989754
 30
0.0
 10
43.9996158537
 20
59.9047285446
 30
0.0
 10
44.1356413597
 20
60.222697942
 30
0.0
 10
44.3544709696
 20
60.5140940618
 30
0.0
 10
44.6462522689
 20
60.7688742699
 30
0.0
 10
45.0002020703
 20
60.9787805465
 30
0.0
 10
45.5451860877
 20
61.1928703802
 30
0.0
 10
45.9947357779
 20
61.2618357816
 30
0.0
 10
46.2973095337
 20
61.268233864
 30
0.0
  0
SPLINE
  5
26A
100
AcDbEntity
  8
0
100
AcDbSpline
 62
7
  6
BYLAYER
 70
0
 71
3
 72
15
 73
11
 74
0
 42
0.0000001
 43
0.0000001
 44
0.0000000001
 40
0.0
 40
0.0
 40
0.0
 40
0.0
 40
0.2359831039
 40
0.3004059804
 40
0.3661941512
 40
0.5000116952
 40
0.6338262844
 40
0.6996112558
 40
0.7640304085
 40
1.0
 40
1.0
 40
1.0
 40
1.0
 10
46.5578034747
 20
14.3877255093
 30
0.0
 10
46.8292320321
 20
14.1144284888
 30
0.0
 10
47.27239926
 20
13.8581807971
 30
0.0
 10
47.8420318238
 20
13.6796533806
 30
0.0
 10
48.2638694591
 20
13.5877828011
 30
0.0
 10
48.8088872864
 20
13.5421770004
 30
0.0
 10
49.3538915951
 20
13.5878972883
 30
0.0
 10
49.7756905721
 20
13.6798690126
 30
0.0
 10
50.345252703
 20
13.8585086991
 30
0.0
 10
50.7883245711
 20
14.1148823728
 30
0.0
 10
51.0596464349
 20
14.3882542425
 30
0.0
  0
SPLINE
  5
26B
100
AcDbEntity
  8
0
100
AcDbSpline
 62
7
  6
BYLAYER
 70
0
 71
3
 72
15
 73
11
 74
0
 42
0.0000001
 43
0.0000001
 44
0.0000000001
 40
0.0
 40
0.0
 40
0.0
 40
0.0
 40
0.2359831039
 40
0.3004059804
 40
0.3661941512
 40
0.5000116952
 40
0.6338262844
 40
0.6996112558
 40
0.7640304085
 40
1.0
 40
1.0
 40
1.0
 40
1.0
 10
46.5578034747
 20
56.8141323805
 30
0.0
 10
46.8292320321
 20
56.54083536
 30
0.0
 10
47.27239926
 20
56.2845876683
 30
0.0
 10
47.8420318238
 20
56.1060602518
 30
0.0
 10
48.2638694591
 20
56.0141896723
 30
0.0
 10
48.8088872864
 20
55.9685838716
 30
0.0
 10
49.3538915951
 20
56.0143041595
 30
0.0
 10
49.7756905721
 20
56.1062758838
 30
0.0
 10
50.345252703
 20
56.2849155703
 30
0.0
 10
50.7883245711
 20
56.541289244
 30
0.0
 10
51.0596464349
 20
56.8146611137
 30
0.0
  0
SPLINE
  5
26C
100
AcDbEntity
  8
0
100
AcDbSpline
 62
7
  6
BYLAYER
 70
0
 71
3
 72
13
 73
9
 74
0
 42
0.0000001
 43
0.0000001
 44
0.0000000001
 40
0.0
 40
0.0
 40
0.0
 40
0.0
 40
0.2405917207
 40
0.3690646169
 40
0.4999678892
 40
0.6308750161
 40
0.7593594984
 40
1.0
 40
1.0
 40
1.0
 40
1.0
 10
47.2306620362
 20
23.916735367
 30
0.0
 10
47.4495670106
 20
23.7644810981
 30
0.0
 10
47.8316172785
 20
23.5937978907
 30
0.0
 10
48.3746791905
 20
23.4798041871
 30
0.0
 10
48.807732858
 20
23.450050605
 30
0.0
 10
49.2408132941
 20
23.4796040869
 30
0.0
 10
49.7839971909
 20
23.5933605008
 30
0.0
 10
50.166198599
 20
23.7638619622
 30
0.0
 10
50.3852350907
 20
23.9160217479
 30
0.0
  0
SPLINE
  5
26D
100
AcDbEntity
  8
0
100
AcDbSpline
 62
7
  6
BYLAYER
 70
0
 71
3
 72
13
 73
9
 74
0
 42
0.0000001
 43
0.0000001
 44
0.0000000001
 40
0.0
 40
0.0
 40
0.0
 40
0.0
 40
0.2405917207
 40
0.3690646169
 40
0.4999678892
 40
0.6308750161
 40
0.7593594984
 40
1.0
 40
1.0
 40
1.0
 40
1.0
 10
47.2306620362
 20
45.1299388026
 30
0.0
 10
47.4495670106
 20
44.9776845337
 30
0.0
 10
47.8316172785
 20
44.8070013263
 30
0.0
 10
48.3746791905
 20
44.6930076227
 30
0.0
 10
48.807732858
 20
44.6632540406
 30
0.0
 10
49.2408132941
 20
44.6928075225
 30
0.0
 10
49.7839971909
 20
44.8065639364
 30
0.0
 10
50.166198599
 20
44.9770653978
 30
0.0
 10
50.3852350907
 20
45.1292251835
 30
0.0
  0
SPLINE
  5
26E
100
AcDbEntity
  8
0
100
AcDbSpline
 62
7
  6
BYLAYER
 70
0
 71
3
 72
15
 73
11
 74
0
 42
0.0000001
 43
0.0000001
 44
0.0000000001
 40
0.0
 40
0.0
 40
0.0
 40
0.0
 40
0.0108851087
 40
0.0274447522
 40
0.0814398159
 40
0.1645333772
 40
0.2765799952
 40
0.4170235798
 40
0.5852067834
 40
1.0
 40
1.0
 40
1.0
 40
1.0
 10
47.8790682719
 20
83.2166439463
 30
0.0
 10
47.8809838643
 20
83.2166378207
 30
0.0
 10
47.8856206106
 20
83.2189934255
 30
0.0
 10
47.8950293833
 20
83.2298029521
 30
0.0
 10
47.9073070274
 20
83.254294772
 30
0.0
 10
47.9219613135
 20
83.2955524362
 30
0.0
 10
47.936791845
 20
83.3528315534
 30
0.0
 10
47.9507396486
 20
83.4255585072
 30
0.0
 10
47.9678278368
 20
83.5517749636
 30
0.0
 10
47.9742427386
 20
83.6543190704
 30
0.0
 10
47.976641144
 20
83.7272765218
 30
0.0
  0
SPLINE
  5
26F
100
AcDbEntity
  8
0
100
AcDbSpline
 62
7
  6
BYLAYER
 70
0
 71
3
 72
9
 73
5
 74
0
 42
0.0000001
 43
0.0000001
 44
0.0000000001
 40
0.0
 40
0.0
 40
0.0
 40
0.0
 40
0.4823196498
 40
1.0
 40
1.0
 40
1.0
 40
1.0
 10
57.7641843619
 20
12.2631270399
 30
0.0
 10
57.607909029
 20
12.1926658482
 30
0.0
 10
57.292597341
 20
12.027011146
 30
0.0
 10
56.994265158
 20
11.8330011996
 30
0.0
 10
56.8440350627
 20
11.7267724805
 30
0.0
  0
SPLINE
  5
270
100
AcDbEntity
  8
0
100
AcDbSpline
 62
7
  6
BYLAYER
 70
0
 71
3
 72
9
 73
5
 74
0
 42
0.0000001
 43
0.0000001
 44
0.0000000001
 40
0.0
 40
0.0
 40
0.0
 40
0.0
 40
0.4135411371
 40
1.0
 40
1.0
 40
1.0
 40
1.0
 10
58.3041716544
 20
12.5175488315
 30
0.0
 10
58.2934016987
 20
12.517535529
 30
0.0
 10
58.2675803291
 20
12.5116497333
 30
0.0
 10
58.2434909455
 20
12.5018709612
 30
0.0
 10
58.2295180866
 20
12.4957038609
 30
0.0
  0
SPLINE
  5
271
100
AcDbEntity
  8
0
100
AcDbSpline
 62
7
  6
BYLAYER
 70
0
 71
3
 72
11
 73
7
 74
0
 42
0.0000001
 43
0.0000001
 44
0.0000000001
 40
0.0
 40
0.0
 40
0.0
 40
0.0
 40
0.1688111889
 40
0.3937699035
 40
0.6730680598
 40
1.0
 40
1.0
 40
1.0
 40
1.0
 10
58.2295180866
 20
12.4957038609
 30
0.0
 10
58.2027167542
 20
12.4838747495
 30
0.0
 10
58.141815706
 20
12.4527473464
 30
0.0
 10
58.038732429
 20
12.3978778996
 30
0.0
 10
57.9105765684
 20
12.3316332959
 30
0.0
 10
57.8155987664
 20
12.2863112347
 30
0.0
 10
57.7638768145
 20
12.2629909173
 30
0.0
  0
SPLINE
  5
272
100
AcDbEntity
  8
0
100
AcDbSpline
 62
7
  6
BYLAYER
 70
0
 71
3
 72
9
 73
5
 74
0
 42
0.0000001
 43
0.0000001
 44
0.0000000001
 40
0.0
 40
0.0
 40
0.0
 40
0.0
 40
0.2356165529
 40
1.0
 40
1.0
 40
1.0
 40
1.0
 10
54.9542497345
 20
10.3904924599
 30
0.0
 10
54.8589056265
 20
10.3230739946
 30
0.0
 10
54.4272615589
 20
10.0756238244
 30
0.0
 10
53.9188666969
 20
9.9762788976
 30
0.0
 10
53.5400361721
 20
9.9762788976
 30
0.0
  0
SPLINE
  5
273
100
AcDbEntity
  8
0
100
AcDbSpline
 62
7
  6
BYLAYER
 70
0
 71
3
 72
14
 73
10
 74
0
 42
0.0000001
 43
0.0000001
 44
0.0000000001
 40
0.0
 40
0.0
 40
0.0
 40
0.0
 40
0.1036548152
 40
0.2110101181
 40
0.324717034
 40
0.4463632664
 40
0.5761150639
 40
0.7129999222
 40
1.0
 40
1.0
 40
1.0
 40
1.0
 10
43.9684632969
 20
11.6725171718
 30
0.0
 10
43.9684632969
 20
11.5633395293
 30
0.0
 10
43.9995501171
 20
11.3400108812
 30
0.0
 10
44.13535169
 20
11.0223008446
 30
0.0
 10
44.3538129308
 20
10.7310930411
 30
0.0
 10
44.6451300529
 20
10.4764059092
 30
0.0
 10
44.9985501164
 20
10.2664785677
 30
0.0
 10
45.5427702669
 20
10.0522585523
 30
0.0
 10
45.9917365154
 20
9.9829164393
 30
0.0
 10
46.2939553504
 20
9.9762788976
 30
0.0
  0
SPLINE
  5
274
100
AcDbEntity
  8
0
100
AcDbSpline
 62
7
  6
BYLAYER
 70
0
 71
3
 72
19
 73
15
 74
0
 42
0.0000001
 43
0.0000001
 44
0.0000000001
 40
0.0
 40
0.0
 40
0.0
 40
0.0
 40
0.0517128511
 40
0.1053430644
 40
0.1622487636
 40
0.223216063
 40
0.3564715866
 40
0.4999915195
 40
0.6435117143
 40
0.7767725198
 40
0.8377441258
 40
0.8946534192
 40
0.9482865794
 40
1.0
 40
1.0
 40
1.0
 40
1.0
 10
46.5584632969
 20
44.0721498858
 30
0.0
 10
46.5584632969
 20
44.176579338
 30
0.0
 10
46.5888516177
 20
44.3903778787
 30
0.0
 10
46.7214009353
 20
44.6937961067
 30
0.0
 10
46.9342871718
 20
44.970844048
 30
0.0
 10
47.3231048144
 20
45.3011815113
 30
0.0
 10
47.9572013676
 20
45.587606401
 30
0.0
 10
48.8084107644
 20
45.7022863264
 30
0.0
 10
49.6596351737
 20
45.5876328037
 30
0.0
 10
50.2937575753
 20
45.3012177946
 30
0.0
 10
50.6826093736
 20
44.9708785998
 30
0.0
 10
50.8955134327
 20
44.6938159604
 30
0.0
 10
51.0280727635
 20
44.3903861768
 30
0.0
 10
51.0584632969
 20
44.1765804881
 30
0.0
 10
51.0584632969
 20
44.0721498858
 30
0.0
  0
SPLINE
  5
275
100
AcDbEntity
  8
0
100
AcDbSpline
 62
7
  6
BYLAYER
 70
0
 71
3
 72
19
 73
15
 74
0
 42
0.0000001
 43
0.0000001
 44
0.0000000001
 40
0.0
 40
0.0
 40
0.0
 40
0.0
 40
0.0517128511
 40
0.1053430644
 40
0.1622487636
 40
0.223216063
 40
0.3564715866
 40
0.4999915195
 40
0.6435117143
 40
0.7767725198
 40
0.8377441258
 40
0.8946534192
 40
0.9482865794
 40
1.0
 40
1.0
 40
1.0
 40
1.0
 10
46.5584632969
 20
22.8589464502
 30
0.0
 10
46.5584632969
 20
22.9633759024
 30
0.0
 10
46.5888516177
 20
23.1771744431
 30
0.0
 10
46.7214009353
 20
23.4805926711
 30
0.0
 10
46.9342871718
 20
23.7576406124
 30
0.0
 10
47.3231048144
 20
24.0879780757
 30
0.0
 10
47.9572013676
 20
24.3744029654
 30
0.0
 10
48.8084107644
 20
24.4890828908
 30
0.0
 10
49.6596351737
 20
24.3744293681
 30
0.0
 10
50.2937575753
 20
24.088014359
 30
0.0
 10
50.6826093736
 20
23.7576751642
 30
0.0
 10
50.8955134327
 20
23.4806125248
 30
0.0
 10
51.0280727635
 20
23.1771827412
 30
0.0
 10
51.0584632969
 20
22.9633770525
 30
0.0
 10
51.0584632969
 20
22.8589464502
 30
0.0
  0
SPLINE
  5
276
100
AcDbEntity
  8
0
100
AcDbSpline
 62
7
  6
BYLAYER
 70
0
 71
3
 72
22
 73
18
 74
0
 42
0.0000001
 43
0.0000001
 44
0.0000000001
 40
0.0
 40
0.0
 40
0.0
 40
0.0
 40
0.0516522157
 40
0.1052195454
 40
0.1620585203
 40
0.2229543331
 40
0.3560536091
 40
0.427222837
 40
0.4997660726
 40
0.5723093266
 40
0.6434788299
 40
0.7120391985
 40
0.7770342631
 40
0.8379343775
 40
0.8947769423
 40
0.9483472155
 40
1.0
 40
1.0
 40
1.0
 40
1.0
 10
46.0584632969
 20
55.7394117753
 30
0.0
 10
46.0584632969
 20
55.8670477726
 30
0.0
 10
46.095606046
 20
56.1283576646
 30
0.0
 10
46.2576038163
 20
56.4991994923
 30
0.0
 10
46.5178259719
 20
56.8378243596
 30
0.0
 10
46.9928897621
 20
57.2415094721
 30
0.0
 10
47.6031489618
 20
57.5170943121
 30
0.0
 10
48.2733825438
 20
57.659351425
 30
0.0
 10
48.8084518542
 20
57.6963393087
 30
0.0
 10
49.3432090361
 20
57.6594253057
 30
0.0
 10
49.8580951146
 20
57.5500892856
 30
0.0
 10
50.3338479827
 20
57.3722521086
 30
0.0
 10
50.7528099885
 20
57.1321152077
 30
0.0
 10
51.0990996849
 20
56.837825558
 30
0.0
 10
51.359299068
 20
56.4992338089
 30
0.0
 10
51.5213201908
 20
56.1283651157
 30
0.0
 10
51.5584632969
 20
55.8670491782
 30
0.0
 10
51.5584632969
 20
55.7394117753
 30
0.0
  0
SPLINE
  5
277
100
AcDbEntity
  8
0
100
AcDbSpline
 62
7
  6
BYLAYER
 70
0
 71
3
 72
22
 73
18
 74
0
 42
0.0000001
 43
0.0000001
 44
0.0000000001
 40
0.0
 40
0.0
 40
0.0
 40
0.0
 40
0.0516522157
 40
0.1052195454
 40
0.1620585203
 40
0.2229543331
 40
0.3560536091
 40
0.427222837
 40
0.4997660726
 40
0.5723093266
 40
0.6434788299
 40
0.7120391985
 40
0.7770342631
 40
0.8379343775
 40
0.8947769423
 40
0.9483472155
 40
1.0
 40
1.0
 40
1.0
 40
1.0
 10
46.0584632969
 20
13.3130049042
 30
0.0
 10
46.0584632969
 20
13.4406409014
 30
0.0
 10
46.095606046
 20
13.7019507934
 30
0.0
 10
46.2576038163
 20
14.0727926211
 30
0.0
 10
46.5178259719
 20
14.4114174884
 30
0.0
 10
46.9928897621
 20
14.8151026009
 30
0.0
 10
47.6031489618
 20
15.0906874409
 30
0.0
 10
48.2733825438
 20
15.2329445539
 30
0.0
 10
48.8084518542
 20
15.2699324375
 30
0.0
 10
49.3432090361
 20
15.2330184346
 30
0.0
 10
49.8580951146
 20
15.1236824144
 30
0.0
 10
50.3338479827
 20
14.9458452374
 30
0.0
 10
50.7528099885
 20
14.7057083365
 30
0.0
 10
51.0990996849
 20
14.4114186868
 30
0.0
 10
51.359299068
 20
14.0728269377
 30
0.0
 10
51.5213201908
 20
13.7019582445
 30
0.0
 10
51.5584632969
 20
13.440642307
 30
0.0
 10
51.5584632969
 20
13.3130049042
 30
0.0
  0
SPLINE
  5
278
100
AcDbEntity
  8
0
100
AcDbSpline
 62
7
  6
BYLAYER
 70
0
 71
3
 72
11
 73
7
 74
0
 42
0.0000001
 43
0.0000001
 44
0.0000000001
 40
0.0
 40
0.0
 40
0.0
 40
0.0
 40
0.2675618313
 40
0.5241994422
 40
0.7687035295
 40
1.0
 40
1.0
 40
1.0
 40
1.0
 10
55.2499707996
 20
69.0791424375
 30
0.0
 10
55.2499707996
 20
68.7747893571
 30
0.0
 10
55.2281492587
 20
68.1785375468
 30
0.0
 10
55.1664328502
 20
67.3063542071
 30
0.0
 10
55.1108202599
 20
66.4750312611
 30
0.0
 10
55.0943694038
 20
65.933790721
 30
0.0
 10
55.0943694038
 20
65.6706896914
 30
0.0
  0
SPLINE
  5
279
100
AcDbEntity
  8
0
100
AcDbSpline
 62
7
  6
BYLAYER
 70
0
 71
3
 72
15
 73
11
 74
0
 42
0.0000001
 43
0.0000001
 44
0.0000000001
 40
0.0
 40
0.0
 40
0.0
 40
0.0
 40
0.093987755
 40
0.191387627
 40
0.2972735161
 40
0.4148330598
 40
0.5452096545
 40
0.6877885391
 40
0.8405065669
 40
1.0
 40
1.0
 40
1.0
 40
1.0
 10
58.3499707996
 20
81.5391160294
 30
0.0
 10
58.3499707996
 20
81.6816957118
 30
0.0
 10
58.3038759246
 20
81.974076957
 30
0.0
 10
58.0979840407
 20
82.3821609269
 30
0.0
 10
57.7687166973
 20
82.7469804858
 30
0.0
 10
57.3302742154
 20
83.0620505114
 30
0.0
 10
56.7958915605
 20
83.3229133946
 30
0.0
 10
56.1809069736
 20
83.5252284557
 30
0.0
 10
55.5039914258
 20
83.6648692337
 30
0.0
 10
55.0320076391
 20
83.7136387162
 30
0.0
 10
54.7904393081
 20
83.727258558
 30
0.0
  0
SPLINE
  5
27A
100
AcDbEntity
  8
0
100
AcDbSpline
 62
7
  6
BYLAYER
 70
0
 71
3
 72
9
 73
5
 74
0
 42
0.0000001
 43
0.0000001
 44
0.0000000001
 40
0.0
 40
0.0
 40
0.0
 40
0.0
 40
0.5046217267
 40
1.0
 40
1.0
 40
1.0
 40
1.0
 10
48.7725251006
 20
13.5606295529
 30
0.0
 10
48.5827391809
 20
13.7627126338
 30
0.0
 10
48.2530262802
 20
14.2100489562
 30
0.0
 10
48.0457709347
 20
14.7259753595
 30
0.0
 10
47.9767260952
 20
14.9892228133
 30
0.0
  0
SPLINE
  5
27B
100
AcDbEntity
  8
0
100
AcDbSpline
 62
7
  6
BYLAYER
 70
0
 71
3
 72
11
 73
7
 74
0
 42
0.0000001
 43
0.0000001
 44
0.0000000001
 40
0.0
 40
0.0
 40
0.0
 40
0.0
 40
0.2103414204
 40
0.4452205015
 40
0.7117677876
 40
1.0
 40
1.0
 40
1.0
 40
1.0
 10
46.2939553504
 20
60.8266313648
 30
0.0
 10
46.2939553504
 20
60.8338341102
 30
0.0
 10
46.2982194669
 20
60.8492259121
 30
0.0
 10
46.3148765867
 20
60.8679278404
 30
0.0
 10
46.3394689881
 20
60.8803566567
 30
0.0
 10
46.3585933283
 20
60.8833310737
 30
0.0
 10
46.3684632969
 20
60.8833310737
 30
0.0
  0
SPLINE
  5
27C
100
AcDbEntity
  8
0
100
AcDbSpline
 62
7
  6
BYLAYER
 70
0
 71
3
 72
11
 73
7
 74
0
 42
0.0000001
 43
0.0000001
 44
0.0000000001
 40
0.0
 40
0.0
 40
0.0
 40
0.0
 40
0.2437793752
 40
0.494101462
 40
0.7487504919
 40
1.0
 40
1.0
 40
1.0
 40
1.0
 10
57.7638803626
 20
61.591276898
 30
0.0
 10
57.8796743238
 20
61.7028254049
 30
0.0
 10
58.079980484
 20
61.9672373241
 30
0.0
 10
58.2585766319
 20
62.4327482694
 30
0.0
 10
58.3388132235
 20
62.9272781745
 30
0.0
 10
58.3499707996
 20
63.2612490603
 30
0.0
 10
58.3499707996
 20
63.4269593762
 30
0.0
  0
SPLINE
  5
27D
100
AcDbEntity
  8
0
100
AcDbSpline
 62
7
  6
BYLAYER
 70
0
 71
3
 72
9
 73
5
 74
0
 42
0.0000001
 43
0.0000001
 44
0.0000000001
 40
0.0
 40
0.0
 40
0.0
 40
0.0
 40
0.2631564041
 40
1.0
 40
1.0
 40
1.0
 40
1.0
 10
53.5400361722
 20
59.0761377819
 30
0.0
 10
53.6703729076
 20
59.0761377819
 30
0.0
 10
54.1640470428
 20
59.1099169962
 30
0.0
 10
54.656272847
 20
59.2796498665
 30
0.0
 10
54.9542497345
 20
59.4903513443
 30
0.0
  0
SPLINE
  5
27E
100
AcDbEntity
  8
0
100
AcDbSpline
 62
7
  6
BYLAYER
 70
0
 71
3
 72
9
 73
5
 74
0
 42
0.0000001
 43
0.0000001
 44
0.0000000001
 40
0.0
 40
0.0
 40
0.0
 40
0.0
 40
0.2410597505
 40
1.0
 40
1.0
 40
1.0
 40
1.0
 10
56.8440350627
 20
60.8266313648
 30
0.0
 10
56.9225822969
 20
60.8821726468
 30
0.0
 10
57.2436557802
 20
61.1192736354
 30
0.0
 10
57.5460600692
 20
61.3814374109
 30
0.0
 10
57.7641843619
 20
61.5915644238
 30
0.0
  0
SPLINE
  5
27F
100
AcDbEntity
  8
0
100
AcDbSpline
 62
7
  6
BYLAYER
 70
0
 71
3
 72
14
 73
10
 74
0
 42
0.0000001
 43
0.0000001
 44
0.0000000001
 40
0.0
 40
0.0
 40
0.0
 40
0.0
 40
0.2869999729
 40
0.4238848164
 40
0.5536366151
 40
0.6752828618
 40
0.7889898002
 40
0.8963451556
 40
1.0
 40
1.0
 40
1.0
 40
1.0
 10
46.2939553504
 20
59.0761377819
 30
0.0
 10
45.9917366264
 20
59.0695002426
 30
0.0
 10
45.5427705066
 20
59.0001581773
 30
0.0
 10
44.9985504512
 20
58.7859382668
 30
0.0
 10
44.6451303522
 20
58.5760109863
 30
0.0
 10
44.3538131538
 20
58.3213238841
 30
0.0
 10
44.135351794
 20
58.0301160458
 30
0.0
 10
43.999550183
 20
57.7124059074
 30
0.0
 10
43.9684632969
 20
57.4890771808
 30
0.0
 10
43.9684632969
 20
57.3798995077
 30
0.0
  0
SPLINE
  5
280
100
AcDbEntity
  8
0
100
AcDbSpline
 62
7
  6
BYLAYER
 70
0
 71
3
 72
19
 73
15
 74
0
 42
0.0000001
 43
0.0000001
 44
0.0000000001
 40
0.0
 40
0.0
 40
0.0
 40
0.0
 40
0.0517128511
 40
0.1053430644
 40
0.1622487636
 40
0.223216063
 40
0.3564715866
 40
0.4999915195
 40
0.6435117143
 40
0.7767725198
 40
0.8377441258
 40
0.8946534192
 40
0.9482865794
 40
1.0
 40
1.0
 40
1.0
 40
1.0
 10
51.0584632969
 20
44.0721498858
 30
0.0
 10
51.0584632969
 20
43.9677204335
 30
0.0
 10
51.0280749761
 20
43.7539218929
 30
0.0
 10
50.8955256585
 20
43.4505036649
 30
0.0
 10
50.682639422
 20
43.1734557236
 30
0.0
 10
50.2938217794
 20
42.8431182603
 30
0.0
 10
49.6597252262
 20
42.5566933705
 30
0.0
 10
48.8085158294
 20
42.4420134451
 30
0.0
 10
47.9572914201
 20
42.5566669678
 30
0.0
 10
47.3231690185
 20
42.8430819769
 30
0.0
 10
46.9343172202
 20
43.1734211718
 30
0.0
 10
46.7214131611
 20
43.4504838111
 30
0.0
 10
46.5888538303
 20
43.7539135947
 30
0.0
 10
46.5584632969
 20
43.9677192834
 30
0.0
 10
46.5584632969
 20
44.0721498858
 30
0.0
  0
SPLINE
  5
281
100
AcDbEntity
  8
0
100
AcDbSpline
 62
7
  6
BYLAYER
 70
0
 71
3
 72
19
 73
15
 74
0
 42
0.0000001
 43
0.0000001
 44
0.0000000001
 40
0.0
 40
0.0
 40
0.0
 40
0.0
 40
0.0517128511
 40
0.1053430644
 40
0.1622487636
 40
0.223216063
 40
0.3564715866
 40
0.4999915195
 40
0.6435117143
 40
0.7767725198
 40
0.8377441258
 40
0.8946534192
 40
0.9482865794
 40
1.0
 40
1.0
 40
1.0
 40
1.0
 10
51.0584632969
 20
22.8589464502
 30
0.0
 10
51.0584632969
 20
22.7545169979
 30
0.0
 10
51.0280749761
 20
22.5407184573
 30
0.0
 10
50.8955256585
 20
22.2373002293
 30
0.0
 10
50.682639422
 20
21.960252288
 30
0.0
 10
50.2938217794
 20
21.6299148247
 30
0.0
 10
49.6597252262
 20
21.3434899349
 30
0.0
 10
48.8085158294
 20
21.2288100095
 30
0.0
 10
47.9572914201
 20
21.3434635322
 30
0.0
 10
47.3231690185
 20
21.6298785413
 30
0.0
 10
46.9343172202
 20
21.9602177362
 30
0.0
 10
46.7214131611
 20
22.2372803755
 30
0.0
 10
46.5888538303
 20
22.5407101591
 30
0.0
 10
46.5584632969
 20
22.7545158478
 30
0.0
 10
46.5584632969
 20
22.8589464502
 30
0.0
  0
SPLINE
  5
282
100
AcDbEntity
  8
0
100
AcDbSpline
 62
7
  6
BYLAYER
 70
0
 71
3
 72
22
 73
18
 74
0
 42
0.0000001
 43
0.0000001
 44
0.0000000001
 40
0.0
 40
0.0
 40
0.0
 40
0.0
 40
0.0516522157
 40
0.1052195454
 40
0.1620585203
 40
0.2229543331
 40
0.3560536091
 40
0.427222837
 40
0.4997660726
 40
0.5723093266
 40
0.6434788299
 40
0.7120391985
 40
0.7770342631
 40
0.8379343775
 40
0.8947769423
 40
0.9483472155
 40
1.0
 40
1.0
 40
1.0
 40
1.0
 10
51.5584632969
 20
55.7394117753
 30
0.0
 10
51.5584632969
 20
55.6117757781
 30
0.0
 10
51.5213205478
 20
55.3504658861
 30
0.0
 10
51.3593227774
 20
54.9796240584
 30
0.0
 10
51.0991006219
 20
54.6409991911
 30
0.0
 10
50.6240368317
 20
54.2373140786
 30
0.0
 10
50.013777632
 20
53.9617292386
 30
0.0
 10
49.34354405
 20
53.8194721256
 30
0.0
 10
48.8084747395
 20
53.782484242
 30
0.0
 10
48.2737175577
 20
53.819398245
 30
0.0
 10
47.7588314792
 20
53.9287342651
 30
0.0
 10
47.283078611
 20
54.1065714421
 30
0.0
 10
46.8641166053
 20
54.346708343
 30
0.0
 10
46.5178269089
 20
54.6409979927
 30
0.0
 10
46.2576275258
 20
54.9795897418
 30
0.0
 10
46.095606403
 20
55.350458435
 30
0.0
 10
46.0584632969
 20
55.6117743725
 30
0.0
 10
46.0584632969
 20
55.7394117753
 30
0.0
  0
SPLINE
  5
283
100
AcDbEntity
  8
0
100
AcDbSpline
 62
7
  6
BYLAYER
 70
0
 71
3
 72
13
 73
9
 74
0
 42
0.0000001
 43
0.0000001
 44
0.0000000001
 40
0.0
 40
0.0
 40
0.0
 40
0.0
 40
0.3072661309
 40
0.583116044
 40
0.7032385019
 40
0.8107723552
 40
0.9083000171
 40
1.0
 40
1.0
 40
1.0
 40
1.0
 10
54.3499707996
 20
82.0627136582
 30
0.0
 10
54.4662781963
 20
82.0627136582
 30
0.0
 10
54.6875654458
 20
82.0383597908
 30
0.0
 10
54.9418738947
 20
81.9468160848
 30
0.0
 10
55.0992801734
 20
81.8373723193
 30
0.0
 10
55.1839058198
 20
81.746387264
 30
0.0
 10
55.2372889825
 20
81.6458957297
 30
0.0
 10
55.2499707996
 20
81.5738266116
 30
0.0
 10
55.2499707996
 20
81.5391160294
 30
0.0
  0
SPLINE
  5
284
100
AcDbEntity
  8
0
100
AcDbSpline
 62
7
  6
BYLAYER
 70
0
 71
3
 72
15
 73
11
 74
0
 42
0.0000001
 43
0.0000001
 44
0.0000000001
 40
0.0
 40
0.0
 40
0.0
 40
0.0
 40
0.0859478615
 40
0.1842140824
 40
0.2955351786
 40
0.4193875691
 40
0.5541883375
 40
0.6977102834
 40
0.8473651147
 40
1.0
 40
1.0
 40
1.0
 40
1.0
 10
47.9767260952
 20
83.7272765218
 30
0.0
 10
48.0302243567
 20
83.6125772026
 30
0.0
 10
48.1801348375
 20
83.3827543565
 30
0.0
 10
48.4905909354
 20
83.0745761753
 30
0.0
 10
48.8934130507
 20
82.7904393713
 30
0.0
 10
49.3790513815
 20
82.5402987687
 30
0.0
 10
49.9354618849
 20
82.3337746389
 30
0.0
 10
50.5476993745
 20
82.1794905116
 30
0.0
 10
51.1982615268
 20
82.0842053313
 30
0.0
 10
51.6437013194
 20
82.0627136582
 30
0.0
 10
51.8684632969
 20
82.0627136582
 30
0.0
  0
SPLINE
  5
285
100
AcDbEntity
  8
0
100
AcDbSpline
 62
7
  6
BYLAYER
 70
0
 71
3
 72
22
 73
18
 74
0
 42
0.0000001
 43
0.0000001
 44
0.0000000001
 40
0.0
 40
0.0
 40
0.0
 40
0.0
 40
0.0516522157
 40
0.1052195454
 40
0.1620585203
 40
0.2229543331
 40
0.3560536091
 40
0.427222837
 40
0.4997660726
 40
0.5723093266
 40
0.6434788299
 40
0.7120391985
 40
0.7770342631
 40
0.8379343775
 40
0.8947769423
 40
0.9483472155
 40
1.0
 40
1.0
 40
1.0
 40
1.0
 10
51.5584632969
 20
13.3130049042
 30
0.0
 10
51.5584632969
 20
13.1853689069
 30
0.0
 10
51.5213205478
 20
12.9240590149
 30
0.0
 10
51.3593227774
 20
12.5532171872
 30
0.0
 10
51.0991006219
 20
12.2145923199
 30
0.0
 10
50.6240368317
 20
11.8109072074
 30
0.0
 10
50.013777632
 20
11.5353223674
 30
0.0
 10
49.34354405
 20
11.3930652545
 30
0.0
 10
48.8084747395
 20
11.3560773708
 30
0.0
 10
48.2737175577
 20
11.3929913738
 30
0.0
 10
47.7588314792
 20
11.5023273939
 30
0.0
 10
47.283078611
 20
11.6801645709
 30
0.0
 10
46.8641166053
 20
11.9203014719
 30
0.0
 10
46.5178269089
 20
12.2145911215
 30
0.0
 10
46.2576275258
 20
12.5531828706
 30
0.0
 10
46.095606403
 20
12.9240515638
 30
0.0
 10
46.0584632969
 20
13.1853675013
 30
0.0
 10
46.0584632969
 20
13.3130049042
 30
0.0
  0
ENDSEC
  0
SECTION
  2
OBJECTS
  0
DICTIONARY
  5
C
100
AcDbDictionary
280
0
281
1
  3
ACAD_GROUP
350
D
  3
ACAD_MLINESTYLE
350
17
  3
ACAD_LAYOUT
350
1A
  3
ACAD_PLOTSETTINGS
350
19
  3
ACAD_PLOTSTYLENAME
350
E
  0
DICTIONARY
  5
D
102
{ACAD_REACTORS
330
C
102
}
100
AcDbDictionary
280
0
281
1
  0
ACDBDICTIONARYWDFLT
  5
E
102
{ACAD_REACTORS
330
C
102
}
100
AcDbDictionary
281
1
  3
Normal
350
F
100
AcDbDictionaryWithDefault
340
F
  0
DICTIONARY
  5
17
102
{ACAD_REACTORS
330
C
102
}
100
AcDbDictionary
280
0
281
1
  3
Standard
350
18
  0
DICTIONARY
  5
19
102
{ACAD_REACTORS
330
C
102
}
100
AcDbDictionary
281
1
  0
DICTIONARY
  5
1A
102
{ACAD_REACTORS
330
C
102
}
100
AcDbDictionary
281
1
  3
Model
350
286
  3
Layout1
350
287
  0
ACDBPLACEHOLDER
  5
F
102
{ACAD_REACTORS
330
E
102
}
  0
MLINESTYLE
  5
18
102
{ACAD_REACTORS
330
17
102
}
100
AcDbMlineStyle
  2
STANDARD
 70
0
  3

 62
256
 51
90.0
 52
90.0
 71
2
 49
0.5
 62
256
  6
BYLAYER
 49
-0.5
 62
256
  6
BYLAYER
  0
LAYOUT
  5
286
102
{ACAD_REACTORS
330
1A
102
}
100
AcDbPlotSettings
  1

  2
none_device
  4

  6

 40
0.0
 41
0.0
 42
0.0
 43
0.0
 44
210.0
 45
297.0
 46
0.0
 47
0.0
 48
0.0
 49
0.0
140
0.0
141
0.0
142
1.0
143
1.0
 70
1024
 72
1
 73
0
 74
0
  7

 75
0
147
1.0
148
0.0
149
0.0
100
AcDbLayout
  1
Model
 70
0
 71
0
 10
0.0
 20
0.0
 11
210.0
 21
297.0
 12
0.0
 22
0.0
 32
0.0
 14
0.0
 24
0.0
 34
0.0
 15
0.0
 25
0.0
 35
0.0
146
0.0
 13
0.0
 23
0.0
 33
0.0
 16
1.0
 26
0.0
 36
0.0
 17
0.0
 27
1.0
 37
0.0
 76
0
330
210
345
0
346
0
  0
LAYOUT
  5
287
102
{ACAD_REACTORS
330
1A
102
}
100
AcDbPlotSettings
  1

  2
none_device
  4

  6

 40
0.0
 41
0.0
 42
0.0
 43
0.0
 44
210.0
 45
297.0
 46
0.0
 47
0.0
 48
0.0
 49
0.0
140
0.0
141
0.0
142
1.0
143
1.0
 70
0
 72
1
 73
0
 74
0
  7

 75
0
147
1.0
148
0.0
149
0.0
100
AcDbLayout
  1
Layout1
 70
0
 71
1
 10
0.0
 20
0.0
 11
210.0
 21
297.0
 12
0.0
 22
0.0
 32
0.0
 14
0.0
 24
0.0
 34
0.0
 15
0.0
 25
0.0
 35
0.0
146
0.0
 13
0.0
 23
0.0
 33
0.0
 16
1.0
 26
0.0
 36
0.0
 17
0.0
 27
1.0
 37
0.0
 76
0
330
211
345
0
346
0
  0
ENDSEC
  0
EOF
