999
DXF file: C:\Users\sesa63760\Dev\_Creo\CAD\MCADID0004740_3D-CAD\drw0001_3.dxf
999
Pro/ENGINEER 2019471 by Parametric Technology Corporation
  0
SECTION
  2
HEADER
  9
$ACADVER
  1
AC1024
  9
$DWGCODEPAGE
  3
ANSI_1252
  9
$EXTMAX
 10
20.2250071834
 20
28.6039387309
 30
0.0
  9
$EXTMIN
 10
0.0
 20
0.0
 30
0.0
  9
$LIMMIN
 10
0.0
 20
0.0
  9
$LIMMAX
 10
20.2250071834
 20
28.6039387309
  9
$VIEWCTR
 10
10.1125035917
 20
14.3019693654
  9
$VIEWSIZE
 40
28.6039387309
  9
$CLAYER
  8
0
  9
$LTSCALE
 40
1.8645530432
  9
$CELTYPE
  6
BYLAYER
  9
$DIMSCALE
 40
1.0
  9
$DIMASZ
 40
0.240773895
  9
$DIMEXO
 40
1.0
  9
$DIMDLI
 40
1.288236648
  9
$DIMEXE
 40
1.0
  9
$DIMCEN
 40
0.3051086798
  9
$DIMLFAC
 40
1.0
  9
$DIMBLK
  1
_FILLED
  9
$DIMALT
 70
0
  9
$DIMALTF
 40
0.0393700787
  9
$DIMTXT
 40
0.3370834531
  9
$DIMTOL
 70
1
  9
$DIMLIM
 70
0
  9
$DIMTFAC
 40
1.0
  9
$DIMTP
 40
0.01
  9
$DIMTM
 40
0.01
  9
$DIMGAP
 40
0.625
  9
$DIMDSEP
 70
46
  9
$AUNITS
 70
0
  9
$PDMODE
 70
3
  9
$PDSIZE
 40
0.3125
  9
$HANDSEED
  5
274
  9
$TILEMODE
 70
1
  9
$MEASUREMENT
 70
1
  9
$INSUNITS
 70
4
  0
ENDSEC
  0
SECTION
  2
CLASSES
  0
CLASS
  1
ACDBDICTIONARYWDFLT
  2
AcDbDictionaryWithDefault
  3
AutoCAD 2000
 90
0
 91
1
280
0
281
0
  0
CLASS
  1
ACDBPLACEHOLDER
  2
AcDbPlaceHolder
  3
AutoCAD 2000
 90
0
 91
1
280
0
281
0
  0
CLASS
  1
LAYOUT
  2
AcDbLayout
  3
AutoCAD 2000
 90
0
 91
0
280
0
281
0
  0
ENDSEC
  0
SECTION
  2
TABLES
  0
TABLE
  2
VPORT
  5
8
100
AcDbSymbolTable
 70
2
  0
VPORT
  5
1F4
100
AcDbSymbolTableRecord
100
AcDbViewportTableRecord
  2
*ACTIVE
 70
0
 10
0.0
 20
0.0
 11
1.0
 21
1.0
 12
10.1125035917
 22
14.3019693654
 13
0.0
 23
0.0
 14
1.0
 24
1.0
 15
0.0
 25
0.0
 16
0.0
 26
0.0
 36
1.0
 17
0.0
 27
0.0
 37
0.0
 40
28.6039387309
 41
0.7070707071
 42
50.0
 43
0.0
 44
0.0
 50
0.0
 51
0.0
 71
0
 72
100
 73
1
 74
1
 75
0
 76
0
 77
0
 78
0
  0
ENDTAB
  0
TABLE
  2
LTYPE
  5
5
100
AcDbSymbolTable
 70
6
  0
LTYPE
  5
14
100
AcDbSymbolTableRecord
100
AcDbLinetypeTableRecord
  2
BYBLOCK
 70
0
  3

 72
65
 73
0
 40
0.0
  0
LTYPE
  5
15
100
AcDbSymbolTableRecord
100
AcDbLinetypeTableRecord
  2
BYLAYER
 70
0
  3

 72
65
 73
0
 40
0.0
  0
LTYPE
  5
16
100
AcDbSymbolTableRecord
100
AcDbLinetypeTableRecord
  2
CONTINUOUS
 70
64
  3
Solid line
 72
65
 73
0
 40
0.0
  0
LTYPE
  5
1F5
100
AcDbSymbolTableRecord
100
AcDbLinetypeTableRecord
  2
CENTER
 70
64
  3
____ _ ____ _ ____ _ ____ _ ____ _ ____ _ ____
 72
65
 73
4
 40
0.6
 49
0.375
 74
0
 49
-0.075
 74
0
 49
0.075
 74
0
 49
-0.075
 74
0
  0
LTYPE
  5
1F6
100
AcDbSymbolTableRecord
100
AcDbLinetypeTableRecord
  2
HIDDEN
 70
64
  3
- - - - - - - - - - - - - - - - - - - -
 72
65
 73
2
 40
0.2
 49
0.1
 74
0
 49
-0.1
 74
0
  0
LTYPE
  5
1F7
100
AcDbSymbolTableRecord
100
AcDbLinetypeTableRecord
  2
PHANTOM
 70
64
  3
_____ _ _ _____ _ _ _____ _ _ _____
 72
65
 73
6
 40
0.8
 49
0.45
 74
0
 49
-0.05
 74
0
 49
0.1
 74
0
 49
-0.05
 74
0
 49
0.1
 74
0
 49
-0.05
 74
0
  0
LTYPE
  5
1F8
100
AcDbSymbolTableRecord
100
AcDbLinetypeTableRecord
  2
DOT
 70
64
  3
. . . . . . . . . . . . . . . . . . . .
 72
65
 73
2
 40
0.2
 49
0.1
 74
0
 49
-0.1
 74
0
  0
LTYPE
  5
1F9
100
AcDbSymbolTableRecord
100
AcDbLinetypeTableRecord
  2
DASHED
 70
64
  3
- - - - - - - - - - - - - - - - - - - -
 72
65
 73
2
 40
0.2
 49
0.1
 74
0
 49
-0.1
 74
0
  0
ENDTAB
  0
TABLE
  2
LAYER
  5
2
100
AcDbSymbolTable
 70
36
  0
LAYER
  5
10
100
AcDbSymbolTableRecord
100
AcDbLayerTableRecord
  2
0
 70
0
 62
7
  6
CONTINUOUS
370
-3
390
F
  0
LAYER
  5
1FA
100
AcDbSymbolTableRecord
100
AcDbLayerTableRecord
  2
DEFAULT_1
 70
0
 62
7
  6
CENTER
370
-3
390
F
  0
LAYER
  5
1FB
100
AcDbSymbolTableRecord
100
AcDbLayerTableRecord
  2
DEFAULT_2
 70
0
 62
7
  6
HIDDEN
370
-3
390
F
  0
LAYER
  5
1FC
100
AcDbSymbolTableRecord
100
AcDbLayerTableRecord
  2
DEFAULT_3
 70
0
 62
7
  6
PHANTOM
370
-3
390
F
  0
LAYER
  5
1FD
100
AcDbSymbolTableRecord
100
AcDbLayerTableRecord
  2
00_COMPONENTS
 70
0
 62
7
  6
CONTINUOUS
370
-3
390
F
  0
LAYER
  5
1FE
100
AcDbSymbolTableRecord
100
AcDbLayerTableRecord
  2
01_1_DEFAULT_DATUMS
 70
0
 62
7
  6
CONTINUOUS
370
-3
390
F
  0
LAYER
  5
1FF
100
AcDbSymbolTableRecord
100
AcDbLayerTableRecord
  2
01_PLANES
 70
0
 62
7
  6
CONTINUOUS
370
-3
390
F
  0
LAYER
  5
200
100
AcDbSymbolTableRecord
100
AcDbLayerTableRecord
  2
02_COORD_SYS
 70
0
 62
7
  6
CONTINUOUS
370
-3
390
F
  0
LAYER
  5
201
100
AcDbSymbolTableRecord
100
AcDbLayerTableRecord
  2
03_AXES
 70
0
 62
7
  6
CONTINUOUS
370
-3
390
F
  0
LAYER
  5
202
100
AcDbSymbolTableRecord
100
AcDbLayerTableRecord
  2
04_POINTS
 70
0
 62
7
  6
CONTINUOUS
370
-3
390
F
  0
LAYER
  5
203
100
AcDbSymbolTableRecord
100
AcDbLayerTableRecord
  2
05_CURVES
 70
0
 62
7
  6
CONTINUOUS
370
-3
390
F
  0
LAYER
  5
204
100
AcDbSymbolTableRecord
100
AcDbLayerTableRecord
  2
06_SURFS
 70
0
 62
7
  6
CONTINUOUS
370
-3
390
F
  0
LAYER
  5
205
100
AcDbSymbolTableRecord
100
AcDbLayerTableRecord
  2
07_COSMETICS
 70
0
 62
7
  6
CONTINUOUS
370
-3
390
F
  0
LAYER
  5
206
100
AcDbSymbolTableRecord
100
AcDbLayerTableRecord
  2
10_NOTES
 70
0
 62
7
  6
CONTINUOUS
370
-3
390
F
  0
LAYER
  5
207
100
AcDbSymbolTableRecord
100
AcDbLayerTableRecord
  2
11_NOTES_PUB
 70
0
 62
7
  6
CONTINUOUS
370
-3
390
F
  0
LAYER
  5
208
100
AcDbSymbolTableRecord
100
AcDbLayerTableRecord
  2
13_REF_GTOL
 70
0
 62
7
  6
CONTINUOUS
370
-3
390
F
  0
LAYER
  5
209
100
AcDbSymbolTableRecord
100
AcDbLayerTableRecord
  2
16_MISC
 70
0
 62
7
  6
CONTINUOUS
370
-3
390
F
  0
LAYER
  5
20A
100
AcDbSymbolTableRecord
100
AcDbLayerTableRecord
  2
17_NO_PRINT
 70
0
 62
7
  6
CONTINUOUS
370
-3
390
F
  0
LAYER
  5
20B
100
AcDbSymbolTableRecord
100
AcDbLayerTableRecord
  2
18_DATUM_CAMS_JOINTS
 70
0
 62
7
  6
CONTINUOUS
370
-3
390
F
  0
LAYER
  5
20C
100
AcDbSymbolTableRecord
100
AcDbLayerTableRecord
  2
19_DATUM_FUNCTIONAL
 70
0
 62
7
  6
CONTINUOUS
370
-3
390
F
  0
LAYER
  5
20D
100
AcDbSymbolTableRecord
100
AcDbLayerTableRecord
  2
20_DATUM_KINEMATIC_SCHEME
 70
0
 62
7
  6
CONTINUOUS
370
-3
390
F
  0
ENDTAB
  0
TABLE
  2
STYLE
  5
3
100
AcDbSymbolTable
 70
1
  0
STYLE
  5
11
100
AcDbSymbolTableRecord
100
AcDbTextStyleTableRecord
  2
STANDARD
 70
0
 40
0.0
 41
1.0
 50
0.0
 71
0
 42
0.2
  3
ARIAL.TTF
  4

  0
STYLE
  5
20E
100
AcDbSymbolTableRecord
100
AcDbTextStyleTableRecord
  2
TEXTSTYLE_1
 70
0
 40
0.0
 41
0.8
 50
0.0
 71
0
 42
0.2
  3
gdt
  4

  0
ENDTAB
  0
TABLE
  2
VIEW
  5
6
100
AcDbSymbolTable
 70
0
  0
ENDTAB
  0
TABLE
  2
UCS
  5
7
100
AcDbSymbolTable
 70
0
  0
ENDTAB
  0
TABLE
  2
APPID
  5
9
100
AcDbSymbolTable
 70
1
  0
APPID
  5
20F
100
AcDbSymbolTableRecord
100
AcDbRegAppTableRecord
  2
ACAD
 70
0
  0
ENDTAB
  0
TABLE
  2
BLOCK_RECORD
  5
1
100
AcDbSymbolTable
 70
0
  0
BLOCK_RECORD
  5
210
100
AcDbSymbolTableRecord
100
AcDbBlockTableRecord
  2
*Model_Space
  0
BLOCK_RECORD
  5
211
100
AcDbSymbolTableRecord
100
AcDbBlockTableRecord
  2
*Paper_Space
  0
BLOCK_RECORD
  5
212
100
AcDbSymbolTableRecord
100
AcDbBlockTableRecord
  2
_FILLED
  0
ENDTAB
  0
TABLE
  2
DIMSTYLE
  5
A
100
AcDbSymbolTable
 70
1
100
AcDbDimStyleTable
 71
0
  0
DIMSTYLE
105
213
100
AcDbSymbolTableRecord
100
AcDbDimStyleTableRecord
  2
STANDARD
 70
0
  3

  4

 40
1.0
 41
0.240773895
 42
1.0
 43
0.38
 44
1.0
 45
0.0
 46
0.0
 47
0.01
 48
0.01
140
0.3370834531
141
0.09
142
0.0
143
25.4
144
1.0
145
0.0
146
1.0
147
0.625
 71
1
 72
0
 73
0
 74
0
 75
0
 76
0
 77
1
 78
8
 79
2
170
0
171
1
172
0
173
0
174
0
175
0
176
0
177
0
178
0
270
2
179
2
271
2
272
2
273
2
274
2
275
0
280
0
281
0
282
0
283
1
284
8
285
0
286
0
287
3
288
0
340
11
278
46
341
212
342
212
343
212
344
212
  0
ENDTAB
  0
ENDSEC
  0
SECTION
  2
BLOCKS
  0
BLOCK
  5
20
100
AcDbEntity
  8
0
100
AcDbBlockBegin
  2
*Model_Space
 70
0
 10
0.0
 20
0.0
 30
0.0
  3
*Model_Space
  1

  0
ENDBLK
  5
21
100
AcDbEntity
  8
0
100
AcDbBlockEnd
  0
BLOCK
  5
1C
100
AcDbEntity
  8
0
100
AcDbBlockBegin
  2
*Paper_Space
 70
0
 10
0.0
 20
0.0
 30
0.0
  3
*Paper_Space
  1

  0
ENDBLK
  5
1D
100
AcDbEntity
  8
0
100
AcDbBlockEnd
  0
BLOCK
  5
214
100
AcDbEntity
  8
0
100
AcDbBlockBegin
  2
_FILLED
 70
64
 10
0.0
 20
0.0
  3
_FILLED
  1

  0
SOLID
  5
215
100
AcDbEntity
  8
0
  6
BYBLOCK
 62
0
100
AcDbTrace
 10
0.0
 20
0.0
 11
-1.0
 21
0.25
 12
-1.0
 22
-0.25
 13
-1.0
 23
-0.25
  0
ENDBLK
  5
216
100
AcDbEntity
  8
0
  6
BYBLOCK
 62
0
100
AcDbBlockEnd
  0
ENDSEC
  0
SECTION
  2
ENTITIES
  0
LINE
  5
217
100
AcDbEntity
  8
0
100
AcDbLine
 62
7
  6
BYLAYER
 10
7.3199423508
 20
8.3060944833
 11
7.3441896727
 21
7.7507395063
  0
LINE
  5
218
100
AcDbEntity
  8
0
100
AcDbLine
 62
7
  6
BYLAYER
 10
7.3441896727
 20
20.9932429882
 11
7.3199423508
 21
20.4378880113
  0
LINE
  5
219
100
AcDbEntity
  8
0
100
AcDbLine
 62
7
  6
BYLAYER
 10
9.1617674861
 20
21.5566136577
 11
8.9946099268
 21
21.0264576114
  0
LINE
  5
21A
100
AcDbEntity
  8
0
100
AcDbLine
 62
7
  6
BYLAYER
 10
11.0632238961
 20
21.630364183
 11
10.7645476108
 21
21.1615363258
  0
LINE
  5
21B
100
AcDbEntity
  8
0
100
AcDbLine
 62
7
  6
BYLAYER
 10
12.9189777906
 20
21.2094685877
 11
12.5091370746
 21
20.8339187633
  0
LINE
  5
21C
100
AcDbEntity
  8
0
100
AcDbLine
 62
7
  6
BYLAYER
 10
12.5091370746
 20
7.9100637312
 11
12.9189777906
 21
7.5345139068
  0
LINE
  5
21D
100
AcDbEntity
  8
0
100
AcDbLine
 62
7
  6
BYLAYER
 10
10.7645476108
 20
7.5824461688
 11
11.0632238961
 21
7.1136183116
  0
LINE
  5
21E
100
AcDbEntity
  8
0
100
AcDbLine
 62
7
  6
BYLAYER
 10
8.9946099268
 20
7.7175248832
 11
9.1617674861
 21
7.1873688369
  0
LINE
  5
21F
100
AcDbEntity
  8
0
100
AcDbLine
 62
7
  6
BYLAYER
 10
11.3890874878
 20
16.6101604667
 11
11.1857532377
 21
16.1534621809
  0
LINE
  5
220
100
AcDbEntity
  8
0
100
AcDbLine
 62
7
  6
BYLAYER
 10
13.5786057055
 20
15.4071908532
 11
13.285958716
 21
15.312095641
  0
LINE
  5
221
100
AcDbEntity
  8
0
100
AcDbLine
 62
7
  6
BYLAYER
 10
8.4234439258
 20
16.1450234023
 11
8.6018633304
 21
15.9843842205
  0
LINE
  5
222
100
AcDbEntity
  8
0
100
AcDbLine
 62
7
  6
BYLAYER
 10
13.4652398874
 20
20.4378880113
 11
13.4409925654
 21
20.9932429882
  0
LINE
  5
223
100
AcDbEntity
  8
0
100
AcDbLine
 62
7
  6
BYLAYER
 10
13.4409925654
 20
7.7507395063
 11
13.4652398874
 21
8.3060944833
  0
LINE
  5
224
100
AcDbEntity
  8
0
100
AcDbLine
 62
7
  6
BYLAYER
 10
11.623414752
 20
7.1873688369
 11
11.7905723113
 21
7.7175248832
  0
LINE
  5
225
100
AcDbEntity
  8
0
100
AcDbLine
 62
7
  6
BYLAYER
 10
9.7219583421
 20
7.1136183116
 11
10.0206346273
 21
7.5824461688
  0
LINE
  5
226
100
AcDbEntity
  8
0
100
AcDbLine
 62
7
  6
BYLAYER
 10
7.8662044476
 20
7.5345139068
 11
8.2760451635
 21
7.9100637312
  0
LINE
  5
227
100
AcDbEntity
  8
0
100
AcDbLine
 62
7
  6
BYLAYER
 10
8.2760451635
 20
20.8339187633
 11
7.8662044476
 21
21.2094685877
  0
LINE
  5
228
100
AcDbEntity
  8
0
100
AcDbLine
 62
7
  6
BYLAYER
 10
10.0206346273
 20
21.1615363258
 11
9.7219583421
 21
21.630364183
  0
LINE
  5
229
100
AcDbEntity
  8
0
100
AcDbLine
 62
7
  6
BYLAYER
 10
11.7905723113
 20
21.0264576114
 11
11.623414752
 21
21.5566136577
  0
ARC
  5
22A
100
AcDbEntity
  8
0
100
AcDbCircle
 62
7
  6
BYLAYER
 10
7.1201327065
 20
8.2973706058
 40
0.2
100
AcDbArc
 50
2.4999999989
 51
61.5931284691
  0
ARC
  5
22B
100
AcDbEntity
  8
0
100
AcDbCircle
 62
7
  6
BYLAYER
 10
7.543999317
 20
7.7594633838
 40
0.2
100
AcDbArc
 50
182.5000000012
 51
246.6942451528
  0
ARC
  5
22C
100
AcDbEntity
  8
0
100
AcDbCircle
 62
7
  6
BYLAYER
 10
7.7310864061
 20
7.6819693742
 40
0.2
100
AcDbArc
 50
248.3057548481
 51
312.4999999998
  0
ARC
  5
22D
100
AcDbEntity
  8
0
100
AcDbCircle
 62
7
  6
BYLAYER
 10
8.4111632051
 20
7.7626082638
 40
0.2
100
AcDbArc
 50
73.3119552849
 51
132.5000000006
  0
ARC
  5
22E
100
AcDbEntity
  8
0
100
AcDbCircle
 62
7
  6
BYLAYER
 10
8.8038665367
 20
7.6573837233
 40
0.2
100
AcDbArc
 50
17.4999999994
 51
76.6875983659
  0
ARC
  5
22F
100
AcDbEntity
  8
0
100
AcDbCircle
 62
7
  6
BYLAYER
 10
9.3525108763
 20
7.2475099968
 40
0.2
100
AcDbArc
 50
197.4999999999
 51
261.6942451525
  0
ARC
  5
230
100
AcDbEntity
  8
0
100
AcDbCircle
 62
7
  6
BYLAYER
 10
9.5532800529
 20
7.2210782332
 40
0.2
100
AcDbArc
 50
263.3057548472
 51
327.5000000006
  0
ARC
  5
231
100
AcDbEntity
  8
0
100
AcDbCircle
 62
7
  6
BYLAYER
 10
10.1893129165
 20
7.4749862471
 40
0.2
100
AcDbArc
 50
88.3119555751
 51
147.5000000001
  0
ARC
  5
232
100
AcDbEntity
  8
0
100
AcDbCircle
 62
7
  6
BYLAYER
 10
10.1893129165
 20
21.2689962474
 40
0.2
100
AcDbArc
 50
212.4999999996
 51
271.6876012236
  0
ARC
  5
233
100
AcDbEntity
  8
0
100
AcDbCircle
 62
7
  6
BYLAYER
 10
9.5532800529
 20
21.5229042613
 40
0.2
100
AcDbArc
 50
32.4999999999
 51
96.6942451528
  0
ARC
  5
234
100
AcDbEntity
  8
0
100
AcDbCircle
 62
7
  6
BYLAYER
 10
9.3525108763
 20
21.4964724978
 40
0.2
100
AcDbArc
 50
98.3057548473
 51
162.5000000008
  0
ARC
  5
235
100
AcDbEntity
  8
0
100
AcDbCircle
 62
7
  6
BYLAYER
 10
8.8038665367
 20
21.0865987713
 40
0.2
100
AcDbArc
 50
283.3119487035
 51
342.5000000001
  0
ARC
  5
236
100
AcDbEntity
  8
0
100
AcDbCircle
 62
7
  6
BYLAYER
 10
8.4111632051
 20
20.9813742307
 40
0.2
100
AcDbArc
 50
227.5000000002
 51
286.6876022891
  0
ARC
  5
237
100
AcDbEntity
  8
0
100
AcDbCircle
 62
7
  6
BYLAYER
 10
7.7310864061
 20
21.0620131204
 40
0.2
100
AcDbArc
 50
47.4999999993
 51
111.6942451518
  0
ARC
  5
238
100
AcDbEntity
  8
0
100
AcDbCircle
 62
7
  6
BYLAYER
 10
7.543999317
 20
20.9845191108
 40
0.2
100
AcDbArc
 50
113.3057548474
 51
177.4999999991
  0
ARC
  5
239
100
AcDbEntity
  8
0
100
AcDbCircle
 62
7
  6
BYLAYER
 10
7.1201327065
 20
20.4466118887
 40
0.2
100
AcDbArc
 50
298.3058775284
 51
357.5000000006
  0
ARC
  5
23A
100
AcDbEntity
  8
0
100
AcDbCircle
 62
7
  6
BYLAYER
 10
10.5958693217
 20
7.4749862471
 40
0.2
100
AcDbArc
 50
32.4999999996
 51
91.687598571
  0
ARC
  5
23B
100
AcDbEntity
  8
0
100
AcDbCircle
 62
7
  6
BYLAYER
 10
11.2319021852
 20
7.2210782332
 40
0.2
100
AcDbArc
 50
212.4999999999
 51
276.6942451528
  0
ARC
  5
23C
100
AcDbEntity
  8
0
100
AcDbCircle
 62
7
  6
BYLAYER
 10
11.4326713619
 20
7.2475099968
 40
0.2
100
AcDbArc
 50
278.3057548473
 51
342.5000000008
  0
ARC
  5
23D
100
AcDbEntity
  8
0
100
AcDbCircle
 62
7
  6
BYLAYER
 10
11.9813157015
 20
7.6573837233
 40
0.2
100
AcDbArc
 50
103.3119559275
 51
162.5000000001
  0
ARC
  5
23E
100
AcDbEntity
  8
0
100
AcDbCircle
 62
7
  6
BYLAYER
 10
12.3740190331
 20
7.7626082638
 40
0.2
100
AcDbArc
 50
47.5000000002
 51
106.6875988832
  0
ARC
  5
23F
100
AcDbEntity
  8
0
100
AcDbCircle
 62
7
  6
BYLAYER
 10
13.0540958321
 20
7.6819693742
 40
0.2
100
AcDbArc
 50
227.4999999993
 51
291.6942451518
  0
ARC
  5
240
100
AcDbEntity
  8
0
100
AcDbCircle
 62
7
  6
BYLAYER
 10
13.2411829211
 20
7.7594633838
 40
0.2
100
AcDbArc
 50
293.3057548474
 51
357.4999999991
  0
ARC
  5
241
100
AcDbEntity
  8
0
100
AcDbCircle
 62
7
  6
BYLAYER
 10
13.6650495317
 20
8.2973706058
 40
0.2
100
AcDbArc
 50
118.3058671967
 51
177.5000000006
  0
CIRCLE
  5
242
100
AcDbEntity
  8
0
100
AcDbCircle
 62
7
  6
BYLAYER
 10
10.3925911191
 20
14.3719912473
 40
8.0
  0
ARC
  5
243
100
AcDbEntity
  8
0
100
AcDbCircle
 62
7
  6
BYLAYER
 10
10.3925911191
 20
14.3719912473
 40
7.4
100
AcDbArc
 50
81.694245152
 51
83.305754848
  0
ARC
  5
244
100
AcDbEntity
  8
0
100
AcDbCircle
 62
7
  6
BYLAYER
 10
10.3925911191
 20
14.3719912473
 40
7.4
100
AcDbArc
 50
96.694245152
 51
98.305754848
  0
ARC
  5
245
100
AcDbEntity
  8
0
100
AcDbCircle
 62
7
  6
BYLAYER
 10
10.3925911191
 20
14.3719912473
 40
7.4
100
AcDbArc
 50
111.694245152
 51
113.305754848
  0
ARC
  5
246
100
AcDbEntity
  8
0
100
AcDbCircle
 62
7
  6
BYLAYER
 10
10.3925911191
 20
14.3719912473
 40
7.4
100
AcDbArc
 50
246.694245152
 51
248.305754848
  0
ARC
  5
247
100
AcDbEntity
  8
0
100
AcDbCircle
 62
7
  6
BYLAYER
 10
10.3925911191
 20
14.3719912473
 40
7.4
100
AcDbArc
 50
261.694245152
 51
263.305754848
  0
ARC
  5
248
100
AcDbEntity
  8
0
100
AcDbCircle
 62
7
  6
BYLAYER
 10
10.3925911191
 20
14.3719912473
 40
7.4
100
AcDbArc
 50
276.694245152
 51
278.305754848
  0
ARC
  5
249
100
AcDbEntity
  8
0
100
AcDbCircle
 62
7
  6
BYLAYER
 10
10.3925911191
 20
14.3719912473
 40
7.4
100
AcDbArc
 50
291.694245152
 51
293.305754848
  0
ARC
  5
24A
100
AcDbEntity
  8
0
100
AcDbCircle
 62
7
  6
BYLAYER
 10
10.3925911191
 20
14.3719912473
 40
7.4
100
AcDbArc
 50
66.694245152
 51
68.305754848
  0
ARC
  5
24B
100
AcDbEntity
  8
0
100
AcDbCircle
 62
7
  6
BYLAYER
 10
10.3925911191
 20
14.3719912473
 40
6.7
100
AcDbArc
 50
73.3117825565
 51
76.6882311446
  0
ARC
  5
24C
100
AcDbEntity
  8
0
100
AcDbCircle
 62
7
  6
BYLAYER
 10
10.3925911191
 20
14.3719912473
 40
6.7
100
AcDbArc
 50
88.3117824673
 51
91.6882310863
  0
ARC
  5
24D
100
AcDbEntity
  8
0
100
AcDbCircle
 62
7
  6
BYLAYER
 10
10.3925911191
 20
14.3719912473
 40
6.7
100
AcDbArc
 50
103.3117823487
 51
106.6882310545
  0
ARC
  5
24E
100
AcDbEntity
  8
0
100
AcDbCircle
 62
7
  6
BYLAYER
 10
10.3925911191
 20
14.3719912473
 40
6.7
100
AcDbArc
 50
118.3119635934
 51
241.6910509212
  0
ARC
  5
24F
100
AcDbEntity
  8
0
100
AcDbCircle
 62
7
  6
BYLAYER
 10
10.3925911191
 20
14.3719912473
 40
6.7
100
AcDbArc
 50
253.3117821522
 51
256.6882311716
  0
ARC
  5
250
100
AcDbEntity
  8
0
100
AcDbCircle
 62
7
  6
BYLAYER
 10
10.3925911191
 20
14.3719912473
 40
6.7
100
AcDbArc
 50
268.3117821436
 51
271.6882311655
  0
ARC
  5
251
100
AcDbEntity
  8
0
100
AcDbCircle
 62
7
  6
BYLAYER
 10
10.3925911191
 20
14.3719912473
 40
6.7
100
AcDbArc
 50
283.311782133
 51
286.6882311562
  0
ARC
  5
252
100
AcDbEntity
  8
0
100
AcDbCircle
 62
7
  6
BYLAYER
 10
10.3925911191
 20
14.3719912473
 40
6.7
100
AcDbArc
 50
298.3119639018
 51
61.6910577969
  0
CIRCLE
  5
253
100
AcDbEntity
  8
0
100
AcDbCircle
 62
7
  6
BYLAYER
 10
10.3925911191
 20
14.3719912473
 40
6.35
  0
CIRCLE
  5
254
100
AcDbEntity
  8
0
100
AcDbCircle
 62
7
  6
BYLAYER
 10
10.3925911191
 20
14.3719912473
 40
6.05
  0
CIRCLE
  5
255
100
AcDbEntity
  8
0
100
AcDbCircle
 62
7
  6
BYLAYER
 10
10.3925911191
 20
14.3719912473
 40
5.55
  0
CIRCLE
  5
256
100
AcDbEntity
  8
0
100
AcDbCircle
 62
7
  6
BYLAYER
 10
10.3925911191
 20
14.3719912473
 40
4.815
  0
CIRCLE
  5
257
100
AcDbEntity
  8
0
100
AcDbCircle
 62
7
  6
BYLAYER
 10
10.3925911191
 20
14.3719912473
 40
4.75
  0
CIRCLE
  5
258
100
AcDbEntity
  8
0
100
AcDbCircle
 62
7
  6
BYLAYER
 10
10.3925911191
 20
14.3719912473
 40
4.075
  0
CIRCLE
  5
259
100
AcDbEntity
  8
0
100
AcDbCircle
 62
7
  6
BYLAYER
 10
10.3925911191
 20
14.3719912473
 40
3.75
  0
ARC
  5
25A
100
AcDbEntity
  8
0
100
AcDbCircle
 62
7
  6
BYLAYER
 10
10.3925911191
 20
14.3719912473
 40
3.2499999901
100
AcDbArc
 50
109.0510252707
 51
90.0
  0
CIRCLE
  5
25B
100
AcDbEntity
  8
0
100
AcDbCircle
 62
7
  6
BYLAYER
 10
10.3925911191
 20
14.3719912473
 40
1.75
  0
CIRCLE
  5
25C
100
AcDbEntity
  8
0
100
AcDbCircle
 62
7
  6
BYLAYER
 10
10.3925911191
 20
14.3719912473
 40
1.2154695447
  0
CIRCLE
  5
25D
100
AcDbEntity
  8
0
100
AcDbCircle
 62
7
  6
BYLAYER
 10
10.3925911191
 20
14.3719912473
 40
1.0422648615
  0
CIRCLE
  5
25E
100
AcDbEntity
  8
0
100
AcDbCircle
 62
7
  6
BYLAYER
 10
10.3925911191
 20
14.3719912473
 40
0.6
  0
ARC
  5
25F
100
AcDbEntity
  8
0
100
AcDbCircle
 62
7
  6
BYLAYER
 10
11.9813157015
 20
21.0865987713
 40
0.2
100
AcDbArc
 50
197.4999999994
 51
256.6875992716
  0
ARC
  5
260
100
AcDbEntity
  8
0
100
AcDbCircle
 62
7
  6
BYLAYER
 10
11.4326713619
 20
21.4964724978
 40
0.2
100
AcDbArc
 50
17.4999999999
 51
81.6942451525
  0
ARC
  5
261
100
AcDbEntity
  8
0
100
AcDbCircle
 62
7
  6
BYLAYER
 10
11.2319021852
 20
21.5229042613
 40
0.2
100
AcDbArc
 50
83.3057548472
 51
147.5000000006
  0
ARC
  5
262
100
AcDbEntity
  8
0
100
AcDbCircle
 62
7
  6
BYLAYER
 10
10.5958693217
 20
21.2689962474
 40
0.2
100
AcDbArc
 50
268.3119447289
 51
327.5000000001
  0
ARC
  5
263
100
AcDbEntity
  8
0
100
AcDbCircle
 62
7
  6
BYLAYER
 10
13.0540958321
 20
21.0620131204
 40
0.2
100
AcDbArc
 50
68.3057548481
 51
132.4999999998
  0
ARC
  5
264
100
AcDbEntity
  8
0
100
AcDbCircle
 62
7
  6
BYLAYER
 10
12.3740190331
 20
20.9813742307
 40
0.2
100
AcDbArc
 50
253.3119417402
 51
312.5000000006
  0
ARC
  5
265
100
AcDbEntity
  8
0
100
AcDbCircle
 62
7
  6
BYLAYER
 10
13.6650495317
 20
20.4466118887
 40
0.2
100
AcDbArc
 50
182.4999999989
 51
241.5928980936
  0
ARC
  5
266
100
AcDbEntity
  8
0
100
AcDbCircle
 62
7
  6
BYLAYER
 10
13.2411829211
 20
20.9845191108
 40
0.2
100
AcDbArc
 50
2.5000000012
 51
66.6942451528
  0
SPLINE
  5
267
100
AcDbEntity
  8
0
100
AcDbSpline
 62
7
  6
BYLAYER
 70
0
 71
3
 72
47
 73
43
 74
0
 42
0.0000001
 43
0.0000001
 44
0.0000000001
 40
0.0
 40
0.0
 40
0.0
 40
0.0
 40
0.0311084523
 40
0.0622152064
 40
0.0777723617
 40
0.0933296192
 40
0.1244392234
 40
0.1555564448
 40
0.1866765406
 40
0.2022416246
 40
0.2178074448
 40
0.2489359373
 40
0.2800746505
 40
0.3112192103
 40
0.3267977786
 40
0.3423779902
 40
0.3735379656
 40
0.4047115616
 40
0.4358942821
 40
0.4514931747
 40
0.4670945608
 40
0.4982994049
 40
0.5295211401
 40
0.5607552407
 40
0.5763810745
 40
0.5920102602
 40
0.6232732387
 40
0.6545563869
 40
0.685855137
 40
0.7015145463
 40
0.717178166
 40
0.7485125466
 40
0.7798703824
 40
0.8112470605
 40
0.8269466867
 40
0.8426513812
 40
0.8740704387
 40
0.9055162345
 40
0.9369841101
 40
0.9527305896
 40
0.9684829953
 40
1.0
 40
1.0
 40
1.0
 40
1.0
 10
11.1856871825
 20
16.1533138897
 30
0.0
 10
11.245738776
 20
16.1265450011
 30
0.0
 10
11.36322787
 20
16.0669346654
 30
0.0
 10
11.5018751824
 20
15.9781120558
 30
0.0
 10
11.6069644574
 20
15.898972583
 30
0.0
 10
11.7078886946
 20
15.8145793034
 30
0.0
 10
11.8258050305
 20
15.6995876361
 30
0.0
 10
11.9527331438
 20
15.5481413186
 30
0.0
 10
12.0453928741
 20
15.411932002
 30
0.0
 10
12.1109788561
 20
15.2978208914
 30
0.0
 10
12.1706742235
 20
15.1804998993
 30
0.0
 10
12.233980352
 20
15.0283362663
 30
0.0
 10
12.2912515448
 20
14.8390717105
 30
0.0
 10
12.3229773252
 20
14.677288609
 30
0.0
 10
12.3384755255
 20
14.5464764725
 30
0.0
 10
12.3472909354
 20
14.4150112824
 30
0.0
 10
12.3457304135
 20
14.2500404646
 30
0.0
 10
12.3240244078
 20
14.0532729476
 30
0.0
 10
12.2896053512
 20
13.8918391982
 30
0.0
 10
12.2524229922
 20
13.7652932231
 30
0.0
 10
12.2088250391
 20
13.640761372
 30
0.0
 10
12.1424863577
 20
13.4894444368
 30
0.0
 10
12.0450777329
 20
13.316756053
 30
0.0
 10
11.9498539614
 20
13.18160267
 30
0.0
 10
11.8658055753
 20
13.0796638689
 30
0.0
 10
11.7766299571
 20
12.9820948817
 30
0.0
 10
11.6559533454
 20
12.8687900907
 30
0.0
 10
11.4982271125
 20
12.7480137558
 30
0.0
 10
11.3572771289
 20
12.6609563198
 30
0.0
 10
11.239690539
 20
12.6001020796
 30
0.0
 10
11.1190861036
 20
12.5452880342
 30
0.0
 10
10.9632408776
 20
12.4883690265
 30
0.0
 10
10.7702890912
 20
12.4391477342
 30
0.0
 10
10.6060668389
 20
12.4144008393
 30
0.0
 10
10.4736915678
 20
12.4046085771
 30
0.0
 10
10.3408988702
 20
12.4015738646
 30
0.0
 10
10.1747708352
 20
12.410479936
 30
0.0
 10
9.9774432548
 20
12.4411037811
 30
0.0
 10
9.8162402384
 20
12.4829823572
 30
0.0
 10
9.69028784
 20
12.5261106464
 30
0.0
 10
9.5666093434
 20
12.5756368596
 30
0.0
 10
9.4767701988
 20
12.6198478499
 30
0.0
 10
9.4185537681
 20
12.6522191842
 30
0.0
  0
SPLINE
  5
268
100
AcDbEntity
  8
0
100
AcDbSpline
 62
7
  6
BYLAYER
 70
0
 71
3
 72
44
 73
40
 74
0
 42
0.0000001
 43
0.0000001
 44
0.0000000001
 40
0.0
 40
0.0
 40
0.0
 40
0.0
 40
0.0311394123
 40
0.0622771081
 40
0.0778493894
 40
0.0934215275
 40
0.1245605179
 40
0.1557066833
 40
0.1868556362
 40
0.2180042127
 40
0.2491578599
 40
0.280320774
 40
0.3114892977
 40
0.3426601143
 40
0.3738380925
 40
0.4050282123
 40
0.4362271383
 40
0.4674310848
 40
0.4986440546
 40
0.5298718076
 40
0.5611115064
 40
0.5923590325
 40
0.6079911331
 40
0.6236271227
 40
0.6549029374
 40
0.6861938276
 40
0.7174954104
 40
0.7331553051
 40
0.7488195591
 40
0.7801538656
 40
0.8115063685
 40
0.8428724902
 40
0.8585654621
 40
0.8742632352
 40
0.9056664708
 40
0.9370910004
 40
0.9685321254
 40
0.9842634504
 40
1.0
 40
1.0
 40
1.0
 40
1.0
 10
11.3483734374
 20
16.5187130964
 30
0.0
 10
11.4188990555
 20
16.4872751503
 30
0.0
 10
11.5569547822
 20
16.4174474834
 30
0.0
 10
11.7201622833
 20
16.3137575713
 30
0.0
 10
11.8441053266
 20
16.221524553
 30
0.0
 10
11.9633225257
 20
16.1232565932
 30
0.0
 10
12.1029770422
 20
15.9894626309
 30
0.0
 10
12.254026444
 20
15.8133128236
 30
0.0
 10
12.3872103726
 20
15.6232512267
 30
0.0
 10
12.5011126667
 20
15.4210128623
 30
0.0
 10
12.5943401958
 20
15.2084133777
 30
0.0
 10
12.6663141632
 20
14.9876706889
 30
0.0
 10
12.7164353593
 20
14.76092101
 30
0.0
 10
12.7441056088
 20
14.530303216
 30
0.0
 10
12.7486910677
 20
14.298022478
 30
0.0
 10
12.7304722749
 20
14.0663533773
 30
0.0
 10
12.6897455099
 20
13.8375013466
 30
0.0
 10
12.6268042946
 20
13.6136667243
 30
0.0
 10
12.5418846119
 20
13.3971343686
 30
0.0
 10
12.4360660732
 20
13.1899211615
 30
0.0
 10
12.3105159924
 20
12.9939465635
 30
0.0
 10
12.1903581323
 20
12.8415714345
 30
0.0
 10
12.0855364297
 20
12.7272900648
 30
0.0
 10
11.9751194855
 20
12.6183069582
 30
0.0
 10
11.8271752788
 20
12.4924178758
 30
0.0
 10
11.6357495081
 20
12.3593830549
 30
0.0
 10
11.4660520533
 20
12.2645801009
 30
0.0
 10
11.3251791753
 20
12.1991022193
 30
0.0
 10
11.1811481322
 20
12.1406844701
 30
0.0
 10
10.9958820428
 20
12.0810560515
 30
0.0
 10
10.7676208007
 20
12.0315291925
 30
0.0
 10
10.5741485648
 20
12.0090162258
 30
0.0
 10
10.4186117729
 20
12.0025379783
 30
0.0
 10
10.2628535442
 20
12.003816738
 30
0.0
 10
10.0684534126
 20
12.0198449353
 30
0.0
 10
9.8381286927
 20
12.061761986
 30
0.0
 10
9.6503738574
 20
12.1153048224
 30
0.0
 10
9.5038915125
 20
12.1690850585
 30
0.0
 10
9.4320368403
 20
12.1996104054
 30
0.0
 10
9.3965103552
 20
12.2157515651
 30
0.0
  0
SPLINE
  5
269
100
AcDbEntity
  8
0
100
AcDbSpline
 62
7
  6
BYLAYER
 70
0
 71
3
 72
48
 73
44
 74
0
 42
0.0000001
 43
0.0000001
 44
0.0000000001
 40
0.0
 40
0.0
 40
0.0
 40
0.0
 40
0.0304084621
 40
0.0608670801
 40
0.0913728409
 40
0.1066502995
 40
0.1219431245
 40
0.1525664515
 40
0.1832479653
 40
0.2139795967
 40
0.2447590053
 40
0.2755954395
 40
0.3064931054
 40
0.3374458968
 40
0.3684468909
 40
0.3839702645
 40
0.3995074427
 40
0.4150598714
 40
0.4306278645
 40
0.4617988222
 40
0.4930224982
 40
0.5086569012
 40
0.5243031926
 40
0.5399625557
 40
0.5556367439
 40
0.5870219575
 40
0.6184654999
 40
0.6499594609
 40
0.681500815
 40
0.7130984012
 40
0.7447577453
 40
0.7764730795
 40
0.8082369234
 40
0.8241415796
 40
0.8400596768
 40
0.8559928732
 40
0.8719416853
 40
0.9038745868
 40
0.9358609629
 40
0.9518769028
 40
0.9679045857
 40
0.983945012
 40
1.0
 40
1.0
 40
1.0
 40
1.0
 10
8.4234439257
 20
16.1450234022
 30
0.0
 10
8.4811526461
 20
16.2113926208
 30
0.0
 10
8.603330495
 20
16.3386100695
 30
0.0
 10
8.8045568971
 20
16.5105394481
 30
0.0
 10
8.9858990323
 20
16.6367140941
 30
0.0
 10
9.1381722196
 20
16.7263840768
 30
0.0
 10
9.2950733856
 20
16.8084211851
 30
0.0
 10
9.4988856501
 20
16.8962647622
 30
0.0
 10
9.7529316454
 20
16.9771620772
 30
0.0
 10
10.014162985
 20
17.0327674466
 30
0.0
 10
10.2800907021
 20
17.0621620916
 30
0.0
 10
10.548106266
 20
17.0645196015
 30
0.0
 10
10.8155217029
 20
17.0402566453
 30
0.0
 10
11.0797080789
 20
16.989720177
 30
0.0
 10
11.2949621207
 20
16.9259960862
 30
0.0
 10
11.4628347532
 20
16.8622667951
 30
0.0
 10
11.5863476772
 20
16.8080776085
 30
0.0
 10
11.7070930192
 20
16.7476882288
 30
0.0
 10
11.8640702372
 20
16.6591459717
 30
0.0
 10
12.0520362937
 20
16.5338846623
 30
0.0
 10
12.2269186254
 20
16.3906193317
 30
0.0
 10
12.3579223263
 20
16.2659512231
 30
0.0
 10
12.451523256
 20
16.1675306834
 30
0.0
 10
12.5401205308
 20
16.0644291576
 30
0.0
 10
12.6512821069
 20
15.9209990938
 30
0.0
 10
12.7767672412
 20
15.7312850414
 30
0.0
 10
12.9043087347
 20
15.4896401518
 30
0.0
 10
13.0076345408
 20
15.2361862369
 30
0.0
 10
13.0854172664
 20
14.9732839786
 30
0.0
 10
13.1363020857
 20
14.7033923849
 30
0.0
 10
13.1601832493
 20
14.4292952205
 30
0.0
 10
13.1569797769
 20
14.1537123685
 30
0.0
 10
13.1316447179
 20
13.9250998395
 30
0.0
 10
13.0977576749
 20
13.7442732237
 30
0.0
 10
13.0654762049
 20
13.609912068
 30
0.0
 10
13.0264255261
 20
13.4772282943
 30
0.0
 10
12.9655318788
 20
13.3029242461
 30
0.0
 10
12.8732021248
 20
13.090741398
 30
0.0
 10
12.760354302
 20
12.8884999836
 30
0.0
 10
12.6583407422
 20
12.733861352
 30
0.0
 10
12.5760374194
 20
12.6216812289
 30
0.0
 10
12.4881312649
 20
12.5136966599
 30
0.0
 10
12.4259251652
 20
12.4447308978
 30
0.0
 10
12.3939715373
 20
12.4110378047
 30
0.0
  0
SPLINE
  5
26A
100
AcDbEntity
  8
0
100
AcDbSpline
 62
7
  6
BYLAYER
 70
0
 71
3
 72
49
 73
45
 74
0
 42
0.0000001
 43
0.0000001
 44
0.0000000001
 40
0.0
 40
0.0
 40
0.0
 40
0.0
 40
0.0305625357
 40
0.0611644463
 40
0.0764845431
 40
0.0918148379
 40
0.1071560368
 40
0.1225081631
 40
0.1532340978
 40
0.1839998879
 40
0.1994036031
 40
0.2148185097
 40
0.2456712124
 40
0.2765650771
 40
0.3075025747
 40
0.3384856129
 40
0.3695114022
 40
0.3850453542
 40
0.4005910009
 40
0.4317077901
 40
0.462869071
 40
0.4784710001
 40
0.4940846973
 40
0.525338677
 40
0.5566389949
 40
0.572310812
 40
0.5879943926
 40
0.6036904054
 40
0.6193988489
 40
0.6508416998
 40
0.6823306765
 40
0.6980986052
 40
0.7138793471
 40
0.745468191
 40
0.77710445
 40
0.8087908804
 40
0.8405291552
 40
0.8723163857
 40
0.8882336148
 40
0.9041641844
 40
0.9360553176
 40
0.9679971346
 40
0.983991853
 40
1.0
 40
1.0
 40
1.0
 40
1.0
 10
11.3890874878
 20
16.6101604667
 30
0.0
 10
11.4643678295
 20
16.5777864413
 30
0.0
 10
11.6118711116
 20
16.505387104
 30
0.0
 10
11.7863543662
 20
16.3969576121
 30
0.0
 10
11.9190048861
 20
16.3000242191
 30
0.0
 10
12.0148173051
 20
16.2223065121
 30
0.0
 10
12.1066608742
 20
16.139808373
 30
0.0
 10
12.2235611187
 20
16.0237342713
 30
0.0
 10
12.3587489328
 20
15.8677646032
 30
0.0
 10
12.4777682323
 20
15.6989573539
 30
0.0
 10
12.5624669798
 20
15.5571387477
 30
0.0
 10
12.6400692758
 20
15.4110546763
 30
0.0
 10
12.7233335179
 20
15.2212520064
 30
0.0
 10
12.8001211889
 20
14.984472546
 30
0.0
 10
12.8527296207
 20
14.7408007553
 30
0.0
 10
12.880798897
 20
14.4927683775
 30
0.0
 10
12.8834997993
 20
14.2844943227
 30
0.0
 10
12.8730916155
 20
14.1182375469
 30
0.0
 10
12.8542923487
 20
13.9524730007
 30
0.0
 10
12.8152269992
 20
13.7471215453
 30
0.0
 10
12.7558663591
 20
13.5465336477
 30
0.0
 10
12.6964631387
 20
13.3901226769
 30
0.0
 10
12.6291390715
 20
13.2366825169
 30
0.0
 10
12.5305694121
 20
13.0512988074
 30
0.0
 10
12.4139445517
 20
12.8765198097
 30
0.0
 10
12.3104448966
 20
12.7441160802
 30
0.0
 10
12.2277986726
 20
12.6487260287
 30
0.0
 10
12.1403908221
 20
12.5575439847
 30
0.0
 10
12.017802964
 20
12.4418385206
 30
0.0
 10
11.8537860669
 20
12.308737135
 30
0.0
 10
11.6771545762
 20
12.1925973932
 30
0.0
 10
11.5292520444
 20
12.1106572276
 30
0.0
 10
11.377196305
 20
12.0361036769
 30
0.0
 10
11.18019355
 20
11.9571979343
 30
0.0
 10
10.935297946
 20
11.8864791652
 30
0.0
 10
10.6841095041
 20
11.8407334154
 30
0.0
 10
10.4292318428
 20
11.8202429471
 30
0.0
 10
10.2158770018
 20
11.8244083895
 30
0.0
 10
10.0459622497
 20
11.8406066015
 30
0.0
 10
9.8768023318
 20
11.8653827679
 30
0.0
 10
9.6677452378
 20
11.9122385956
 30
0.0
 10
9.464224013
 20
11.9797353861
 30
0.0
 10
9.3059535244
 20
12.0458131383
 30
0.0
 10
9.228499225
 20
12.0828482043
 30
0.0
 10
9.1902520885
 20
12.102328114
 30
0.0
  0
SPLINE
  5
26B
100
AcDbEntity
  8
0
100
AcDbSpline
 62
7
  6
BYLAYER
 70
0
 71
3
 72
44
 73
40
 74
0
 42
0.0000001
 43
0.0000001
 44
0.0000000001
 40
0.0
 40
0.0
 40
0.0
 40
0.0
 40
0.0307522599
 40
0.0615279665
 40
0.0923253881
 40
0.1231506383
 40
0.1540070039
 40
0.184890898
 40
0.21579931
 40
0.2467366569
 40
0.2777082802
 40
0.3087115635
 40
0.3397426406
 40
0.3552733948
 40
0.3708127725
 40
0.4019108625
 40
0.4330446859
 40
0.464209947
 40
0.4798085167
 40
0.4954158673
 40
0.5110330923
 40
0.5266605127
 40
0.5579359983
 40
0.5892468375
 40
0.6205914759
 40
0.6519763738
 40
0.6834045723
 40
0.7148722824
 40
0.7463766454
 40
0.7779225441
 40
0.8095150457
 40
0.8411509431
 40
0.8728260338
 40
0.8886831715
 40
0.9045518592
 40
0.9204328972
 40
0.9363263993
 40
0.9681405544
 40
1.0
 40
1.0
 40
1.0
 40
1.0
 10
9.4185537681
 20
12.6522191842
 30
0.0
 10
9.3637523082
 20
12.6826916188
 30
0.0
 10
9.2569219349
 20
12.7488850796
 30
0.0
 10
9.1067251945
 20
12.8628132789
 30
0.0
 10
8.9678709568
 20
12.99057973
 30
0.0
 10
8.8418171431
 20
13.1312037097
 30
0.0
 10
8.7295108796
 20
13.283243358
 30
0.0
 10
8.6319186955
 20
13.4453191117
 30
0.0
 10
8.5499909234
 20
13.6160420885
 30
0.0
 10
8.4847616018
 20
13.7940086563
 30
0.0
 10
8.4366609895
 20
13.977541512
 30
0.0
 10
8.4060067048
 20
14.1649639711
 30
0.0
 10
8.3952940064
 20
14.3230151768
 30
0.0
 10
8.3957974222
 20
14.4496807823
 30
0.0
 10
8.4023934771
 20
14.5763119438
 30
0.0
 10
8.4219559795
 20
14.7339379106
 30
0.0
 10
8.4631642682
 20
14.9201370089
 30
0.0
 10
8.5120180931
 20
15.0715444042
 30
0.0
 10
8.5596136856
 20
15.1895199726
 30
0.0
 10
8.5995597595
 20
15.2762756521
 30
0.0
 10
8.6436384859
 20
15.3610719803
 30
0.0
 10
8.7077549037
 20
15.4712983361
 30
0.0
 10
8.7976484134
 20
15.6033387096
 30
0.0
 10
8.9200258712
 20
15.7510273921
 30
0.0
 10
9.0560207813
 20
15.8866230199
 30
0.0
 10
9.2045874186
 20
16.0086859755
 30
0.0
 10
9.3642240428
 20
16.1163024335
 30
0.0
 10
9.5334921142
 20
16.2085376486
 30
0.0
 10
9.7109431153
 20
16.284472526
 30
0.0
 10
9.8951073753
 20
16.3431029048
 30
0.0
 10
10.0842593879
 20
16.384052418
 30
0.0
 10
10.276676019
 20
16.4070585168
 30
0.0
 10
10.4383160863
 20
16.4110267416
 30
0.0
 10
10.5674881691
 20
16.4049380155
 30
0.0
 10
10.6641574761
 20
16.3957089173
 30
0.0
 10
10.7603500029
 20
16.3818770692
 30
0.0
 10
10.8877101745
 20
16.357359249
 30
0.0
 10
11.0446958514
 20
16.315436813
 30
0.0
 10
11.166626324
 20
16.2701914312
 30
0.0
 10
11.2263871993
 20
16.2447234579
 30
0.0
  0
SPLINE
  5
26C
100
AcDbEntity
  8
0
100
AcDbSpline
 62
7
  6
BYLAYER
 70
0
 71
3
 72
48
 73
44
 74
0
 42
0.0000001
 43
0.0000001
 44
0.0000000001
 40
0.0
 40
0.0
 40
0.0
 40
0.0
 40
0.0308253851
 40
0.0616744544
 40
0.0771109268
 40
0.0925517594
 40
0.1079970923
 40
0.1234478214
 40
0.1389051087
 40
0.1543693547
 40
0.1853084243
 40
0.2162697363
 40
0.2317625364
 40
0.2472610705
 40
0.2782703913
 40
0.3093094281
 40
0.3403738997
 40
0.3714613519
 40
0.4025777483
 40
0.4337267267
 40
0.464904365
 40
0.4961074734
 40
0.5273410397
 40
0.558609934
 40
0.5899107352
 40
0.6212396385
 40
0.6369202246
 40
0.6526099534
 40
0.6840086789
 40
0.7154426035
 40
0.7469075403
 40
0.7626568369
 40
0.7784157265
 40
0.8099547453
 40
0.8415319735
 40
0.8573379153
 40
0.8731518878
 40
0.888974306
 40
0.9048063718
 40
0.9206490949
 40
0.9365027063
 40
0.968231957
 40
1.0
 40
1.0
 40
1.0
 40
1.0
 10
9.3965103552
 20
12.2157515651
 30
0.0
 10
9.3260608495
 20
12.2477597054
 30
0.0
 10
9.1881617847
 20
12.3187566583
 30
0.0
 10
9.0251883171
 20
12.4237820199
 30
0.0
 10
8.9013335882
 20
12.516977891
 30
0.0
 10
8.811888589
 20
12.5913569061
 30
0.0
 10
8.7261583082
 20
12.6700398389
 30
0.0
 10
8.644384712
 20
12.7528859114
 30
0.0
 10
8.5667514115
 20
12.8396896795
 30
0.0
 10
8.4689648356
 20
12.9603860848
 30
0.0
 10
8.3578244575
 20
13.1200409317
 30
0.0
 10
8.2626088209
 20
13.2897578959
 30
0.0
 10
8.1966069556
 20
13.4306358417
 30
0.0
 10
8.1375693128
 20
13.574701245
 30
0.0
 10
8.0771596442
 20
13.7601097587
 30
0.0
 10
8.0265682502
 20
13.9886718565
 30
0.0
 10
7.9982735541
 20
14.2212597493
 30
0.0
 10
7.992733255
 20
14.455700087
 30
0.0
 10
8.0103620568
 20
14.6897550473
 30
0.0
 10
8.0506702196
 20
14.9212046425
 30
0.0
 10
8.113216249
 20
15.1478852127
 30
0.0
 10
8.1975509538
 20
15.367633063
 30
0.0
 10
8.3032529618
 20
15.5781965632
 30
0.0
 10
8.4290710907
 20
15.7776743064
 30
0.0
 10
8.573714755
 20
15.9642410816
 30
0.0
 10
8.7088950279
 20
16.107433719
 30
0.0
 10
8.8251340759
 20
16.2136324046
 30
0.0
 10
8.94659382
 20
16.3140917463
 30
0.0
 10
9.1075422104
 20
16.4284716397
 30
0.0
 10
9.3131529161
 20
16.5464695372
 30
0.0
 10
9.4934143223
 20
16.6278286815
 30
0.0
 10
9.6419464491
 20
16.6820942482
 30
0.0
 10
9.7931545249
 20
16.7290187886
 30
0.0
 10
9.9863698242
 20
16.7737659721
 30
0.0
 10
10.1831239637
 20
16.7996227577
 30
0.0
 10
10.3415511235
 20
16.8088185766
 30
0.0
 10
10.4606882171
 20
16.8099247103
 30
0.0
 10
10.579800486
 20
16.8051896644
 30
0.0
 10
10.6986052751
 20
16.7945684
 30
0.0
 10
10.8168257919
 20
16.7781284061
 30
0.0
 10
10.973321549
 20
16.7485384242
 30
0.0
 10
11.1661516788
 20
16.6973228374
 30
0.0
 10
11.3157939913
 20
16.6415855497
 30
0.0
 10
11.3890767326
 20
16.6101355105
 30
0.0
  0
SPLINE
  5
26D
100
AcDbEntity
  8
0
100
AcDbSpline
 62
7
  6
BYLAYER
 70
0
 71
3
 72
50
 73
46
 74
0
 42
0.0000001
 43
0.0000001
 44
0.0000000001
 40
0.0
 40
0.0
 40
0.0
 40
0.0
 40
0.030423509
 40
0.0609044883
 40
0.0914348463
 40
0.1220113826
 40
0.1526432299
 40
0.1833353855
 40
0.2140814584
 40
0.2294772337
 40
0.2448843521
 40
0.2603035139
 40
0.2757364671
 40
0.2911845173
 40
0.3066478068
 40
0.3376072252
 40
0.3686167838
 40
0.3996722106
 40
0.4307816822
 40
0.4619517657
 40
0.4931766918
 40
0.5088121846
 40
0.5244589721
 40
0.5401175397
 40
0.5557894879
 40
0.571476395
 40
0.5871786146
 40
0.6186163701
 40
0.6501050949
 40
0.6816395347
 40
0.6974310064
 40
0.7132373428
 40
0.7448852646
 40
0.7765889585
 40
0.8083402517
 40
0.8242383058
 40
0.8401493213
 40
0.8560750892
 40
0.872016206
 40
0.9039321946
 40
0.9359000389
 40
0.9519063906
 40
0.9679242152
 40
0.9839547968
 40
1.0
 40
1.0
 40
1.0
 40
1.0
 10
12.3939715373
 20
12.4110378047
 30
0.0
 10
12.3279500361
 20
12.3414222794
 30
0.0
 10
12.1884740976
 20
12.2087952581
 30
0.0
 10
11.9600094294
 20
12.0321001044
 30
0.0
 10
11.714353914
 20
11.8792284279
 30
0.0
 10
11.4538887738
 20
11.7521179768
 30
0.0
 10
11.1810973941
 20
11.6527020923
 30
0.0
 10
10.8990839588
 20
11.5815907713
 30
0.0
 10
10.6588828636
 20
11.5464342073
 30
0.0
 10
10.465173193
 20
11.5330704483
 30
0.0
 10
10.3193626212
 20
11.5305062003
 30
0.0
 10
10.1734991703
 20
11.5354868486
 30
0.0
 10
10.0279666349
 20
11.5480955822
 30
0.0
 10
9.8831417804
 20
11.5682380016
 30
0.0
 10
9.6914507064
 20
11.6050058138
 30
0.0
 10
9.455406523
 20
11.6693262939
 30
0.0
 10
9.1811947884
 20
11.7749621535
 30
0.0
 10
8.9187649478
 20
11.9083090516
 30
0.0
 10
8.6712522363
 20
12.068585136
 30
0.0
 10
8.4410855345
 20
12.2537041264
 30
0.0
 10
8.2656498676
 20
12.4269215756
 30
0.0
 10
8.1363118276
 20
12.575772941
 30
0.0
 10
8.0450251201
 20
12.6923943592
 30
0.0
 10
7.9598101686
 20
12.8136614399
 30
0.0
 10
7.8809752297
 20
12.9393199249
 30
0.0
 10
7.8087001962
 20
13.0690228784
 30
0.0
 10
7.7212415091
 20
13.2468846869
 30
0.0
 10
7.6290013605
 20
13.477560449
 30
0.0
 10
7.5469009834
 20
13.7644235887
 30
0.0
 10
7.5031873225
 20
14.0095910138
 30
0.0
 10
7.4836447182
 20
14.2078020916
 30
0.0
 10
7.4744110512
 20
14.4071169266
 30
0.0
 10
7.4821259208
 20
14.6571064098
 30
0.0
 10
7.5218416338
 20
14.9548766314
 30
0.0
 10
7.5800790395
 20
15.1987470552
 30
0.0
 10
7.6415582693
 20
15.3896074139
 30
0.0
 10
7.695139
 20
15.5303615022
 30
0.0
 10
7.7560283388
 20
15.668258281
 30
0.0
 10
7.846666801
 20
15.8479081108
 30
0.0
 10
7.977184827
 20
16.0637081961
 30
0.0
 10
8.1290531919
 20
16.2653136039
 30
0.0
 10
8.2625082374
 20
16.4167891876
 30
0.0
 10
8.3684555614
 20
16.5252457542
 30
0.0
 10
8.4799876024
 20
16.6281217168
 30
0.0
 10
8.5578567597
 20
16.6927702429
 30
0.0
 10
8.5976068448
 20
16.7240800396
 30
0.0
  0
SPLINE
  5
26E
100
AcDbEntity
  8
0
100
AcDbSpline
 62
7
  6
BYLAYER
 70
0
 71
3
 72
52
 73
48
 74
0
 42
0.0000001
 43
0.0000001
 44
0.0000000001
 40
0.0
 40
0.0
 40
0.0
 40
0.0
 40
0.0304417245
 40
0.0609386191
 40
0.0914822702
 40
0.1067762048
 40
0.1220828365
 40
0.1374039618
 40
0.1527401246
 40
0.1834447317
 40
0.2141992965
 40
0.2449983993
 40
0.2604221822
 40
0.2758606598
 40
0.3067714403
 40
0.3377358976
 40
0.3532408911
 40
0.3687568507
 40
0.3842844219
 40
0.3998254153
 40
0.4153812603
 40
0.4309521132
 40
0.4621249774
 40
0.4933462532
 40
0.5246121839
 40
0.5559325154
 40
0.5873121706
 40
0.6187438974
 40
0.6344821788
 40
0.6502314958
 40
0.665992943
 40
0.6817684929
 40
0.6975590958
 40
0.7133645714
 40
0.7450053993
 40
0.7766932049
 40
0.7925592413
 40
0.8084377323
 40
0.8243306117
 40
0.8402385946
 40
0.8720868941
 40
0.9039856125
 40
0.9199571548
 40
0.9359399486
 40
0.9519355547
 40
0.9679457893
 40
1.0
 40
1.0
 40
1.0
 40
1.0
 10
8.5976068448
 20
16.7240800396
 30
0.0
 10
8.679741347
 20
16.7887746072
 30
0.0
 10
8.8511895482
 20
16.9096258477
 30
0.0
 10
9.1260303258
 20
17.062985521
 30
0.0
 10
9.3676024939
 20
17.1662391639
 30
0.0
 10
9.5667395068
 20
17.2331731089
 30
0.0
 10
9.718802435
 20
17.2753341562
 30
0.0
 10
9.8730498456
 20
17.3093008389
 30
0.0
 10
10.0810626897
 20
17.343657848
 30
0.0
 10
10.3444086387
 20
17.36598781
 30
0.0
 10
10.6617624162
 20
17.3595464668
 30
0.0
 10
10.9245985344
 20
17.3262825756
 30
0.0
 10
11.1319588134
 20
17.2828144125
 30
0.0
 10
11.3370662804
 20
17.2282099599
 30
0.0
 10
11.5879233977
 20
17.1395610686
 30
0.0
 10
11.8283149107
 20
17.0250165833
 30
0.0
 10
12.0127664724
 20
16.9185468424
 30
0.0
 10
12.1468739254
 20
16.8313708139
 30
0.0
 10
12.2762418318
 20
16.7370977057
 30
0.0
 10
12.4004434965
 20
16.6358981447
 30
0.0
 10
12.5191750983
 20
16.5281085335
 30
0.0
 10
12.6698250003
 20
16.3760456559
 30
0.0
 10
12.8430407322
 20
16.1711369162
 30
0.0
 10
13.0241648227
 20
15.904595136
 30
0.0
 10
13.1763569648
 20
15.6199151307
 30
0.0
 10
13.2972192344
 20
15.3200015953
 30
0.0
 10
13.3859282488
 20
15.0085078002
 30
0.0
 10
13.4323384372
 20
14.7421966515
 30
0.0
 10
13.4525334227
 20
14.5269598982
 30
0.0
 10
13.4591124487
 20
14.3647336392
 30
0.0
 10
13.4569893049
 20
14.2022623892
 30
0.0
 10
13.4461088651
 20
14.0400004807
 30
0.0
 10
13.4265966893
 20
13.878394675
 30
0.0
 10
13.3891997749
 20
13.6643627085
 30
0.0
 10
13.3213511305
 20
13.4006289605
 30
0.0
 10
13.2261471608
 20
13.145262057
 30
0.0
 10
13.1340192512
 20
12.9477419181
 30
0.0
 10
13.056958909
 20
12.8033200147
 30
0.0
 10
12.9721713951
 20
12.6631278678
 30
0.0
 10
12.8492224852
 20
12.4822693675
 30
0.0
 10
12.6776766424
 20
12.2684668291
 30
0.0
 10
12.4845320417
 20
12.0736470279
 30
0.0
 10
12.3182353119
 20
11.9305432504
 30
0.0
 10
12.1878098851
 20
11.8298590591
 30
0.0
 10
12.0520393469
 20
11.7362640297
 30
0.0
 10
11.8643998453
 20
11.6212407394
 30
0.0
 10
11.7168841768
 20
11.5462450937
 30
0.0
 10
11.6162665643
 20
11.5015651031
 30
0.0
  0
SPLINE
  5
26F
100
AcDbEntity
  8
0
100
AcDbSpline
 62
7
  6
BYLAYER
 70
0
 71
3
 72
50
 73
46
 74
0
 42
0.0000001
 43
0.0000001
 44
0.0000000001
 40
0.0
 40
0.0
 40
0.0
 40
0.0
 40
0.030526262
 40
0.0610939439
 40
0.0763975617
 40
0.0917125456
 40
0.1070405578
 40
0.122382198
 40
0.1530952546
 40
0.1838544276
 40
0.1992539214
 40
0.2146633043
 40
0.2300835263
 40
0.2455163421
 40
0.2609627188
 40
0.2764226313
 40
0.3073704782
 40
0.3383617421
 40
0.3693927324
 40
0.4004715715
 40
0.4316044936
 40
0.462786136
 40
0.494008948
 40
0.5096402204
 40
0.5252829456
 40
0.5409387848
 40
0.5566082958
 40
0.5879768681
 40
0.6193913318
 40
0.6351184836
 40
0.6508555105
 40
0.6666034386
 40
0.6823640586
 40
0.698138296
 40
0.7139260851
 40
0.7455293881
 40
0.7771758536
 40
0.8088619515
 40
0.8405962337
 40
0.8723847134
 40
0.9042217375
 40
0.9360996716
 40
0.9520585976
 40
0.9680290672
 40
1.0
 40
1.0
 40
1.0
 40
1.0
 10
11.6162665643
 20
11.5015651031
 30
0.0
 10
11.5208150519
 20
11.4591791572
 30
0.0
 10
11.3254331019
 20
11.383804726
 30
0.0
 10
11.072989447
 20
11.3143172255
 30
0.0
 10
10.8674705347
 20
11.2741197888
 30
0.0
 10
10.7117913666
 20
11.2518288524
 30
0.0
 10
10.5550508744
 20
11.2374766115
 30
0.0
 10
10.3451453013
 20
11.2288642549
 30
0.0
 10
10.0820316275
 20
11.2378049746
 30
0.0
 10
9.8209067132
 20
11.2728270659
 30
0.0
 10
9.6147392889
 20
11.3163729406
 30
0.0
 10
9.4617589626
 20
11.3568050315
 30
0.0
 10
9.3109187024
 20
11.4049764502
 30
0.0
 10
9.1626159749
 20
11.4608288407
 30
0.0
 10
9.0171922131
 20
11.5241443727
 30
0.0
 10
8.8275714245
 20
11.6182613387
 30
0.0
 10
8.5994188504
 20
11.7536148365
 30
0.0
 10
8.3429008152
 20
11.9425538119
 30
0.0
 10
8.1062028169
 20
12.156525975
 30
0.0
 10
7.892237551
 20
12.393878984
 30
0.0
 10
7.702833793
 20
12.6518779341
 30
0.0
 10
7.539717239
 20
12.9278013194
 30
0.0
 10
7.427165527
 20
13.1704372977
 30
0.0
 10
7.3520513697
 20
13.3707101755
 30
0.0
 10
7.303376324
 20
13.5237907709
 30
0.0
 10
7.26251508
 20
13.6792732511
 30
0.0
 10
7.2184770217
 20
13.8892752712
 30
0.0
 10
7.1831519307
 20
14.1558262611
 30
0.0
 10
7.1744342905
 20
14.424763747
 30
0.0
 10
7.1835669949
 20
14.6397714497
 30
0.0
 10
7.1985256041
 20
14.8006755332
 30
0.0
 10
7.2216464152
 20
14.9607246856
 30
0.0
 10
7.2529273436
 20
15.1195099693
 30
0.0
 10
7.2922054415
 20
15.2766512326
 30
0.0
 10
7.3550578772
 20
15.4834934078
 30
0.0
 10
7.4529463306
 20
15.7360861851
 30
0.0
 10
7.6000238821
 20
16.0262679985
 30
0.0
 10
7.7756621274
 20
16.3006877587
 30
0.0
 10
7.9786714555
 20
16.5561411342
 30
0.0
 10
8.2065875951
 20
16.7903418985
 30
0.0
 10
8.4569745393
 20
17.0010841478
 30
0.0
 10
8.6823504797
 20
17.1552891814
 30
0.0
 10
8.8713814886
 20
17.2646541767
 30
0.0
 10
9.0660091721
 20
17.3643821666
 30
0.0
 10
9.2175918574
 20
17.4279881267
 30
0.0
 10
9.3204377829
 20
17.46523214
 30
0.0
  0
SPLINE
  5
270
100
AcDbEntity
  8
0
100
AcDbSpline
 62
7
  6
BYLAYER
 70
0
 71
3
 72
28
 73
24
 74
0
 42
0.0000001
 43
0.0000001
 44
0.0000000001
 40
0.0
 40
0.0
 40
0.0
 40
0.0
 40
0.0618319521
 40
0.1237513842
 40
0.1547491727
 40
0.18576577
 40
0.2168031513
 40
0.2478647799
 40
0.3100470681
 40
0.3411854851
 40
0.3723466216
 40
0.4347103115
 40
0.4971497509
 40
0.5596807704
 40
0.6223160131
 40
0.6850446947
 40
0.7478507651
 40
0.7792908402
 40
0.8107515722
 40
0.8422364941
 40
0.8737474064
 40
0.9368270505
 40
1.0
 40
1.0
 40
1.0
 40
1.0
 10
9.3204377829
 20
17.46523214
 30
0.0
 10
9.4224802794
 20
17.5021852042
 30
0.0
 10
9.6305050149
 20
17.5660733992
 30
0.0
 10
9.8971792693
 20
17.6200055466
 30
0.0
 10
10.1130756742
 20
17.6472222691
 30
0.0
 10
10.2760026078
 20
17.6595673738
 30
0.0
 10
10.4394599122
 20
17.6637098396
 30
0.0
 10
10.6575993488
 20
17.6582093961
 30
0.0
 10
10.8752472622
 20
17.6363374242
 30
0.0
 10
11.0905011642
 20
17.5984673467
 30
0.0
 10
11.3039504329
 20
17.5499815838
 30
0.0
 10
11.5661543795
 20
17.4696650497
 30
0.0
 10
11.8699569805
 20
17.3424797804
 30
0.0
 10
12.1597925264
 20
17.1850224096
 30
0.0
 10
12.4329614866
 20
16.9992874012
 30
0.0
 10
12.6869131899
 20
16.7873103579
 30
0.0
 10
12.8803725504
 20
16.590441498
 30
0.0
 10
13.0228913979
 20
16.4219054104
 30
0.0
 10
13.1233995437
 20
16.2901195432
 30
0.0
 10
13.217201057
 20
16.1533302173
 30
0.0
 10
13.3331367065
 20
15.9647520723
 30
0.0
 10
13.4604624286
 20
15.7183284906
 30
0.0
 10
13.5424939178
 20
15.5120271972
 30
0.0
 10
13.5783314321
 20
15.4070972277
 30
0.0
  0
SPLINE
  5
271
100
AcDbEntity
  8
0
100
AcDbSpline
 62
7
  6
BYLAYER
 70
0
 71
3
 72
31
 73
27
 74
0
 42
0.0000001
 43
0.0000001
 44
0.0000000001
 40
0.0
 40
0.0
 40
0.0
 40
0.0
 40
0.0615901097
 40
0.0924404562
 40
0.1233184332
 40
0.1542247842
 40
0.1851613992
 40
0.2471007468
 40
0.3091551985
 40
0.3402388453
 40
0.3713537961
 40
0.4336508736
 40
0.4960650425
 40
0.5586029591
 40
0.6212662092
 40
0.6526551913
 40
0.6840748049
 40
0.7155269296
 40
0.7470116781
 40
0.8100496582
 40
0.841626716
 40
0.873235508
 40
0.9048776275
 40
0.9365529434
 40
0.9682605981
 40
1.0
 40
1.0
 40
1.0
 40
1.0
 10
9.1902520885
 20
12.102328114
 30
0.0
 10
9.1035824811
 20
12.1464704025
 30
0.0
 10
8.9771131799
 20
12.2202043732
 30
0.0
 10
8.8177101093
 20
12.3322004993
 30
0.0
 10
8.7028890985
 20
12.4229825855
 30
0.0
 10
8.5933240793
 20
12.5202434521
 30
0.0
 10
8.4547161346
 20
12.658207782
 30
0.0
 10
8.2962188578
 20
12.8453221197
 30
0.0
 10
8.159680728
 20
13.0492990052
 30
0.0
 10
8.0648177717
 20
13.2211730325
 30
0.0
 10
7.9797202563
 20
13.3985071604
 30
0.0
 10
7.8922340292
 20
13.6291181117
 30
0.0
 10
7.8190445481
 20
13.916271058
 30
0.0
 10
7.778993917
 20
14.2104689719
 30
0.0
 10
7.7734543196
 20
14.4582658855
 30
0.0
 10
7.785824261
 20
14.6561132849
 30
0.0
 10
7.803568581
 20
14.8039928571
 30
0.0
 10
7.8297496243
 20
14.9507689755
 30
0.0
 10
7.8757240756
 20
15.1444053485
 30
0.0
 10
7.9381170338
 20
15.3340518258
 30
0.0
 10
8.0162846958
 20
15.5175070156
 30
0.0
 10
8.0827954567
 20
15.6517762882
 30
0.0
 10
8.1569066338
 20
15.7821736919
 30
0.0
 10
8.2383554945
 20
15.9083072607
 30
0.0
 10
8.3268798802
 20
16.0297632821
 30
0.0
 10
8.3904186645
 20
16.1073181901
 30
0.0
 10
8.4232716
 20
16.1451731738
 30
0.0
  0
ENDSEC
  0
SECTION
  2
OBJECTS
  0
DICTIONARY
  5
C
100
AcDbDictionary
280
0
281
1
  3
ACAD_GROUP
350
D
  3
ACAD_MLINESTYLE
350
17
  3
ACAD_LAYOUT
350
1A
  3
ACAD_PLOTSETTINGS
350
19
  3
ACAD_PLOTSTYLENAME
350
E
  0
DICTIONARY
  5
D
102
{ACAD_REACTORS
330
C
102
}
100
AcDbDictionary
280
0
281
1
  0
ACDBDICTIONARYWDFLT
  5
E
102
{ACAD_REACTORS
330
C
102
}
100
AcDbDictionary
281
1
  3
Normal
350
F
100
AcDbDictionaryWithDefault
340
F
  0
DICTIONARY
  5
17
102
{ACAD_REACTORS
330
C
102
}
100
AcDbDictionary
280
0
281
1
  3
Standard
350
18
  0
DICTIONARY
  5
19
102
{ACAD_REACTORS
330
C
102
}
100
AcDbDictionary
281
1
  0
DICTIONARY
  5
1A
102
{ACAD_REACTORS
330
C
102
}
100
AcDbDictionary
281
1
  3
Model
350
272
  3
Layout1
350
273
  0
ACDBPLACEHOLDER
  5
F
102
{ACAD_REACTORS
330
E
102
}
  0
MLINESTYLE
  5
18
102
{ACAD_REACTORS
330
17
102
}
100
AcDbMlineStyle
  2
STANDARD
 70
0
  3

 62
256
 51
90.0
 52
90.0
 71
2
 49
0.5
 62
256
  6
BYLAYER
 49
-0.5
 62
256
  6
BYLAYER
  0
LAYOUT
  5
272
102
{ACAD_REACTORS
330
1A
102
}
100
AcDbPlotSettings
  1

  2
none_device
  4

  6

 40
0.0
 41
0.0
 42
0.0
 43
0.0
 44
210.0
 45
297.0
 46
0.0
 47
0.0
 48
0.0
 49
0.0
140
0.0
141
0.0
142
1.0
143
1.0
 70
1024
 72
1
 73
0
 74
0
  7

 75
0
147
1.0
148
0.0
149
0.0
100
AcDbLayout
  1
Model
 70
0
 71
0
 10
0.0
 20
0.0
 11
210.0
 21
297.0
 12
0.0
 22
0.0
 32
0.0
 14
0.0
 24
0.0
 34
0.0
 15
0.0
 25
0.0
 35
0.0
146
0.0
 13
0.0
 23
0.0
 33
0.0
 16
1.0
 26
0.0
 36
0.0
 17
0.0
 27
1.0
 37
0.0
 76
0
330
210
345
0
346
0
  0
LAYOUT
  5
273
102
{ACAD_REACTORS
330
1A
102
}
100
AcDbPlotSettings
  1

  2
none_device
  4

  6

 40
0.0
 41
0.0
 42
0.0
 43
0.0
 44
210.0
 45
297.0
 46
0.0
 47
0.0
 48
0.0
 49
0.0
140
0.0
141
0.0
142
1.0
143
1.0
 70
0
 72
1
 73
0
 74
0
  7

 75
0
147
1.0
148
0.0
149
0.0
100
AcDbLayout
  1
Layout1
 70
0
 71
1
 10
0.0
 20
0.0
 11
210.0
 21
297.0
 12
0.0
 22
0.0
 32
0.0
 14
0.0
 24
0.0
 34
0.0
 15
0.0
 25
0.0
 35
0.0
146
0.0
 13
0.0
 23
0.0
 33
0.0
 16
1.0
 26
0.0
 36
0.0
 17
0.0
 27
1.0
 37
0.0
 76
0
330
211
345
0
346
0
  0
ENDSEC
  0
EOF
