999
DXF file: C:\Users\sesa63760\Dev\_Creo\CAD\MCADID0003681_3D-CAD\drw0001_7.dxf
999
Pro/ENGINEER 2019471 by Parametric Technology Corporation
  0
SECTION
  2
HEADER
  9
$ACADVER
  1
AC1024
  9
$DWGCODEPAGE
  3
ANSI_1252
  9
$EXTMAX
 10
95.880548444
 20
135.6024899423
 30
0.0
  9
$EXTMIN
 10
0.0
 20
0.0
 30
0.0
  9
$LIMMIN
 10
0.0
 20
0.0
  9
$LIMMAX
 10
95.880548444
 20
135.6024899423
  9
$VIEWCTR
 10
47.940274222
 20
67.8012449711
  9
$VIEWSIZE
 40
135.6024899423
  9
$CLAYER
  8
0
  9
$LTSCALE
 40
8.8392734185
  9
$CELTYPE
  6
BYLAYER
  9
$DIMSCALE
 40
1.0
  9
$DIMASZ
 40
1.1414351005
  9
$DIMEXO
 40
1.0
  9
$DIMDLI
 40
6.1071343618
  9
$DIMEXE
 40
1.0
  9
$DIMCEN
 40
1.4464265594
  9
$DIMLFAC
 40
1.0
  9
$DIMBLK
  1
_FILLED
  9
$DIMALT
 70
0
  9
$DIMALTF
 40
0.0393700787
  9
$DIMTXT
 40
1.5980091407
  9
$DIMTOL
 70
1
  9
$DIMLIM
 70
0
  9
$DIMTFAC
 40
1.0
  9
$DIMTP
 40
0.01
  9
$DIMTM
 40
0.01
  9
$DIMGAP
 40
0.625
  9
$DIMDSEP
 70
46
  9
$AUNITS
 70
0
  9
$PDMODE
 70
3
  9
$PDSIZE
 40
0.3125
  9
$HANDSEED
  5
323
  9
$TILEMODE
 70
1
  9
$MEASUREMENT
 70
1
  9
$INSUNITS
 70
4
  0
ENDSEC
  0
SECTION
  2
CLASSES
  0
CLASS
  1
ACDBDICTIONARYWDFLT
  2
AcDbDictionaryWithDefault
  3
AutoCAD 2000
 90
0
 91
1
280
0
281
0
  0
CLASS
  1
ACDBPLACEHOLDER
  2
AcDbPlaceHolder
  3
AutoCAD 2000
 90
0
 91
1
280
0
281
0
  0
CLASS
  1
LAYOUT
  2
AcDbLayout
  3
AutoCAD 2000
 90
0
 91
0
280
0
281
0
  0
ENDSEC
  0
SECTION
  2
TABLES
  0
TABLE
  2
VPORT
  5
8
100
AcDbSymbolTable
 70
2
  0
VPORT
  5
1F4
100
AcDbSymbolTableRecord
100
AcDbViewportTableRecord
  2
*ACTIVE
 70
0
 10
0.0
 20
0.0
 11
1.0
 21
1.0
 12
47.940274222
 22
67.8012449711
 13
0.0
 23
0.0
 14
1.0
 24
1.0
 15
0.0
 25
0.0
 16
0.0
 26
0.0
 36
1.0
 17
0.0
 27
0.0
 37
0.0
 40
135.6024899423
 41
0.7070707071
 42
50.0
 43
0.0
 44
0.0
 50
0.0
 51
0.0
 71
0
 72
100
 73
1
 74
1
 75
0
 76
0
 77
0
 78
0
  0
ENDTAB
  0
TABLE
  2
LTYPE
  5
5
100
AcDbSymbolTable
 70
6
  0
LTYPE
  5
14
100
AcDbSymbolTableRecord
100
AcDbLinetypeTableRecord
  2
BYBLOCK
 70
0
  3

 72
65
 73
0
 40
0.0
  0
LTYPE
  5
15
100
AcDbSymbolTableRecord
100
AcDbLinetypeTableRecord
  2
BYLAYER
 70
0
  3

 72
65
 73
0
 40
0.0
  0
LTYPE
  5
16
100
AcDbSymbolTableRecord
100
AcDbLinetypeTableRecord
  2
CONTINUOUS
 70
64
  3
Solid line
 72
65
 73
0
 40
0.0
  0
LTYPE
  5
1F5
100
AcDbSymbolTableRecord
100
AcDbLinetypeTableRecord
  2
CENTER
 70
64
  3
____ _ ____ _ ____ _ ____ _ ____ _ ____ _ ____
 72
65
 73
4
 40
0.6
 49
0.375
 74
0
 49
-0.075
 74
0
 49
0.075
 74
0
 49
-0.075
 74
0
  0
LTYPE
  5
1F6
100
AcDbSymbolTableRecord
100
AcDbLinetypeTableRecord
  2
HIDDEN
 70
64
  3
- - - - - - - - - - - - - - - - - - - -
 72
65
 73
2
 40
0.2
 49
0.1
 74
0
 49
-0.1
 74
0
  0
LTYPE
  5
1F7
100
AcDbSymbolTableRecord
100
AcDbLinetypeTableRecord
  2
PHANTOM
 70
64
  3
_____ _ _ _____ _ _ _____ _ _ _____
 72
65
 73
6
 40
0.8
 49
0.45
 74
0
 49
-0.05
 74
0
 49
0.1
 74
0
 49
-0.05
 74
0
 49
0.1
 74
0
 49
-0.05
 74
0
  0
LTYPE
  5
1F8
100
AcDbSymbolTableRecord
100
AcDbLinetypeTableRecord
  2
DOT
 70
64
  3
. . . . . . . . . . . . . . . . . . . .
 72
65
 73
2
 40
0.2
 49
0.1
 74
0
 49
-0.1
 74
0
  0
LTYPE
  5
1F9
100
AcDbSymbolTableRecord
100
AcDbLinetypeTableRecord
  2
DASHED
 70
64
  3
- - - - - - - - - - - - - - - - - - - -
 72
65
 73
2
 40
0.2
 49
0.1
 74
0
 49
-0.1
 74
0
  0
ENDTAB
  0
TABLE
  2
LAYER
  5
2
100
AcDbSymbolTable
 70
36
  0
LAYER
  5
10
100
AcDbSymbolTableRecord
100
AcDbLayerTableRecord
  2
0
 70
0
 62
7
  6
CONTINUOUS
370
-3
390
F
  0
LAYER
  5
1FA
100
AcDbSymbolTableRecord
100
AcDbLayerTableRecord
  2
DEFAULT_1
 70
0
 62
7
  6
CENTER
370
-3
390
F
  0
LAYER
  5
1FB
100
AcDbSymbolTableRecord
100
AcDbLayerTableRecord
  2
DEFAULT_2
 70
0
 62
7
  6
HIDDEN
370
-3
390
F
  0
LAYER
  5
1FC
100
AcDbSymbolTableRecord
100
AcDbLayerTableRecord
  2
DEFAULT_3
 70
0
 62
7
  6
PHANTOM
370
-3
390
F
  0
LAYER
  5
1FD
100
AcDbSymbolTableRecord
100
AcDbLayerTableRecord
  2
00_COMPONENTS
 70
0
 62
7
  6
CONTINUOUS
370
-3
390
F
  0
LAYER
  5
1FE
100
AcDbSymbolTableRecord
100
AcDbLayerTableRecord
  2
01_1_DEFAULT_DATUMS
 70
0
 62
7
  6
CONTINUOUS
370
-3
390
F
  0
LAYER
  5
1FF
100
AcDbSymbolTableRecord
100
AcDbLayerTableRecord
  2
01_PLANES
 70
0
 62
7
  6
CONTINUOUS
370
-3
390
F
  0
LAYER
  5
200
100
AcDbSymbolTableRecord
100
AcDbLayerTableRecord
  2
02_COORD_SYS
 70
0
 62
7
  6
CONTINUOUS
370
-3
390
F
  0
LAYER
  5
201
100
AcDbSymbolTableRecord
100
AcDbLayerTableRecord
  2
03_AXES
 70
0
 62
7
  6
CONTINUOUS
370
-3
390
F
  0
LAYER
  5
202
100
AcDbSymbolTableRecord
100
AcDbLayerTableRecord
  2
04_POINTS
 70
0
 62
7
  6
CONTINUOUS
370
-3
390
F
  0
LAYER
  5
203
100
AcDbSymbolTableRecord
100
AcDbLayerTableRecord
  2
05_CURVES
 70
0
 62
7
  6
CONTINUOUS
370
-3
390
F
  0
LAYER
  5
204
100
AcDbSymbolTableRecord
100
AcDbLayerTableRecord
  2
06_SURFS
 70
0
 62
7
  6
CONTINUOUS
370
-3
390
F
  0
LAYER
  5
205
100
AcDbSymbolTableRecord
100
AcDbLayerTableRecord
  2
07_COSMETICS
 70
0
 62
7
  6
CONTINUOUS
370
-3
390
F
  0
LAYER
  5
206
100
AcDbSymbolTableRecord
100
AcDbLayerTableRecord
  2
10_NOTES
 70
0
 62
7
  6
CONTINUOUS
370
-3
390
F
  0
LAYER
  5
207
100
AcDbSymbolTableRecord
100
AcDbLayerTableRecord
  2
11_NOTES_PUB
 70
0
 62
7
  6
CONTINUOUS
370
-3
390
F
  0
LAYER
  5
208
100
AcDbSymbolTableRecord
100
AcDbLayerTableRecord
  2
13_REF_GTOL
 70
0
 62
7
  6
CONTINUOUS
370
-3
390
F
  0
LAYER
  5
209
100
AcDbSymbolTableRecord
100
AcDbLayerTableRecord
  2
16_MISC
 70
0
 62
7
  6
CONTINUOUS
370
-3
390
F
  0
LAYER
  5
20A
100
AcDbSymbolTableRecord
100
AcDbLayerTableRecord
  2
17_NO_PRINT
 70
0
 62
7
  6
CONTINUOUS
370
-3
390
F
  0
LAYER
  5
20B
100
AcDbSymbolTableRecord
100
AcDbLayerTableRecord
  2
18_DATUM_CAMS_JOINTS
 70
0
 62
7
  6
CONTINUOUS
370
-3
390
F
  0
LAYER
  5
20C
100
AcDbSymbolTableRecord
100
AcDbLayerTableRecord
  2
19_DATUM_FUNCTIONAL
 70
0
 62
7
  6
CONTINUOUS
370
-3
390
F
  0
LAYER
  5
20D
100
AcDbSymbolTableRecord
100
AcDbLayerTableRecord
  2
20_DATUM_KINEMATIC_SCHEME
 70
0
 62
7
  6
CONTINUOUS
370
-3
390
F
  0
ENDTAB
  0
TABLE
  2
STYLE
  5
3
100
AcDbSymbolTable
 70
1
  0
STYLE
  5
11
100
AcDbSymbolTableRecord
100
AcDbTextStyleTableRecord
  2
STANDARD
 70
0
 40
0.0
 41
1.0
 50
0.0
 71
0
 42
0.2
  3
ARIAL.TTF
  4

  0
STYLE
  5
20E
100
AcDbSymbolTableRecord
100
AcDbTextStyleTableRecord
  2
TEXTSTYLE_1
 70
0
 40
0.0
 41
0.8
 50
0.0
 71
0
 42
0.2
  3
gdt
  4

  0
ENDTAB
  0
TABLE
  2
VIEW
  5
6
100
AcDbSymbolTable
 70
0
  0
ENDTAB
  0
TABLE
  2
UCS
  5
7
100
AcDbSymbolTable
 70
0
  0
ENDTAB
  0
TABLE
  2
APPID
  5
9
100
AcDbSymbolTable
 70
1
  0
APPID
  5
20F
100
AcDbSymbolTableRecord
100
AcDbRegAppTableRecord
  2
ACAD
 70
0
  0
ENDTAB
  0
TABLE
  2
BLOCK_RECORD
  5
1
100
AcDbSymbolTable
 70
0
  0
BLOCK_RECORD
  5
210
100
AcDbSymbolTableRecord
100
AcDbBlockTableRecord
  2
*Model_Space
  0
BLOCK_RECORD
  5
211
100
AcDbSymbolTableRecord
100
AcDbBlockTableRecord
  2
*Paper_Space
  0
BLOCK_RECORD
  5
212
100
AcDbSymbolTableRecord
100
AcDbBlockTableRecord
  2
_FILLED
  0
ENDTAB
  0
TABLE
  2
DIMSTYLE
  5
A
100
AcDbSymbolTable
 70
1
100
AcDbDimStyleTable
 71
0
  0
DIMSTYLE
105
213
100
AcDbSymbolTableRecord
100
AcDbDimStyleTableRecord
  2
STANDARD
 70
0
  3

  4

 40
1.0
 41
1.1414351005
 42
1.0
 43
0.38
 44
1.0
 45
0.0
 46
0.0
 47
0.01
 48
0.01
140
1.5980091407
141
0.09
142
0.0
143
25.4
144
1.0
145
0.0
146
1.0
147
0.625
 71
1
 72
0
 73
0
 74
0
 75
0
 76
0
 77
1
 78
8
 79
2
170
0
171
1
172
0
173
0
174
0
175
0
176
0
177
0
178
0
270
2
179
2
271
2
272
2
273
2
274
2
275
0
280
0
281
0
282
0
283
1
284
8
285
0
286
0
287
3
288
0
340
11
278
46
341
212
342
212
343
212
344
212
  0
ENDTAB
  0
ENDSEC
  0
SECTION
  2
BLOCKS
  0
BLOCK
  5
20
100
AcDbEntity
  8
0
100
AcDbBlockBegin
  2
*Model_Space
 70
0
 10
0.0
 20
0.0
 30
0.0
  3
*Model_Space
  1

  0
ENDBLK
  5
21
100
AcDbEntity
  8
0
100
AcDbBlockEnd
  0
BLOCK
  5
1C
100
AcDbEntity
  8
0
100
AcDbBlockBegin
  2
*Paper_Space
 70
0
 10
0.0
 20
0.0
 30
0.0
  3
*Paper_Space
  1

  0
ENDBLK
  5
1D
100
AcDbEntity
  8
0
100
AcDbBlockEnd
  0
BLOCK
  5
214
100
AcDbEntity
  8
0
100
AcDbBlockBegin
  2
_FILLED
 70
64
 10
0.0
 20
0.0
  3
_FILLED
  1

  0
SOLID
  5
215
100
AcDbEntity
  8
0
  6
BYBLOCK
 62
0
100
AcDbTrace
 10
0.0
 20
0.0
 11
-1.0
 21
0.25
 12
-1.0
 22
-0.25
 13
-1.0
 23
-0.25
  0
ENDBLK
  5
216
100
AcDbEntity
  8
0
  6
BYBLOCK
 62
0
100
AcDbBlockEnd
  0
ENDSEC
  0
SECTION
  2
ENTITIES
  0
LINE
  5
217
100
AcDbEntity
  8
0
100
AcDbLine
 62
7
  6
BYLAYER
 10
10.1807069492
 20
124.9831972109
 11
10.4807069492
 21
125.2831972109
  0
LINE
  5
218
100
AcDbEntity
  8
0
100
AcDbLine
 62
7
  6
BYLAYER
 10
79.6807069492
 20
10.9831972109
 11
85.1807069492
 21
10.9831972109
  0
LINE
  5
219
100
AcDbEntity
  8
0
100
AcDbLine
 62
7
  6
BYLAYER
 10
84.0807069492
 20
11.8331972109
 11
84.6807069492
 21
11.8331972109
  0
LINE
  5
21A
100
AcDbEntity
  8
0
100
AcDbLine
 62
7
  6
BYLAYER
 10
84.6807069492
 20
11.8502331018
 11
84.8670796223
 21
11.8502331018
  0
LINE
  5
21B
100
AcDbEntity
  8
0
100
AcDbLine
 62
7
  6
BYLAYER
 10
79.6807069492
 20
10.9831972109
 11
53.1807069492
 21
11.2144592074
  0
LINE
  5
21C
100
AcDbEntity
  8
0
100
AcDbLine
 62
7
  6
BYLAYER
 10
86.0317937346
 20
13.9831972109
 11
85.6958743298
 21
13.9831972109
  0
LINE
  5
21D
100
AcDbEntity
  8
0
100
AcDbLine
 62
7
  6
BYLAYER
 10
85.6958743298
 20
14.9831972109
 11
86.0317937346
 21
14.9831972109
  0
LINE
  5
21E
100
AcDbEntity
  8
0
100
AcDbLine
 62
7
  6
BYLAYER
 10
84.8670796223
 20
17.11616132
 11
84.6807069492
 21
17.11616132
  0
LINE
  5
21F
100
AcDbEntity
  8
0
100
AcDbLine
 62
7
  6
BYLAYER
 10
84.6807069492
 20
17.1331972109
 11
84.0807069492
 21
17.1331972109
  0
LINE
  5
220
100
AcDbEntity
  8
0
100
AcDbLine
 62
7
  6
BYLAYER
 10
84.0807069492
 20
17.4831972109
 11
85.1807069492
 21
17.4831972109
  0
LINE
  5
221
100
AcDbEntity
  8
0
100
AcDbLine
 62
7
  6
BYLAYER
 10
52.8807069492
 20
18.9831972109
 11
53.1807069492
 21
18.9831972109
  0
LINE
  5
222
100
AcDbEntity
  8
0
100
AcDbLine
 62
7
  6
BYLAYER
 10
53.1807069492
 20
24.9831972109
 11
52.8807069492
 21
24.9831972109
  0
LINE
  5
223
100
AcDbEntity
  8
0
100
AcDbLine
 62
7
  6
BYLAYER
 10
10.1807069492
 20
104.2831972109
 11
10.1807069492
 21
124.9831972109
  0
LINE
  5
224
100
AcDbEntity
  8
0
100
AcDbLine
 62
7
  6
BYLAYER
 10
13.8807069492
 20
97.7831972109
 11
13.8807069492
 21
101.9831972109
  0
LINE
  5
225
100
AcDbEntity
  8
0
100
AcDbLine
 62
7
  6
BYLAYER
 10
14.6807069492
 20
101.9831972109
 11
14.6807069492
 21
103.9831972109
  0
LINE
  5
226
100
AcDbEntity
  8
0
100
AcDbLine
 62
7
  6
BYLAYER
 10
36.1807069492
 20
104.2831972109
 11
35.8807069492
 21
103.9831972109
  0
LINE
  5
227
100
AcDbEntity
  8
0
100
AcDbLine
 62
7
  6
BYLAYER
 10
31.6807069492
 20
96.9831972109
 11
32.4807069492
 21
97.7831972109
  0
LINE
  5
228
100
AcDbEntity
  8
0
100
AcDbLine
 62
7
  6
BYLAYER
 10
61.6807069492
 20
110.6831972109
 11
63.6807069492
 21
112.6831972109
  0
LINE
  5
229
100
AcDbEntity
  8
0
100
AcDbLine
 62
7
  6
BYLAYER
 10
31.6807069492
 20
101.9831972109
 11
31.6807069492
 21
103.9831972109
  0
LINE
  5
22A
100
AcDbEntity
  8
0
100
AcDbLine
 62
7
  6
BYLAYER
 10
32.4807069492
 20
101.9831972109
 11
32.4807069492
 21
97.7831972109
  0
LINE
  5
22B
100
AcDbEntity
  8
0
100
AcDbLine
 62
7
  6
BYLAYER
 10
36.1807069492
 20
124.9831972109
 11
36.1807069492
 21
104.2831972109
  0
LINE
  5
22C
100
AcDbEntity
  8
0
100
AcDbLine
 62
7
  6
BYLAYER
 10
59.2807069492
 20
97.2831972109
 11
57.2807069492
 21
95.2831972109
  0
LINE
  5
22D
100
AcDbEntity
  8
0
100
AcDbLine
 62
7
  6
BYLAYER
 10
86.0317937346
 20
63.9831972109
 11
85.6958743298
 21
63.9831972109
  0
LINE
  5
22E
100
AcDbEntity
  8
0
100
AcDbLine
 62
7
  6
BYLAYER
 10
68.7314211183
 20
80.4280959095
 11
65.3549927802
 21
78.4787140996
  0
LINE
  5
22F
100
AcDbEntity
  8
0
100
AcDbLine
 62
7
  6
BYLAYER
 10
68.881417528
 20
80.1682862155
 11
65.5049963774
 21
78.2189085553
  0
LINE
  5
230
100
AcDbEntity
  8
0
100
AcDbLine
 62
7
  6
BYLAYER
 10
66.5807069492
 20
78.1760175339
 11
65.3807069492
 21
77.4831972109
  0
LINE
  5
231
100
AcDbEntity
  8
0
100
AcDbLine
 62
7
  6
BYLAYER
 10
85.6958743298
 20
64.9831972109
 11
86.0317937346
 21
64.9831972109
  0
LINE
  5
232
100
AcDbEntity
  8
0
100
AcDbLine
 62
7
  6
BYLAYER
 10
14.6807069492
 20
96.9831972109
 11
13.8807069492
 21
97.7831972109
  0
LINE
  5
233
100
AcDbEntity
  8
0
100
AcDbLine
 62
7
  6
BYLAYER
 10
10.4807069492
 20
103.9831972109
 11
10.1807069492
 21
104.2831972109
  0
LINE
  5
234
100
AcDbEntity
  8
0
100
AcDbLine
 62
7
  6
BYLAYER
 10
52.8807069492
 20
18.9831972109
 11
52.8807069492
 21
24.9831972109
  0
LINE
  5
235
100
AcDbEntity
  8
0
100
AcDbLine
 62
7
  6
BYLAYER
 10
52.8807069492
 20
92.9831972109
 11
52.8807069492
 21
114.9831972109
  0
LINE
  5
236
100
AcDbEntity
  8
0
100
AcDbLine
 62
7
  6
BYLAYER
 10
53.1807069492
 20
11.2144592074
 11
53.1807069492
 21
118.7519352144
  0
LINE
  5
237
100
AcDbEntity
  8
0
100
AcDbLine
 62
7
  6
BYLAYER
 10
53.2557069492
 20
89.0581972109
 11
53.2557069492
 21
118.9081972109
  0
LINE
  5
238
100
AcDbEntity
  8
0
100
AcDbLine
 62
7
  6
BYLAYER
 10
69.5814247156
 20
74.7981082103
 11
69.8057033589
 21
74.9275955454
  0
LINE
  5
239
100
AcDbEntity
  8
0
100
AcDbLine
 62
7
  6
BYLAYER
 10
68.3307069492
 20
68.7831972109
 11
68.0307069492
 21
68.7831972109
  0
LINE
  5
23A
100
AcDbEntity
  8
0
100
AcDbLine
 62
7
  6
BYLAYER
 10
53.1807069492
 20
70.7831972109
 11
85.1807069492
 21
70.7831972109
  0
LINE
  5
23B
100
AcDbEntity
  8
0
100
AcDbLine
 62
7
  6
BYLAYER
 10
55.8807069492
 20
89.5982443812
 11
55.8807069492
 21
91.5245064194
  0
LINE
  5
23C
100
AcDbEntity
  8
0
100
AcDbLine
 62
7
  6
BYLAYER
 10
55.8807069492
 20
92.4418880024
 11
55.8807069492
 21
94.3681500406
  0
LINE
  5
23D
100
AcDbEntity
  8
0
100
AcDbLine
 62
7
  6
BYLAYER
 10
55.8807069492
 20
113.5982443812
 11
55.8807069492
 21
115.5245064194
  0
LINE
  5
23E
100
AcDbEntity
  8
0
100
AcDbLine
 62
7
  6
BYLAYER
 10
55.8807069492
 20
116.4418880024
 11
55.8807069492
 21
118.3681500406
  0
LINE
  5
23F
100
AcDbEntity
  8
0
100
AcDbLine
 62
7
  6
BYLAYER
 10
56.4807069492
 20
89.5982443812
 11
56.4807069492
 21
91.5245064194
  0
LINE
  5
240
100
AcDbEntity
  8
0
100
AcDbLine
 62
7
  6
BYLAYER
 10
56.4807069492
 20
92.4418880024
 11
56.4807069492
 21
94.3681500406
  0
LINE
  5
241
100
AcDbEntity
  8
0
100
AcDbLine
 62
7
  6
BYLAYER
 10
56.4807069492
 20
113.5982443812
 11
56.4807069492
 21
115.5245064194
  0
LINE
  5
242
100
AcDbEntity
  8
0
100
AcDbLine
 62
7
  6
BYLAYER
 10
56.4807069492
 20
116.4418880024
 11
56.4807069492
 21
118.3681500406
  0
LINE
  5
243
100
AcDbEntity
  8
0
100
AcDbLine
 62
7
  6
BYLAYER
 10
57.2807069492
 20
112.6831972109
 11
57.2807069492
 21
95.2831972109
  0
LINE
  5
244
100
AcDbEntity
  8
0
100
AcDbLine
 62
7
  6
BYLAYER
 10
69.7314211184
 20
74.5382985123
 11
69.9557069491
 21
74.6677899971
  0
LINE
  5
245
100
AcDbEntity
  8
0
100
AcDbLine
 62
7
  6
BYLAYER
 10
70.4557069492
 20
75.5338154009
 11
70.1557069492
 21
75.5338154009
  0
LINE
  5
246
100
AcDbEntity
  8
0
100
AcDbLine
 62
7
  6
BYLAYER
 10
84.0807069492
 20
76.2831972109
 11
85.1807069492
 21
76.2831972109
  0
LINE
  5
247
100
AcDbEntity
  8
0
100
AcDbLine
 62
7
  6
BYLAYER
 10
84.0807069492
 20
76.6331972109
 11
84.6807069492
 21
76.6331972109
  0
LINE
  5
248
100
AcDbEntity
  8
0
100
AcDbLine
 62
7
  6
BYLAYER
 10
84.6807069492
 20
76.6502331018
 11
84.8670796223
 21
76.6502331018
  0
LINE
  5
249
100
AcDbEntity
  8
0
100
AcDbLine
 62
7
  6
BYLAYER
 10
68.5807069492
 20
77.2831972109
 11
66.5807069492
 21
77.2831972109
  0
LINE
  5
24A
100
AcDbEntity
  8
0
100
AcDbLine
 62
7
  6
BYLAYER
 10
65.1549927801
 20
77.3537057262
 11
64.8549927801
 21
77.3537057262
  0
LINE
  5
24B
100
AcDbEntity
  8
0
100
AcDbLine
 62
7
  6
BYLAYER
 10
61.4807069492
 20
77.4831972109
 11
59.4807069492
 21
77.4831972109
  0
LINE
  5
24C
100
AcDbEntity
  8
0
100
AcDbLine
 62
7
  6
BYLAYER
 10
64.8549927801
 20
77.6126886957
 11
65.1549927801
 21
77.6126886957
  0
LINE
  5
24D
100
AcDbEntity
  8
0
100
AcDbLine
 62
7
  6
BYLAYER
 10
66.5807069492
 20
77.6831972109
 11
68.5807069492
 21
77.6831972109
  0
LINE
  5
24E
100
AcDbEntity
  8
0
100
AcDbLine
 62
7
  6
BYLAYER
 10
59.4807069492
 20
77.7831972109
 11
61.4807069492
 21
77.7831972109
  0
LINE
  5
24F
100
AcDbEntity
  8
0
100
AcDbLine
 62
7
  6
BYLAYER
 10
58.1807069492
 20
89.7471292334
 11
58.1807069492
 21
89.0581972109
  0
LINE
  5
250
100
AcDbEntity
  8
0
100
AcDbLine
 62
7
  6
BYLAYER
 10
58.1807069492
 20
118.2192651884
 11
58.1807069492
 21
118.9081972109
  0
LINE
  5
251
100
AcDbEntity
  8
0
100
AcDbLine
 62
7
  6
BYLAYER
 10
59.2807069492
 20
110.6831972109
 11
59.2807069492
 21
97.2831972109
  0
LINE
  5
252
100
AcDbEntity
  8
0
100
AcDbLine
 62
7
  6
BYLAYER
 10
59.4807069492
 20
77.4831972109
 11
59.4807069492
 21
77.7831972109
  0
LINE
  5
253
100
AcDbEntity
  8
0
100
AcDbLine
 62
7
  6
BYLAYER
 10
61.4807069492
 20
77.7831972109
 11
61.4807069492
 21
77.4831972109
  0
LINE
  5
254
100
AcDbEntity
  8
0
100
AcDbLine
 62
7
  6
BYLAYER
 10
61.6807069492
 20
97.2831972109
 11
61.6807069492
 21
110.6831972109
  0
LINE
  5
255
100
AcDbEntity
  8
0
100
AcDbLine
 62
7
  6
BYLAYER
 10
65.3549927801
 20
76.4876803223
 11
65.5049927801
 21
76.7474879434
  0
LINE
  5
256
100
AcDbEntity
  8
0
100
AcDbLine
 62
7
  6
BYLAYER
 10
69.5814211185
 20
80.1682882883
 11
69.7314211185
 21
80.4280959094
  0
LINE
  5
257
100
AcDbEntity
  8
0
100
AcDbLine
 62
7
  6
BYLAYER
 10
69.9557069492
 20
80.2986044247
 11
69.8057069492
 21
80.0387968035
  0
LINE
  5
258
100
AcDbEntity
  8
0
100
AcDbLine
 62
7
  6
BYLAYER
 10
86.0317937346
 20
78.7831972109
 11
85.6958743298
 21
78.7831972109
  0
LINE
  5
259
100
AcDbEntity
  8
0
100
AcDbLine
 62
7
  6
BYLAYER
 10
70.1557069492
 20
79.4325790208
 11
70.4557069492
 21
79.4325790208
  0
LINE
  5
25A
100
AcDbEntity
  8
0
100
AcDbLine
 62
7
  6
BYLAYER
 10
85.6958743298
 20
79.7831972109
 11
86.0317937346
 21
79.7831972109
  0
LINE
  5
25B
100
AcDbEntity
  8
0
100
AcDbLine
 62
7
  6
BYLAYER
 10
84.8670796223
 20
81.91616132
 11
84.6807069492
 21
81.91616132
  0
LINE
  5
25C
100
AcDbEntity
  8
0
100
AcDbLine
 62
7
  6
BYLAYER
 10
84.6807069492
 20
81.9331972109
 11
84.0807069492
 21
81.9331972109
  0
LINE
  5
25D
100
AcDbEntity
  8
0
100
AcDbLine
 62
7
  6
BYLAYER
 10
62.6807069492
 20
77.4829963324
 11
62.6807069492
 21
82.7831972109
  0
LINE
  5
25E
100
AcDbEntity
  8
0
100
AcDbLine
 62
7
  6
BYLAYER
 10
63.6807069492
 20
95.2831972109
 11
63.6807069492
 21
112.6831972109
  0
LINE
  5
25F
100
AcDbEntity
  8
0
100
AcDbLine
 62
7
  6
BYLAYER
 10
64.8549927801
 20
77.6126886957
 11
64.8549927801
 21
77.3537057262
  0
LINE
  5
260
100
AcDbEntity
  8
0
100
AcDbLine
 62
7
  6
BYLAYER
 10
65.1549927801
 20
77.3537098718
 11
65.1549927801
 21
77.612684542
  0
LINE
  5
261
100
AcDbEntity
  8
0
100
AcDbLine
 62
7
  6
BYLAYER
 10
66.5807069492
 20
78.1760175339
 11
66.5807069492
 21
77.6831972109
  0
LINE
  5
262
100
AcDbEntity
  8
0
100
AcDbLine
 62
7
  6
BYLAYER
 10
66.5807069492
 20
77.2831972109
 11
66.5807069492
 21
76.7903768879
  0
LINE
  5
263
100
AcDbEntity
  8
0
100
AcDbLine
 62
7
  6
BYLAYER
 10
68.8814211182
 20
74.7981061335
 11
68.7314211182
 21
74.5382985124
  0
LINE
  5
264
100
AcDbEntity
  8
0
100
AcDbLine
 62
7
  6
BYLAYER
 10
53.1807069492
 20
82.7831972109
 11
85.1807069492
 21
82.7831972109
  0
LINE
  5
265
100
AcDbEntity
  8
0
100
AcDbLine
 62
7
  6
BYLAYER
 10
65.3549927801
 20
76.4876803223
 11
68.7314211183
 21
74.5382985124
  0
LINE
  5
266
100
AcDbEntity
  8
0
100
AcDbLine
 62
7
  6
BYLAYER
 10
65.5049963705
 20
76.7474858705
 11
68.8814175211
 21
74.7981082103
  0
LINE
  5
267
100
AcDbEntity
  8
0
100
AcDbLine
 62
7
  6
BYLAYER
 10
65.3807069492
 20
77.4831972109
 11
66.5807069492
 21
76.7903768879
  0
LINE
  5
268
100
AcDbEntity
  8
0
100
AcDbLine
 62
7
  6
BYLAYER
 10
68.0307069492
 20
68.7831972109
 11
68.0307069492
 21
70.7831972109
  0
LINE
  5
269
100
AcDbEntity
  8
0
100
AcDbLine
 62
7
  6
BYLAYER
 10
68.3307069492
 20
70.7831972109
 11
68.3307069492
 21
68.7831972109
  0
LINE
  5
26A
100
AcDbEntity
  8
0
100
AcDbLine
 62
7
  6
BYLAYER
 10
70.1557069492
 20
79.4325748672
 11
70.1557069492
 21
75.5338195467
  0
LINE
  5
26B
100
AcDbEntity
  8
0
100
AcDbLine
 62
7
  6
BYLAYER
 10
70.4557069492
 20
75.533815401
 11
70.4557069492
 21
79.4325790208
  0
LINE
  5
26C
100
AcDbEntity
  8
0
100
AcDbLine
 62
7
  6
BYLAYER
 10
85.1807069492
 20
88.4831972109
 11
79.6807069492
 21
88.4831972109
  0
LINE
  5
26D
100
AcDbEntity
  8
0
100
AcDbLine
 62
7
  6
BYLAYER
 10
83.1807069492
 20
88.9831972109
 11
79.6807069492
 21
88.9831972109
  0
LINE
  5
26E
100
AcDbEntity
  8
0
100
AcDbLine
 62
7
  6
BYLAYER
 10
53.2557069492
 20
89.0581972109
 11
83.1057069492
 21
89.0581972109
  0
LINE
  5
26F
100
AcDbEntity
  8
0
100
AcDbLine
 62
7
  6
BYLAYER
 10
69.805703352
 20
80.0387988804
 11
69.5814247087
 21
80.1682862155
  0
LINE
  5
270
100
AcDbEntity
  8
0
100
AcDbLine
 62
7
  6
BYLAYER
 10
69.9557069492
 20
80.2986044247
 11
69.7314211185
 21
80.4280959095
  0
LINE
  5
271
100
AcDbEntity
  8
0
100
AcDbLine
 62
7
  6
BYLAYER
 10
65.5049927802
 20
78.2189064785
 11
65.3549927802
 21
78.4787140996
  0
LINE
  5
272
100
AcDbEntity
  8
0
100
AcDbLine
 62
7
  6
BYLAYER
 10
69.7314211184
 20
74.5382985123
 11
69.5814211184
 21
74.7981061334
  0
LINE
  5
273
100
AcDbEntity
  8
0
100
AcDbLine
 62
7
  6
BYLAYER
 10
69.8057069491
 20
74.9275976182
 11
69.9557069491
 21
74.6677899971
  0
LINE
  5
274
100
AcDbEntity
  8
0
100
AcDbLine
 62
7
  6
BYLAYER
 10
73.6807069492
 20
77.4831972109
 11
73.6807069492
 21
82.7831972109
  0
LINE
  5
275
100
AcDbEntity
  8
0
100
AcDbLine
 62
7
  6
BYLAYER
 10
54.5925017864
 20
91.6831972109
 11
55.8144677167
 21
91.6831972109
  0
LINE
  5
276
100
AcDbEntity
  8
0
100
AcDbLine
 62
7
  6
BYLAYER
 10
56.5469461818
 20
91.6831972109
 11
57.7689121121
 21
91.6831972109
  0
LINE
  5
277
100
AcDbEntity
  8
0
100
AcDbLine
 62
7
  6
BYLAYER
 10
78.5925017864
 20
91.6831972109
 11
79.8144677167
 21
91.6831972109
  0
LINE
  5
278
100
AcDbEntity
  8
0
100
AcDbLine
 62
7
  6
BYLAYER
 10
80.5469461818
 20
91.6831972109
 11
81.7689121121
 21
91.6831972109
  0
LINE
  5
279
100
AcDbEntity
  8
0
100
AcDbLine
 62
7
  6
BYLAYER
 10
54.5925017864
 20
92.2831972109
 11
55.8144677167
 21
92.2831972109
  0
LINE
  5
27A
100
AcDbEntity
  8
0
100
AcDbLine
 62
7
  6
BYLAYER
 10
56.5469461818
 20
92.2831972109
 11
57.7689121121
 21
92.2831972109
  0
LINE
  5
27B
100
AcDbEntity
  8
0
100
AcDbLine
 62
7
  6
BYLAYER
 10
78.5925017864
 20
92.2831972109
 11
79.8144677167
 21
92.2831972109
  0
LINE
  5
27C
100
AcDbEntity
  8
0
100
AcDbLine
 62
7
  6
BYLAYER
 10
80.5469461818
 20
92.2831972109
 11
81.7689121121
 21
92.2831972109
  0
LINE
  5
27D
100
AcDbEntity
  8
0
100
AcDbLine
 62
7
  6
BYLAYER
 10
85.1807069492
 20
92.4831972109
 11
83.1807069492
 21
92.4831972109
  0
LINE
  5
27E
100
AcDbEntity
  8
0
100
AcDbLine
 62
7
  6
BYLAYER
 10
52.8807069492
 20
92.9831972109
 11
53.1807069492
 21
92.9831972109
  0
LINE
  5
27F
100
AcDbEntity
  8
0
100
AcDbLine
 62
7
  6
BYLAYER
 10
53.9446389717
 20
93.9831972109
 11
53.2557069492
 21
93.9831972109
  0
LINE
  5
280
100
AcDbEntity
  8
0
100
AcDbLine
 62
7
  6
BYLAYER
 10
83.1807069492
 20
93.9831972109
 11
85.1807069492
 21
93.9831972109
  0
LINE
  5
281
100
AcDbEntity
  8
0
100
AcDbLine
 62
7
  6
BYLAYER
 10
57.2807069492
 20
95.2831972109
 11
63.6807069492
 21
95.2831972109
  0
LINE
  5
282
100
AcDbEntity
  8
0
100
AcDbLine
 62
7
  6
BYLAYER
 10
53.1807069492
 20
95.9831972109
 11
52.8807069492
 21
95.9831972109
  0
LINE
  5
283
100
AcDbEntity
  8
0
100
AcDbLine
 62
7
  6
BYLAYER
 10
68.7314211184
 20
80.4280959095
 11
68.8814211184
 21
80.1682882884
  0
LINE
  5
284
100
AcDbEntity
  8
0
100
AcDbLine
 62
7
  6
BYLAYER
 10
78.1807069492
 20
118.2192651884
 11
78.1807069492
 21
118.9081972109
  0
LINE
  5
285
100
AcDbEntity
  8
0
100
AcDbLine
 62
7
  6
BYLAYER
 10
79.6807069492
 20
10.9831972109
 11
79.6807069492
 21
88.9831972109
  0
LINE
  5
286
100
AcDbEntity
  8
0
100
AcDbLine
 62
7
  6
BYLAYER
 10
79.8807069492
 20
89.5982443812
 11
79.8807069492
 21
91.5245064194
  0
LINE
  5
287
100
AcDbEntity
  8
0
100
AcDbLine
 62
7
  6
BYLAYER
 10
79.8807069492
 20
92.4418880024
 11
79.8807069492
 21
94.3681500406
  0
LINE
  5
288
100
AcDbEntity
  8
0
100
AcDbLine
 62
7
  6
BYLAYER
 10
79.8807069492
 20
113.5982443812
 11
79.8807069492
 21
115.5245064194
  0
LINE
  5
289
100
AcDbEntity
  8
0
100
AcDbLine
 62
7
  6
BYLAYER
 10
79.8807069492
 20
116.4418880024
 11
79.8807069492
 21
118.3681500406
  0
LINE
  5
28A
100
AcDbEntity
  8
0
100
AcDbLine
 62
7
  6
BYLAYER
 10
80.4807069492
 20
89.5982443812
 11
80.4807069492
 21
91.5245064194
  0
LINE
  5
28B
100
AcDbEntity
  8
0
100
AcDbLine
 62
7
  6
BYLAYER
 10
80.4807069492
 20
92.4418880024
 11
80.4807069492
 21
94.3681500406
  0
LINE
  5
28C
100
AcDbEntity
  8
0
100
AcDbLine
 62
7
  6
BYLAYER
 10
80.4807069492
 20
113.5982443812
 11
80.4807069492
 21
115.5245064194
  0
LINE
  5
28D
100
AcDbEntity
  8
0
100
AcDbLine
 62
7
  6
BYLAYER
 10
80.4807069492
 20
116.4418880024
 11
80.4807069492
 21
118.3681500406
  0
LINE
  5
28E
100
AcDbEntity
  8
0
100
AcDbLine
 62
7
  6
BYLAYER
 10
31.6806979505
 20
96.9831972109
 11
14.6807159479
 21
96.9831972109
  0
LINE
  5
28F
100
AcDbEntity
  8
0
100
AcDbLine
 62
7
  6
BYLAYER
 10
59.2807069492
 20
97.2831972109
 11
61.6807069492
 21
97.2831972109
  0
LINE
  5
290
100
AcDbEntity
  8
0
100
AcDbLine
 62
7
  6
BYLAYER
 10
32.4807069492
 20
97.7831972109
 11
13.8807069492
 21
97.7831972109
  0
LINE
  5
291
100
AcDbEntity
  8
0
100
AcDbLine
 62
7
  6
BYLAYER
 10
85.1807069492
 20
97.9831972109
 11
83.1807069492
 21
97.9831972109
  0
LINE
  5
292
100
AcDbEntity
  8
0
100
AcDbLine
 62
7
  6
BYLAYER
 10
61.6807069492
 20
97.2831972109
 11
63.6807069492
 21
95.2831972109
  0
LINE
  5
293
100
AcDbEntity
  8
0
100
AcDbLine
 62
7
  6
BYLAYER
 10
35.8807069492
 20
125.2831972109
 11
36.1807069492
 21
124.9831972109
  0
LINE
  5
294
100
AcDbEntity
  8
0
100
AcDbLine
 62
7
  6
BYLAYER
 10
83.1057069492
 20
89.0581972109
 11
83.1057069492
 21
118.9081972109
  0
LINE
  5
295
100
AcDbEntity
  8
0
100
AcDbLine
 62
7
  6
BYLAYER
 10
83.1807069492
 20
88.9831972109
 11
83.1807069492
 21
119.0137412482
  0
LINE
  5
296
100
AcDbEntity
  8
0
100
AcDbLine
 62
7
  6
BYLAYER
 10
84.0807069492
 20
17.4831972109
 11
84.0807069492
 21
10.9831972109
  0
LINE
  5
297
100
AcDbEntity
  8
0
100
AcDbLine
 62
7
  6
BYLAYER
 10
84.0807069492
 20
76.2831972109
 11
84.0807069492
 21
82.7831972109
  0
LINE
  5
298
100
AcDbEntity
  8
0
100
AcDbLine
 62
7
  6
BYLAYER
 10
84.6807069492
 20
81.9331972109
 11
84.6807069492
 21
81.91616132
  0
LINE
  5
299
100
AcDbEntity
  8
0
100
AcDbLine
 62
7
  6
BYLAYER
 10
84.6807069492
 20
76.6502331018
 11
84.6807069492
 21
76.6331972109
  0
LINE
  5
29A
100
AcDbEntity
  8
0
100
AcDbLine
 62
7
  6
BYLAYER
 10
84.6807069492
 20
17.1331972109
 11
84.6807069492
 21
17.11616132
  0
LINE
  5
29B
100
AcDbEntity
  8
0
100
AcDbLine
 62
7
  6
BYLAYER
 10
84.6807069492
 20
11.8502331018
 11
84.6807069492
 21
11.8331972109
  0
LINE
  5
29C
100
AcDbEntity
  8
0
100
AcDbLine
 62
7
  6
BYLAYER
 10
84.8670796223
 20
81.91616132
 11
84.8670796223
 21
76.6502331018
  0
LINE
  5
29D
100
AcDbEntity
  8
0
100
AcDbLine
 62
7
  6
BYLAYER
 10
84.8670796223
 20
17.11616132
 11
84.8670796223
 21
11.8502331018
  0
LINE
  5
29E
100
AcDbEntity
  8
0
100
AcDbLine
 62
7
  6
BYLAYER
 10
85.1807069492
 20
12.1645995659
 11
85.1807069492
 21
10.9831972109
  0
LINE
  5
29F
100
AcDbEntity
  8
0
100
AcDbLine
 62
7
  6
BYLAYER
 10
85.1807069492
 20
16.8017948559
 11
85.1807069492
 21
76.9645995659
  0
LINE
  5
2A0
100
AcDbEntity
  8
0
100
AcDbLine
 62
7
  6
BYLAYER
 10
85.1807069492
 20
81.6017948559
 11
85.1807069492
 21
118.9831972109
  0
LINE
  5
2A1
100
AcDbEntity
  8
0
100
AcDbLine
 62
7
  6
BYLAYER
 10
13.8807069492
 20
101.9831972109
 11
32.4807069492
 21
101.9831972109
  0
LINE
  5
2A2
100
AcDbEntity
  8
0
100
AcDbLine
 62
7
  6
BYLAYER
 10
86.0317937346
 20
103.4831972109
 11
85.6958743298
 21
103.4831972109
  0
LINE
  5
2A3
100
AcDbEntity
  8
0
100
AcDbLine
 62
7
  6
BYLAYER
 10
35.8807069492
 20
103.9831972109
 11
10.4807069492
 21
103.9831972109
  0
LINE
  5
2A4
100
AcDbEntity
  8
0
100
AcDbLine
 62
7
  6
BYLAYER
 10
36.1807069492
 20
104.2831972109
 11
10.1807069492
 21
104.2831972109
  0
LINE
  5
2A5
100
AcDbEntity
  8
0
100
AcDbLine
 62
7
  6
BYLAYER
 10
85.6958743298
 20
104.4831972109
 11
86.0317937346
 21
104.4831972109
  0
LINE
  5
2A6
100
AcDbEntity
  8
0
100
AcDbLine
 62
7
  6
BYLAYER
 10
59.2807069492
 20
110.6831972109
 11
57.2807069492
 21
112.6831972109
  0
LINE
  5
2A7
100
AcDbEntity
  8
0
100
AcDbLine
 62
7
  6
BYLAYER
 10
85.1807069492
 20
109.9831972109
 11
83.1807069492
 21
109.9831972109
  0
LINE
  5
2A8
100
AcDbEntity
  8
0
100
AcDbLine
 62
7
  6
BYLAYER
 10
61.6807069492
 20
110.6831972109
 11
59.2807069492
 21
110.6831972109
  0
LINE
  5
2A9
100
AcDbEntity
  8
0
100
AcDbLine
 62
7
  6
BYLAYER
 10
52.8807069492
 20
111.9831972109
 11
53.1807069492
 21
111.9831972109
  0
LINE
  5
2AA
100
AcDbEntity
  8
0
100
AcDbLine
 62
7
  6
BYLAYER
 10
63.6807069492
 20
112.6831972109
 11
57.2807069492
 21
112.6831972109
  0
LINE
  5
2AB
100
AcDbEntity
  8
0
100
AcDbLine
 62
7
  6
BYLAYER
 10
85.1807069492
 20
113.9831972109
 11
83.1807069492
 21
113.9831972109
  0
LINE
  5
2AC
100
AcDbEntity
  8
0
100
AcDbLine
 62
7
  6
BYLAYER
 10
53.9446389717
 20
113.9831972109
 11
53.2557069492
 21
113.9831972109
  0
LINE
  5
2AD
100
AcDbEntity
  8
0
100
AcDbLine
 62
7
  6
BYLAYER
 10
82.4167749267
 20
113.9831972109
 11
83.1057069492
 21
113.9831972109
  0
LINE
  5
2AE
100
AcDbEntity
  8
0
100
AcDbLine
 62
7
  6
BYLAYER
 10
83.1807069492
 20
119.0137412482
 11
71.0865581901
 21
118.9081972109
  0
LINE
  5
2AF
100
AcDbEntity
  8
0
100
AcDbLine
 62
7
  6
BYLAYER
 10
53.2570648117
 20
118.7526015794
 11
53.1807069492
 21
118.7519352144
  0
LINE
  5
2B0
100
AcDbEntity
  8
0
100
AcDbLine
 62
7
  6
BYLAYER
 10
86.0317937346
 20
114.9831972109
 11
85.6958743298
 21
114.9831972109
  0
LINE
  5
2B1
100
AcDbEntity
  8
0
100
AcDbLine
 62
7
  6
BYLAYER
 10
53.1807069492
 20
114.9831972109
 11
52.8807069492
 21
114.9831972109
  0
LINE
  5
2B2
100
AcDbEntity
  8
0
100
AcDbLine
 62
7
  6
BYLAYER
 10
54.5925017864
 20
115.6831972109
 11
55.8144677167
 21
115.6831972109
  0
LINE
  5
2B3
100
AcDbEntity
  8
0
100
AcDbLine
 62
7
  6
BYLAYER
 10
56.5469461818
 20
115.6831972109
 11
57.7689121121
 21
115.6831972109
  0
LINE
  5
2B4
100
AcDbEntity
  8
0
100
AcDbLine
 62
7
  6
BYLAYER
 10
78.5925017864
 20
115.6831972109
 11
79.8144677167
 21
115.6831972109
  0
LINE
  5
2B5
100
AcDbEntity
  8
0
100
AcDbLine
 62
7
  6
BYLAYER
 10
80.5469461818
 20
115.6831972109
 11
81.7689121121
 21
115.6831972109
  0
LINE
  5
2B6
100
AcDbEntity
  8
0
100
AcDbLine
 62
7
  6
BYLAYER
 10
85.6958743298
 20
115.9831972109
 11
86.0317937346
 21
115.9831972109
  0
LINE
  5
2B7
100
AcDbEntity
  8
0
100
AcDbLine
 62
7
  6
BYLAYER
 10
54.5925017864
 20
116.2831972109
 11
55.8144677167
 21
116.2831972109
  0
LINE
  5
2B8
100
AcDbEntity
  8
0
100
AcDbLine
 62
7
  6
BYLAYER
 10
56.5469461818
 20
116.2831972109
 11
57.7689121121
 21
116.2831972109
  0
LINE
  5
2B9
100
AcDbEntity
  8
0
100
AcDbLine
 62
7
  6
BYLAYER
 10
78.5925017864
 20
116.2831972109
 11
79.8144677167
 21
116.2831972109
  0
LINE
  5
2BA
100
AcDbEntity
  8
0
100
AcDbLine
 62
7
  6
BYLAYER
 10
80.5469461818
 20
116.2831972109
 11
81.7689121121
 21
116.2831972109
  0
LINE
  5
2BB
100
AcDbEntity
  8
0
100
AcDbLine
 62
7
  6
BYLAYER
 10
53.2557069492
 20
118.9081972109
 11
83.1057069492
 21
118.9081972109
  0
LINE
  5
2BC
100
AcDbEntity
  8
0
100
AcDbLine
 62
7
  6
BYLAYER
 10
85.1807069492
 20
118.9831972109
 11
83.1807069492
 21
118.9831972109
  0
LINE
  5
2BD
100
AcDbEntity
  8
0
100
AcDbLine
 62
7
  6
BYLAYER
 10
10.1807069492
 20
124.9831972109
 11
36.1807069492
 21
124.9831972109
  0
LINE
  5
2BE
100
AcDbEntity
  8
0
100
AcDbLine
 62
7
  6
BYLAYER
 10
10.4807069492
 20
125.2831972109
 11
35.8807069492
 21
125.2831972109
  0
ARC
  5
2BF
100
AcDbEntity
  8
0
100
AcDbCircle
 62
7
  6
BYLAYER
 10
53.9558255876
 20
91.9831972109
 40
3.8248697812
100
AcDbArc
 50
355.5014398661
 51
4.4985601339
  0
ARC
  5
2C0
100
AcDbEntity
  8
0
100
AcDbCircle
 62
7
  6
BYLAYER
 10
58.4055883109
 20
91.9831972109
 40
3.8248697812
100
AcDbArc
 50
175.5014398661
 51
184.4985601339
  0
ARC
  5
2C1
100
AcDbEntity
  8
0
100
AcDbCircle
 62
7
  6
BYLAYER
 10
56.1807069492
 20
91.9831972109
 40
3.0
100
AcDbArc
 50
311.8103148958
 51
138.1896851042
  0
CIRCLE
  5
2C2
100
AcDbEntity
  8
0
100
AcDbCircle
 62
7
  6
BYLAYER
 10
56.1807069492
 20
91.9831972109
 40
2.65
  0
ARC
  5
2C3
100
AcDbEntity
  8
0
100
AcDbCircle
 62
7
  6
BYLAYER
 10
56.1807069492
 20
91.9831972109
 40
2.4037470749
100
AcDbArc
 50
82.8304967592
 51
97.1695032408
  0
ARC
  5
2C4
100
AcDbEntity
  8
0
100
AcDbCircle
 62
7
  6
BYLAYER
 10
56.1807069492
 20
91.9831972109
 40
2.4037470749
100
AcDbArc
 50
262.8304967592
 51
277.1695032408
  0
ARC
  5
2C5
100
AcDbEntity
  8
0
100
AcDbCircle
 62
7
  6
BYLAYER
 10
56.1807069492
 20
91.9831972109
 40
0.7438045605
100
AcDbArc
 50
203.7866285976
 51
246.2133714024
  0
ARC
  5
2C6
100
AcDbEntity
  8
0
100
AcDbCircle
 62
7
  6
BYLAYER
 10
56.1807069492
 20
91.9831972109
 40
0.7438045605
100
AcDbArc
 50
293.7866285976
 51
336.2133714024
  0
ARC
  5
2C7
100
AcDbEntity
  8
0
100
AcDbCircle
 62
7
  6
BYLAYER
 10
56.1807069492
 20
91.9831972109
 40
0.7438045605
100
AcDbArc
 50
23.7866285976
 51
66.2133714024
  0
ARC
  5
2C8
100
AcDbEntity
  8
0
100
AcDbCircle
 62
7
  6
BYLAYER
 10
56.1807069492
 20
91.9831972109
 40
0.7438045605
100
AcDbArc
 50
113.7866285976
 51
156.2133714024
  0
ARC
  5
2C9
100
AcDbEntity
  8
0
100
AcDbCircle
 62
7
  6
BYLAYER
 10
56.1807069492
 20
91.9831972109
 40
0.5480850684
100
AcDbArc
 50
56.8138946132
 51
123.1861053868
  0
ARC
  5
2CA
100
AcDbEntity
  8
0
100
AcDbCircle
 62
7
  6
BYLAYER
 10
56.1807069492
 20
91.9831972109
 40
0.5480850684
100
AcDbArc
 50
236.8138946132
 51
303.1861053868
  0
CIRCLE
  5
2CB
100
AcDbEntity
  8
0
100
AcDbCircle
 62
7
  6
BYLAYER
 10
56.1807069492
 20
91.9831972109
 40
0.3863703305
  0
ARC
  5
2CC
100
AcDbEntity
  8
0
100
AcDbCircle
 62
7
  6
BYLAYER
 10
53.9558255876
 20
115.9831972109
 40
3.8248697812
100
AcDbArc
 50
355.5014398661
 51
4.4985601339
  0
ARC
  5
2CD
100
AcDbEntity
  8
0
100
AcDbCircle
 62
7
  6
BYLAYER
 10
58.4055883109
 20
115.9831972109
 40
3.8248697812
100
AcDbArc
 50
175.5014398661
 51
184.4985601339
  0
ARC
  5
2CE
100
AcDbEntity
  8
0
100
AcDbCircle
 62
7
  6
BYLAYER
 10
56.1807069492
 20
115.9831972109
 40
3.0
100
AcDbArc
 50
221.8103148958
 51
48.1896851042
  0
CIRCLE
  5
2CF
100
AcDbEntity
  8
0
100
AcDbCircle
 62
7
  6
BYLAYER
 10
56.1807069492
 20
115.9831972109
 40
2.65
  0
ARC
  5
2D0
100
AcDbEntity
  8
0
100
AcDbCircle
 62
7
  6
BYLAYER
 10
56.1807069492
 20
115.9831972109
 40
2.4037470749
100
AcDbArc
 50
82.8304967592
 51
97.1695032408
  0
ARC
  5
2D1
100
AcDbEntity
  8
0
100
AcDbCircle
 62
7
  6
BYLAYER
 10
56.1807069492
 20
115.9831972109
 40
2.4037470749
100
AcDbArc
 50
262.8304967592
 51
277.1695032408
  0
ARC
  5
2D2
100
AcDbEntity
  8
0
100
AcDbCircle
 62
7
  6
BYLAYER
 10
56.1807069492
 20
115.9831972109
 40
0.7438045605
100
AcDbArc
 50
203.7866285976
 51
246.2133714024
  0
ARC
  5
2D3
100
AcDbEntity
  8
0
100
AcDbCircle
 62
7
  6
BYLAYER
 10
56.1807069492
 20
115.9831972109
 40
0.7438045605
100
AcDbArc
 50
293.7866285976
 51
336.2133714024
  0
ARC
  5
2D4
100
AcDbEntity
  8
0
100
AcDbCircle
 62
7
  6
BYLAYER
 10
56.1807069492
 20
115.9831972109
 40
0.7438045605
100
AcDbArc
 50
23.7866285976
 51
66.2133714024
  0
ARC
  5
2D5
100
AcDbEntity
  8
0
100
AcDbCircle
 62
7
  6
BYLAYER
 10
56.1807069492
 20
115.9831972109
 40
0.7438045605
100
AcDbArc
 50
113.7866285976
 51
156.2133714024
  0
ARC
  5
2D6
100
AcDbEntity
  8
0
100
AcDbCircle
 62
7
  6
BYLAYER
 10
56.1807069492
 20
115.9831972109
 40
0.5480850684
100
AcDbArc
 50
56.8138946132
 51
123.1861053868
  0
ARC
  5
2D7
100
AcDbEntity
  8
0
100
AcDbCircle
 62
7
  6
BYLAYER
 10
56.1807069492
 20
115.9831972109
 40
0.5480850684
100
AcDbArc
 50
236.8138946132
 51
303.1861053868
  0
CIRCLE
  5
2D8
100
AcDbEntity
  8
0
100
AcDbCircle
 62
7
  6
BYLAYER
 10
56.1807069492
 20
115.9831972109
 40
0.3863703305
  0
ARC
  5
2D9
100
AcDbEntity
  8
0
100
AcDbCircle
 62
7
  6
BYLAYER
 10
68.1807069492
 20
77.4831972109
 40
5.5
100
AcDbArc
 50
180.0
 51
360.0
  0
CIRCLE
  5
2DA
100
AcDbEntity
  8
0
100
AcDbCircle
 62
7
  6
BYLAYER
 10
68.1807069492
 20
77.4831972109
 40
5.0
  0
ARC
  5
2DB
100
AcDbEntity
  8
0
100
AcDbCircle
 62
7
  6
BYLAYER
 10
65.8549927801
 20
77.3537057261
 40
1.0
100
AcDbArc
 50
180.0
 51
240.0000000015
  0
ARC
  5
2DC
100
AcDbEntity
  8
0
100
AcDbCircle
 62
7
  6
BYLAYER
 10
65.8549927801
 20
77.6126886957
 40
1.0
100
AcDbArc
 50
119.999999997
 51
180.0
  0
ARC
  5
2DD
100
AcDbEntity
  8
0
100
AcDbCircle
 62
7
  6
BYLAYER
 10
65.8549927801
 20
77.3537057261
 40
0.6999994542
100
AcDbArc
 50
179.9996606644
 51
240.0003393374
  0
ARC
  5
2DE
100
AcDbEntity
  8
0
100
AcDbCircle
 62
7
  6
BYLAYER
 10
65.8549927801
 20
77.6126886957
 40
0.6999994532
100
AcDbArc
 50
119.9996600107
 51
180.0003399872
  0
ARC
  5
2DF
100
AcDbEntity
  8
0
100
AcDbCircle
 62
7
  6
BYLAYER
 10
68.1807069492
 20
103.9831972109
 40
11.0
100
AcDbArc
 50
214.4489916621
 51
218.2130844075
  0
ARC
  5
2E0
100
AcDbEntity
  8
0
100
AcDbCircle
 62
7
  6
BYLAYER
 10
68.1807069492
 20
103.9831972109
 40
9.6
100
AcDbArc
 50
135.6385839593
 51
158.4625059968
  0
ARC
  5
2E1
100
AcDbEntity
  8
0
100
AcDbCircle
 62
7
  6
BYLAYER
 10
68.1807069492
 20
103.9831972109
 40
9.6
100
AcDbArc
 50
201.432389065
 51
224.3880976008
  0
ARC
  5
2E2
100
AcDbEntity
  8
0
100
AcDbCircle
 62
7
  6
BYLAYER
 10
68.1807069492
 20
103.9831972109
 40
8.5
100
AcDbArc
 50
137.1321245868
 51
222.8678754132
  0
ARC
  5
2E3
100
AcDbEntity
  8
0
100
AcDbCircle
 62
7
  6
BYLAYER
 10
68.1807069492
 20
103.9831972109
 40
7.5
100
AcDbArc
 50
146.8171779825
 51
213.1828220175
  0
ARC
  5
2E4
100
AcDbEntity
  8
0
100
AcDbCircle
 62
7
  6
BYLAYER
 10
81.0553758921
 20
64.4831972109
 40
4.6673574697
100
AcDbArc
 50
353.8502740241
 51
6.1497259759
  0
ARC
  5
2E5
100
AcDbEntity
  8
0
100
AcDbCircle
 62
7
  6
BYLAYER
 10
81.0553758921
 20
14.4831972109
 40
4.6673574698
100
AcDbArc
 50
353.8502740241
 51
6.1497259759
  0
ARC
  5
2E6
100
AcDbEntity
  8
0
100
AcDbCircle
 62
7
  6
BYLAYER
 10
82.5807069492
 20
64.4831972109
 40
3.4871191548
100
AcDbArc
 50
8.2437596539
 51
42.1379567144
  0
ARC
  5
2E7
100
AcDbEntity
  8
0
100
AcDbCircle
 62
7
  6
BYLAYER
 10
82.5807069492
 20
64.4831972109
 40
3.4871191548
100
AcDbArc
 50
317.8476547093
 51
351.7562403461
  0
ARC
  5
2E8
100
AcDbEntity
  8
0
100
AcDbCircle
 62
7
  6
BYLAYER
 10
82.5807069492
 20
14.4831972109
 40
3.4871191548
100
AcDbArc
 50
8.2437596539
 51
49.030109515
  0
ARC
  5
2E9
100
AcDbEntity
  8
0
100
AcDbCircle
 62
7
  6
BYLAYER
 10
82.5807069492
 20
14.4831972109
 40
3.4871191548
100
AcDbArc
 50
310.969890485
 51
351.7562403461
  0
ARC
  5
2EA
100
AcDbEntity
  8
0
100
AcDbCircle
 62
7
  6
BYLAYER
 10
69.2314211184
 20
79.5620705057
 40
1.0
100
AcDbArc
 50
60.0
 51
120.0000000015
  0
ARC
  5
2EB
100
AcDbEntity
  8
0
100
AcDbCircle
 62
7
  6
BYLAYER
 10
69.4557069492
 20
79.4325790209
 40
1.0
100
AcDbArc
 50
0.0
 51
60.0
  0
ARC
  5
2EC
100
AcDbEntity
  8
0
100
AcDbCircle
 62
7
  6
BYLAYER
 10
69.4557069492
 20
75.5338154009
 40
1.0
100
AcDbArc
 50
300.0
 51
360.0
  0
ARC
  5
2ED
100
AcDbEntity
  8
0
100
AcDbCircle
 62
7
  6
BYLAYER
 10
69.2314211184
 20
75.4043239161
 40
1.0
100
AcDbArc
 50
239.999999997
 51
300.0
  0
ARC
  5
2EE
100
AcDbEntity
  8
0
100
AcDbCircle
 62
7
  6
BYLAYER
 10
69.2314211184
 20
79.5620705057
 40
0.6999994542
100
AcDbArc
 50
59.9996606649
 51
120.0003393371
  0
ARC
  5
2EF
100
AcDbEntity
  8
0
100
AcDbCircle
 62
7
  6
BYLAYER
 10
69.4557069492
 20
75.5338154009
 40
0.6999994542
100
AcDbArc
 50
299.999660665
 51
0.0003393373
  0
ARC
  5
2F0
100
AcDbEntity
  8
0
100
AcDbCircle
 62
7
  6
BYLAYER
 10
69.2314211184
 20
75.4043239161
 40
0.6999994532
100
AcDbArc
 50
239.9996600113
 51
300.0003399866
  0
ARC
  5
2F1
100
AcDbEntity
  8
0
100
AcDbCircle
 62
7
  6
BYLAYER
 10
69.4557069492
 20
79.4325790209
 40
0.6999994532
100
AcDbArc
 50
359.9996600109
 51
60.0003399868
  0
ARC
  5
2F2
100
AcDbEntity
  8
0
100
AcDbCircle
 62
7
  6
BYLAYER
 10
68.5807069492
 20
77.4831972109
 40
0.2
100
AcDbArc
 50
270.0
 51
90.0
  0
ARC
  5
2F3
100
AcDbEntity
  8
0
100
AcDbCircle
 62
7
  6
BYLAYER
 10
81.0553758921
 20
79.2831972109
 40
4.6673574697
100
AcDbArc
 50
353.8502740241
 51
6.1497259759
  0
ARC
  5
2F4
100
AcDbEntity
  8
0
100
AcDbCircle
 62
7
  6
BYLAYER
 10
77.9558255876
 20
91.9831972109
 40
3.8248697812
100
AcDbArc
 50
355.5014398661
 51
4.4985601339
  0
ARC
  5
2F5
100
AcDbEntity
  8
0
100
AcDbCircle
 62
7
  6
BYLAYER
 10
82.4055883109
 20
91.9831972109
 40
3.8248697812
100
AcDbArc
 50
175.5014398661
 51
184.4985601339
  0
ARC
  5
2F6
100
AcDbEntity
  8
0
100
AcDbCircle
 62
7
  6
BYLAYER
 10
82.5807069492
 20
79.2831972109
 40
3.4871191548
100
AcDbArc
 50
8.2437596539
 51
49.030109515
  0
ARC
  5
2F7
100
AcDbEntity
  8
0
100
AcDbCircle
 62
7
  6
BYLAYER
 10
82.5807069492
 20
79.2831972109
 40
3.4871191548
100
AcDbArc
 50
310.969890485
 51
351.7562403461
  0
ARC
  5
2F8
100
AcDbEntity
  8
0
100
AcDbCircle
 62
7
  6
BYLAYER
 10
80.1807069492
 20
91.9831972109
 40
3.0
100
AcDbArc
 50
45.4680607252
 51
224.5319392742
  0
CIRCLE
  5
2F9
100
AcDbEntity
  8
0
100
AcDbCircle
 62
7
  6
BYLAYER
 10
80.1807069492
 20
91.9831972109
 40
2.65
  0
ARC
  5
2FA
100
AcDbEntity
  8
0
100
AcDbCircle
 62
7
  6
BYLAYER
 10
80.1807069492
 20
91.9831972109
 40
2.4037470749
100
AcDbArc
 50
82.8304967592
 51
97.1695032408
  0
ARC
  5
2FB
100
AcDbEntity
  8
0
100
AcDbCircle
 62
7
  6
BYLAYER
 10
80.1807069492
 20
91.9831972109
 40
2.4037470749
100
AcDbArc
 50
262.8304967592
 51
277.1695032408
  0
ARC
  5
2FC
100
AcDbEntity
  8
0
100
AcDbCircle
 62
7
  6
BYLAYER
 10
80.1807069492
 20
91.9831972109
 40
0.7438045605
100
AcDbArc
 50
203.7866285976
 51
246.2133714024
  0
ARC
  5
2FD
100
AcDbEntity
  8
0
100
AcDbCircle
 62
7
  6
BYLAYER
 10
80.1807069492
 20
91.9831972109
 40
0.7438045605
100
AcDbArc
 50
293.7866285976
 51
336.2133714024
  0
ARC
  5
2FE
100
AcDbEntity
  8
0
100
AcDbCircle
 62
7
  6
BYLAYER
 10
80.1807069492
 20
91.9831972109
 40
0.7438045605
100
AcDbArc
 50
23.7866285976
 51
66.2133714024
  0
ARC
  5
2FF
100
AcDbEntity
  8
0
100
AcDbCircle
 62
7
  6
BYLAYER
 10
80.1807069492
 20
91.9831972109
 40
0.7438045605
100
AcDbArc
 50
113.7866285976
 51
156.2133714024
  0
ARC
  5
300
100
AcDbEntity
  8
0
100
AcDbCircle
 62
7
  6
BYLAYER
 10
80.1807069492
 20
91.9831972109
 40
0.5480850684
100
AcDbArc
 50
56.8138946132
 51
123.1861053868
  0
ARC
  5
301
100
AcDbEntity
  8
0
100
AcDbCircle
 62
7
  6
BYLAYER
 10
80.1807069492
 20
91.9831972109
 40
0.5480850684
100
AcDbArc
 50
236.8138946132
 51
303.1861053868
  0
ARC
  5
302
100
AcDbEntity
  8
0
100
AcDbCircle
 62
7
  6
BYLAYER
 10
77.6980898448
 20
89.5408143153
 40
0.4826171044
100
AcDbArc
 50
269.9999999988
 51
44.5319392749
  0
ARC
  5
303
100
AcDbEntity
  8
0
100
AcDbCircle
 62
7
  6
BYLAYER
 10
82.6230898448
 20
94.4658143153
 40
0.4826171044
100
AcDbArc
 50
225.4680607283
 51
360.0
  0
CIRCLE
  5
304
100
AcDbEntity
  8
0
100
AcDbCircle
 62
7
  6
BYLAYER
 10
80.1807069492
 20
91.9831972109
 40
0.3863703305
  0
ARC
  5
305
100
AcDbEntity
  8
0
100
AcDbCircle
 62
7
  6
BYLAYER
 10
81.0553758921
 20
115.4831972109
 40
4.6673574697
100
AcDbArc
 50
353.850274024
 51
6.149725976
  0
ARC
  5
306
100
AcDbEntity
  8
0
100
AcDbCircle
 62
7
  6
BYLAYER
 10
81.0553758921
 20
103.9831972109
 40
4.6673574697
100
AcDbArc
 50
353.8502740241
 51
6.1497259759
  0
ARC
  5
307
100
AcDbEntity
  8
0
100
AcDbCircle
 62
7
  6
BYLAYER
 10
77.9558255876
 20
115.9831972109
 40
3.8248697812
100
AcDbArc
 50
355.5014398661
 51
4.4985601339
  0
ARC
  5
308
100
AcDbEntity
  8
0
100
AcDbCircle
 62
7
  6
BYLAYER
 10
82.4055883109
 20
115.9831972109
 40
3.8248697812
100
AcDbArc
 50
175.5014398661
 51
184.4985601339
  0
ARC
  5
309
100
AcDbEntity
  8
0
100
AcDbCircle
 62
7
  6
BYLAYER
 10
82.5807069492
 20
115.4831972109
 40
3.4871191548
100
AcDbArc
 50
8.2437596539
 51
42.1379567144
  0
ARC
  5
30A
100
AcDbEntity
  8
0
100
AcDbCircle
 62
7
  6
BYLAYER
 10
82.5807069492
 20
115.4831972109
 40
3.4871191548
100
AcDbArc
 50
317.8476547093
 51
351.7562403461
  0
ARC
  5
30B
100
AcDbEntity
  8
0
100
AcDbCircle
 62
7
  6
BYLAYER
 10
82.5807069492
 20
103.9831972109
 40
3.4871191548
100
AcDbArc
 50
8.2437596539
 51
42.1379567144
  0
ARC
  5
30C
100
AcDbEntity
  8
0
100
AcDbCircle
 62
7
  6
BYLAYER
 10
82.5807069492
 20
103.9831972109
 40
3.4871191548
100
AcDbArc
 50
317.8476547093
 51
351.7562403461
  0
ARC
  5
30D
100
AcDbEntity
  8
0
100
AcDbCircle
 62
7
  6
BYLAYER
 10
80.1807069492
 20
115.9831972109
 40
3.0
100
AcDbArc
 50
131.8103148958
 51
318.1896851042
  0
CIRCLE
  5
30E
100
AcDbEntity
  8
0
100
AcDbCircle
 62
7
  6
BYLAYER
 10
80.1807069492
 20
115.9831972109
 40
2.65
  0
ARC
  5
30F
100
AcDbEntity
  8
0
100
AcDbCircle
 62
7
  6
BYLAYER
 10
80.1807069492
 20
115.9831972109
 40
2.4037470749
100
AcDbArc
 50
82.8304967592
 51
97.1695032408
  0
ARC
  5
310
100
AcDbEntity
  8
0
100
AcDbCircle
 62
7
  6
BYLAYER
 10
80.1807069492
 20
115.9831972109
 40
2.4037470749
100
AcDbArc
 50
262.8304967592
 51
277.1695032408
  0
ARC
  5
311
100
AcDbEntity
  8
0
100
AcDbCircle
 62
7
  6
BYLAYER
 10
80.1807069492
 20
115.9831972109
 40
0.7438045605
100
AcDbArc
 50
203.7866285976
 51
246.2133714024
  0
ARC
  5
312
100
AcDbEntity
  8
0
100
AcDbCircle
 62
7
  6
BYLAYER
 10
80.1807069492
 20
115.9831972109
 40
0.7438045605
100
AcDbArc
 50
293.7866285976
 51
336.2133714024
  0
ARC
  5
313
100
AcDbEntity
  8
0
100
AcDbCircle
 62
7
  6
BYLAYER
 10
80.1807069492
 20
115.9831972109
 40
0.7438045605
100
AcDbArc
 50
23.7866285976
 51
66.2133714024
  0
ARC
  5
314
100
AcDbEntity
  8
0
100
AcDbCircle
 62
7
  6
BYLAYER
 10
80.1807069492
 20
115.9831972109
 40
0.7438045605
100
AcDbArc
 50
113.7866285976
 51
156.2133714024
  0
ARC
  5
315
100
AcDbEntity
  8
0
100
AcDbCircle
 62
7
  6
BYLAYER
 10
80.1807069492
 20
115.9831972109
 40
0.5480850684
100
AcDbArc
 50
56.8138946132
 51
123.1861053868
  0
ARC
  5
316
100
AcDbEntity
  8
0
100
AcDbCircle
 62
7
  6
BYLAYER
 10
80.1807069492
 20
115.9831972109
 40
0.5480850684
100
AcDbArc
 50
236.8138946132
 51
303.1861053868
  0
CIRCLE
  5
317
100
AcDbEntity
  8
0
100
AcDbCircle
 62
7
  6
BYLAYER
 10
80.1807069492
 20
115.9831972109
 40
0.3863703305
  0
LINE
  5
318
100
AcDbEntity
  8
0
100
AcDbLine
 62
7
  6
BYLAYER
 10
53.1807069312
 20
11.8705749177
 11
79.6807069312
 21
11.6388489632
  0
ELLIPSE
  5
319
100
AcDbEntity
  8
0
100
AcDbEllipse
 62
7
  6
BYLAYER
 10
56.11183293
 20
115.9831972109
 30
0.0
 11
0.4252650005
 21
0.0
 31
0.0
 40
0.9867980573
 41
2.3451397511
 42
3.9380455561
  0
ELLIPSE
  5
31A
100
AcDbEntity
  8
0
100
AcDbEllipse
 62
7
  6
BYLAYER
 10
56.2495809684
 20
115.9831972109
 30
0.0
 11
0.4252650005
 21
-0.0
 31
0.0
 40
0.9867980573
 41
-0.7964529025
 42
0.7964529025
  0
ELLIPSE
  5
31B
100
AcDbEntity
  8
0
100
AcDbEllipse
 62
7
  6
BYLAYER
 10
80.11183293
 20
91.9831972109
 30
0.0
 11
0.4252650005
 21
-0.0
 31
0.0
 40
0.9867980573
 41
2.3451397511
 42
3.9380455561
  0
ELLIPSE
  5
31C
100
AcDbEntity
  8
0
100
AcDbEllipse
 62
7
  6
BYLAYER
 10
80.2495809684
 20
91.9831972109
 30
0.0
 11
0.4252650005
 21
0.0
 31
0.0
 40
0.9867980573
 41
-0.7964529025
 42
0.7964529025
  0
ELLIPSE
  5
31D
100
AcDbEntity
  8
0
100
AcDbEllipse
 62
7
  6
BYLAYER
 10
80.11183293
 20
115.9831972109
 30
0.0
 11
0.4252650005
 21
-0.0
 31
0.0
 40
0.9867980573
 41
2.3451397511
 42
3.9380455561
  0
ELLIPSE
  5
31E
100
AcDbEntity
  8
0
100
AcDbEllipse
 62
7
  6
BYLAYER
 10
80.2495809684
 20
115.9831972109
 30
0.0
 11
0.4252650005
 21
0.0
 31
0.0
 40
0.9867980573
 41
-0.7964529025
 42
0.7964529025
  0
ELLIPSE
  5
31F
100
AcDbEntity
  8
0
100
AcDbEllipse
 62
7
  6
BYLAYER
 10
56.11183293
 20
91.9831972109
 30
0.0
 11
0.4252650005
 21
0.0
 31
0.0
 40
0.9867980573
 41
2.3451397511
 42
3.9380455561
  0
ELLIPSE
  5
320
100
AcDbEntity
  8
0
100
AcDbEllipse
 62
7
  6
BYLAYER
 10
56.2495809684
 20
91.9831972109
 30
0.0
 11
0.4252650005
 21
0.0
 31
0.0
 40
0.9867980573
 41
-0.7964529025
 42
0.7964529025
  0
ENDSEC
  0
SECTION
  2
OBJECTS
  0
DICTIONARY
  5
C
100
AcDbDictionary
280
0
281
1
  3
ACAD_GROUP
350
D
  3
ACAD_MLINESTYLE
350
17
  3
ACAD_LAYOUT
350
1A
  3
ACAD_PLOTSETTINGS
350
19
  3
ACAD_PLOTSTYLENAME
350
E
  0
DICTIONARY
  5
D
102
{ACAD_REACTORS
330
C
102
}
100
AcDbDictionary
280
0
281
1
  0
ACDBDICTIONARYWDFLT
  5
E
102
{ACAD_REACTORS
330
C
102
}
100
AcDbDictionary
281
1
  3
Normal
350
F
100
AcDbDictionaryWithDefault
340
F
  0
DICTIONARY
  5
17
102
{ACAD_REACTORS
330
C
102
}
100
AcDbDictionary
280
0
281
1
  3
Standard
350
18
  0
DICTIONARY
  5
19
102
{ACAD_REACTORS
330
C
102
}
100
AcDbDictionary
281
1
  0
DICTIONARY
  5
1A
102
{ACAD_REACTORS
330
C
102
}
100
AcDbDictionary
281
1
  3
Model
350
321
  3
Layout1
350
322
  0
ACDBPLACEHOLDER
  5
F
102
{ACAD_REACTORS
330
E
102
}
  0
MLINESTYLE
  5
18
102
{ACAD_REACTORS
330
17
102
}
100
AcDbMlineStyle
  2
STANDARD
 70
0
  3

 62
256
 51
90.0
 52
90.0
 71
2
 49
0.5
 62
256
  6
BYLAYER
 49
-0.5
 62
256
  6
BYLAYER
  0
LAYOUT
  5
321
102
{ACAD_REACTORS
330
1A
102
}
100
AcDbPlotSettings
  1

  2
none_device
  4

  6

 40
0.0
 41
0.0
 42
0.0
 43
0.0
 44
210.0
 45
297.0
 46
0.0
 47
0.0
 48
0.0
 49
0.0
140
0.0
141
0.0
142
1.0
143
1.0
 70
1024
 72
1
 73
0
 74
0
  7

 75
0
147
1.0
148
0.0
149
0.0
100
AcDbLayout
  1
Model
 70
0
 71
0
 10
0.0
 20
0.0
 11
210.0
 21
297.0
 12
0.0
 22
0.0
 32
0.0
 14
0.0
 24
0.0
 34
0.0
 15
0.0
 25
0.0
 35
0.0
146
0.0
 13
0.0
 23
0.0
 33
0.0
 16
1.0
 26
0.0
 36
0.0
 17
0.0
 27
1.0
 37
0.0
 76
0
330
210
345
0
346
0
  0
LAYOUT
  5
322
102
{ACAD_REACTORS
330
1A
102
}
100
AcDbPlotSettings
  1

  2
none_device
  4

  6

 40
0.0
 41
0.0
 42
0.0
 43
0.0
 44
210.0
 45
297.0
 46
0.0
 47
0.0
 48
0.0
 49
0.0
140
0.0
141
0.0
142
1.0
143
1.0
 70
0
 72
1
 73
0
 74
0
  7

 75
0
147
1.0
148
0.0
149
0.0
100
AcDbLayout
  1
Layout1
 70
0
 71
1
 10
0.0
 20
0.0
 11
210.0
 21
297.0
 12
0.0
 22
0.0
 32
0.0
 14
0.0
 24
0.0
 34
0.0
 15
0.0
 25
0.0
 35
0.0
146
0.0
 13
0.0
 23
0.0
 33
0.0
 16
1.0
 26
0.0
 36
0.0
 17
0.0
 27
1.0
 37
0.0
 76
0
330
211
345
0
346
0
  0
ENDSEC
  0
EOF
