999
DXF file: C:\Users\sesa63760\Dev\_Creo\CAD\MCADID0004752_3D-CAD\drw0001_3.dxf
999
Pro/ENGINEER 2019471 by Parametric Technology Corporation
  0
SECTION
  2
HEADER
  9
$ACADVER
  1
AC1024
  9
$DWGCODEPAGE
  3
ANSI_1252
  9
$EXTMAX
 10
59.9797869284
 20
84.8285557987
 30
0.0
  9
$EXTMIN
 10
0.0
 20
0.0
 30
0.0
  9
$LIMMIN
 10
0.0
 20
0.0
  9
$LIMMAX
 10
59.9797869284
 20
84.8285557987
  9
$VIEWCTR
 10
29.9898934642
 20
42.4142778993
  9
$VIEWSIZE
 40
84.8285557987
  9
$CLAYER
  8
0
  9
$LTSCALE
 40
5.5295651187
  9
$CELTYPE
  6
BYLAYER
  9
$DIMSCALE
 40
1.0
  9
$DIMASZ
 40
0.7140450825
  9
$DIMEXO
 40
1.0
  9
$DIMDLI
 40
3.8204268093
  9
$DIMEXE
 40
1.0
  9
$DIMCEN
 40
0.9048379285
  9
$DIMLFAC
 40
1.0
  9
$DIMBLK
  1
_FILLED
  9
$DIMALT
 70
0
  9
$DIMALTF
 40
0.0393700787
  9
$DIMTXT
 40
0.9996631155
  9
$DIMTOL
 70
1
  9
$DIMLIM
 70
0
  9
$DIMTFAC
 40
1.0
  9
$DIMTP
 40
0.01
  9
$DIMTM
 40
0.01
  9
$DIMGAP
 40
0.625
  9
$DIMDSEP
 70
46
  9
$AUNITS
 70
0
  9
$PDMODE
 70
3
  9
$PDSIZE
 40
0.3125
  9
$HANDSEED
  5
2D3
  9
$TILEMODE
 70
1
  9
$MEASUREMENT
 70
1
  9
$INSUNITS
 70
4
  0
ENDSEC
  0
SECTION
  2
CLASSES
  0
CLASS
  1
ACDBDICTIONARYWDFLT
  2
AcDbDictionaryWithDefault
  3
AutoCAD 2000
 90
0
 91
1
280
0
281
0
  0
CLASS
  1
ACDBPLACEHOLDER
  2
AcDbPlaceHolder
  3
AutoCAD 2000
 90
0
 91
1
280
0
281
0
  0
CLASS
  1
LAYOUT
  2
AcDbLayout
  3
AutoCAD 2000
 90
0
 91
0
280
0
281
0
  0
ENDSEC
  0
SECTION
  2
TABLES
  0
TABLE
  2
VPORT
  5
8
100
AcDbSymbolTable
 70
2
  0
VPORT
  5
1F4
100
AcDbSymbolTableRecord
100
AcDbViewportTableRecord
  2
*ACTIVE
 70
0
 10
0.0
 20
0.0
 11
1.0
 21
1.0
 12
29.9898934642
 22
42.4142778993
 13
0.0
 23
0.0
 14
1.0
 24
1.0
 15
0.0
 25
0.0
 16
0.0
 26
0.0
 36
1.0
 17
0.0
 27
0.0
 37
0.0
 40
84.8285557987
 41
0.7070707071
 42
50.0
 43
0.0
 44
0.0
 50
0.0
 51
0.0
 71
0
 72
100
 73
1
 74
1
 75
0
 76
0
 77
0
 78
0
  0
ENDTAB
  0
TABLE
  2
LTYPE
  5
5
100
AcDbSymbolTable
 70
6
  0
LTYPE
  5
14
100
AcDbSymbolTableRecord
100
AcDbLinetypeTableRecord
  2
BYBLOCK
 70
0
  3

 72
65
 73
0
 40
0.0
  0
LTYPE
  5
15
100
AcDbSymbolTableRecord
100
AcDbLinetypeTableRecord
  2
BYLAYER
 70
0
  3

 72
65
 73
0
 40
0.0
  0
LTYPE
  5
16
100
AcDbSymbolTableRecord
100
AcDbLinetypeTableRecord
  2
CONTINUOUS
 70
64
  3
Solid line
 72
65
 73
0
 40
0.0
  0
LTYPE
  5
1F5
100
AcDbSymbolTableRecord
100
AcDbLinetypeTableRecord
  2
CENTER
 70
64
  3
____ _ ____ _ ____ _ ____ _ ____ _ ____ _ ____
 72
65
 73
4
 40
0.6
 49
0.375
 74
0
 49
-0.075
 74
0
 49
0.075
 74
0
 49
-0.075
 74
0
  0
LTYPE
  5
1F6
100
AcDbSymbolTableRecord
100
AcDbLinetypeTableRecord
  2
HIDDEN
 70
64
  3
- - - - - - - - - - - - - - - - - - - -
 72
65
 73
2
 40
0.2
 49
0.1
 74
0
 49
-0.1
 74
0
  0
LTYPE
  5
1F7
100
AcDbSymbolTableRecord
100
AcDbLinetypeTableRecord
  2
PHANTOM
 70
64
  3
_____ _ _ _____ _ _ _____ _ _ _____
 72
65
 73
6
 40
0.8
 49
0.45
 74
0
 49
-0.05
 74
0
 49
0.1
 74
0
 49
-0.05
 74
0
 49
0.1
 74
0
 49
-0.05
 74
0
  0
LTYPE
  5
1F8
100
AcDbSymbolTableRecord
100
AcDbLinetypeTableRecord
  2
DOT
 70
64
  3
. . . . . . . . . . . . . . . . . . . .
 72
65
 73
2
 40
0.2
 49
0.1
 74
0
 49
-0.1
 74
0
  0
LTYPE
  5
1F9
100
AcDbSymbolTableRecord
100
AcDbLinetypeTableRecord
  2
DASHED
 70
64
  3
- - - - - - - - - - - - - - - - - - - -
 72
65
 73
2
 40
0.2
 49
0.1
 74
0
 49
-0.1
 74
0
  0
ENDTAB
  0
TABLE
  2
LAYER
  5
2
100
AcDbSymbolTable
 70
36
  0
LAYER
  5
10
100
AcDbSymbolTableRecord
100
AcDbLayerTableRecord
  2
0
 70
0
 62
7
  6
CONTINUOUS
370
-3
390
F
  0
LAYER
  5
1FA
100
AcDbSymbolTableRecord
100
AcDbLayerTableRecord
  2
DEFAULT_1
 70
0
 62
7
  6
CENTER
370
-3
390
F
  0
LAYER
  5
1FB
100
AcDbSymbolTableRecord
100
AcDbLayerTableRecord
  2
DEFAULT_2
 70
0
 62
7
  6
HIDDEN
370
-3
390
F
  0
LAYER
  5
1FC
100
AcDbSymbolTableRecord
100
AcDbLayerTableRecord
  2
DEFAULT_3
 70
0
 62
7
  6
PHANTOM
370
-3
390
F
  0
LAYER
  5
1FD
100
AcDbSymbolTableRecord
100
AcDbLayerTableRecord
  2
00_COMPONENTS
 70
0
 62
7
  6
CONTINUOUS
370
-3
390
F
  0
LAYER
  5
1FE
100
AcDbSymbolTableRecord
100
AcDbLayerTableRecord
  2
01_1_DEFAULT_DATUMS
 70
0
 62
7
  6
CONTINUOUS
370
-3
390
F
  0
LAYER
  5
1FF
100
AcDbSymbolTableRecord
100
AcDbLayerTableRecord
  2
01_PLANES
 70
0
 62
7
  6
CONTINUOUS
370
-3
390
F
  0
LAYER
  5
200
100
AcDbSymbolTableRecord
100
AcDbLayerTableRecord
  2
02_COORD_SYS
 70
0
 62
7
  6
CONTINUOUS
370
-3
390
F
  0
LAYER
  5
201
100
AcDbSymbolTableRecord
100
AcDbLayerTableRecord
  2
03_AXES
 70
0
 62
7
  6
CONTINUOUS
370
-3
390
F
  0
LAYER
  5
202
100
AcDbSymbolTableRecord
100
AcDbLayerTableRecord
  2
04_POINTS
 70
0
 62
7
  6
CONTINUOUS
370
-3
390
F
  0
LAYER
  5
203
100
AcDbSymbolTableRecord
100
AcDbLayerTableRecord
  2
05_CURVES
 70
0
 62
7
  6
CONTINUOUS
370
-3
390
F
  0
LAYER
  5
204
100
AcDbSymbolTableRecord
100
AcDbLayerTableRecord
  2
06_SURFS
 70
0
 62
7
  6
CONTINUOUS
370
-3
390
F
  0
LAYER
  5
205
100
AcDbSymbolTableRecord
100
AcDbLayerTableRecord
  2
07_COSMETICS
 70
0
 62
7
  6
CONTINUOUS
370
-3
390
F
  0
LAYER
  5
206
100
AcDbSymbolTableRecord
100
AcDbLayerTableRecord
  2
10_NOTES
 70
0
 62
7
  6
CONTINUOUS
370
-3
390
F
  0
LAYER
  5
207
100
AcDbSymbolTableRecord
100
AcDbLayerTableRecord
  2
11_NOTES_PUB
 70
0
 62
7
  6
CONTINUOUS
370
-3
390
F
  0
LAYER
  5
208
100
AcDbSymbolTableRecord
100
AcDbLayerTableRecord
  2
13_REF_GTOL
 70
0
 62
7
  6
CONTINUOUS
370
-3
390
F
  0
LAYER
  5
209
100
AcDbSymbolTableRecord
100
AcDbLayerTableRecord
  2
16_MISC
 70
0
 62
7
  6
CONTINUOUS
370
-3
390
F
  0
LAYER
  5
20A
100
AcDbSymbolTableRecord
100
AcDbLayerTableRecord
  2
17_NO_PRINT
 70
0
 62
7
  6
CONTINUOUS
370
-3
390
F
  0
LAYER
  5
20B
100
AcDbSymbolTableRecord
100
AcDbLayerTableRecord
  2
18_DATUM_CAMS_JOINTS
 70
0
 62
7
  6
CONTINUOUS
370
-3
390
F
  0
LAYER
  5
20C
100
AcDbSymbolTableRecord
100
AcDbLayerTableRecord
  2
19_DATUM_FUNCTIONAL
 70
0
 62
7
  6
CONTINUOUS
370
-3
390
F
  0
LAYER
  5
20D
100
AcDbSymbolTableRecord
100
AcDbLayerTableRecord
  2
20_DATUM_KINEMATIC_SCHEME
 70
0
 62
7
  6
CONTINUOUS
370
-3
390
F
  0
ENDTAB
  0
TABLE
  2
STYLE
  5
3
100
AcDbSymbolTable
 70
1
  0
STYLE
  5
11
100
AcDbSymbolTableRecord
100
AcDbTextStyleTableRecord
  2
STANDARD
 70
0
 40
0.0
 41
1.0
 50
0.0
 71
0
 42
0.2
  3
ARIAL.TTF
  4

  0
STYLE
  5
20E
100
AcDbSymbolTableRecord
100
AcDbTextStyleTableRecord
  2
TEXTSTYLE_1
 70
0
 40
0.0
 41
0.8
 50
0.0
 71
0
 42
0.2
  3
gdt
  4

  0
ENDTAB
  0
TABLE
  2
VIEW
  5
6
100
AcDbSymbolTable
 70
0
  0
ENDTAB
  0
TABLE
  2
UCS
  5
7
100
AcDbSymbolTable
 70
0
  0
ENDTAB
  0
TABLE
  2
APPID
  5
9
100
AcDbSymbolTable
 70
1
  0
APPID
  5
20F
100
AcDbSymbolTableRecord
100
AcDbRegAppTableRecord
  2
ACAD
 70
0
  0
ENDTAB
  0
TABLE
  2
BLOCK_RECORD
  5
1
100
AcDbSymbolTable
 70
0
  0
BLOCK_RECORD
  5
210
100
AcDbSymbolTableRecord
100
AcDbBlockTableRecord
  2
*Model_Space
  0
BLOCK_RECORD
  5
211
100
AcDbSymbolTableRecord
100
AcDbBlockTableRecord
  2
*Paper_Space
  0
BLOCK_RECORD
  5
212
100
AcDbSymbolTableRecord
100
AcDbBlockTableRecord
  2
_FILLED
  0
ENDTAB
  0
TABLE
  2
DIMSTYLE
  5
A
100
AcDbSymbolTable
 70
1
100
AcDbDimStyleTable
 71
0
  0
DIMSTYLE
105
213
100
AcDbSymbolTableRecord
100
AcDbDimStyleTableRecord
  2
STANDARD
 70
0
  3

  4

 40
1.0
 41
0.7140450825
 42
1.0
 43
0.38
 44
1.0
 45
0.0
 46
0.0
 47
0.01
 48
0.01
140
0.9996631155
141
0.09
142
0.0
143
25.4
144
1.0
145
0.0
146
1.0
147
0.625
 71
1
 72
0
 73
0
 74
0
 75
0
 76
0
 77
1
 78
8
 79
2
170
0
171
1
172
0
173
0
174
0
175
0
176
0
177
0
178
0
270
2
179
2
271
2
272
2
273
2
274
2
275
0
280
0
281
0
282
0
283
1
284
8
285
0
286
0
287
3
288
0
340
11
278
46
341
212
342
212
343
212
344
212
  0
ENDTAB
  0
ENDSEC
  0
SECTION
  2
BLOCKS
  0
BLOCK
  5
20
100
AcDbEntity
  8
0
100
AcDbBlockBegin
  2
*Model_Space
 70
0
 10
0.0
 20
0.0
 30
0.0
  3
*Model_Space
  1

  0
ENDBLK
  5
21
100
AcDbEntity
  8
0
100
AcDbBlockEnd
  0
BLOCK
  5
1C
100
AcDbEntity
  8
0
100
AcDbBlockBegin
  2
*Paper_Space
 70
0
 10
0.0
 20
0.0
 30
0.0
  3
*Paper_Space
  1

  0
ENDBLK
  5
1D
100
AcDbEntity
  8
0
100
AcDbBlockEnd
  0
BLOCK
  5
214
100
AcDbEntity
  8
0
100
AcDbBlockBegin
  2
_FILLED
 70
64
 10
0.0
 20
0.0
  3
_FILLED
  1

  0
SOLID
  5
215
100
AcDbEntity
  8
0
  6
BYBLOCK
 62
0
100
AcDbTrace
 10
0.0
 20
0.0
 11
-1.0
 21
0.25
 12
-1.0
 22
-0.25
 13
-1.0
 23
-0.25
  0
ENDBLK
  5
216
100
AcDbEntity
  8
0
  6
BYBLOCK
 62
0
100
AcDbBlockEnd
  0
ENDSEC
  0
SECTION
  2
ENTITIES
  0
LINE
  5
217
100
AcDbEntity
  8
0
100
AcDbLine
 62
7
  6
BYLAYER
 10
12.017876187
 20
36.6706292003
 11
12.0525465107
 21
35.8765482349
  0
LINE
  5
218
100
AcDbEntity
  8
0
100
AcDbLine
 62
7
  6
BYLAYER
 10
11.3455280375
 20
44.6219365261
 11
11.3455280375
 21
40.6219365472
  0
LINE
  5
219
100
AcDbEntity
  8
0
100
AcDbLine
 62
7
  6
BYLAYER
 10
11.5955280375
 20
45.921936543
 11
11.5955280375
 21
45.4503636677
  0
LINE
  5
21A
100
AcDbEntity
  8
0
100
AcDbLine
 62
7
  6
BYLAYER
 10
11.5955280375
 20
39.321936543
 11
11.5955280375
 21
45.348110048
  0
LINE
  5
21B
100
AcDbEntity
  8
0
100
AcDbLine
 62
7
  6
BYLAYER
 10
11.7955280375
 20
46.121936543
 11
11.7955280375
 21
44.821936543
  0
LINE
  5
21C
100
AcDbEntity
  8
0
100
AcDbLine
 62
7
  6
BYLAYER
 10
11.7955280375
 20
39.121936543
 11
11.7955280375
 21
40.421936543
  0
LINE
  5
21D
100
AcDbEntity
  8
0
100
AcDbLine
 62
7
  6
BYLAYER
 10
12.0525465107
 20
49.3673248511
 11
12.017876187
 21
48.5732438857
  0
LINE
  5
21E
100
AcDbEntity
  8
0
100
AcDbLine
 62
7
  6
BYLAYER
 10
11.5276393265
 20
45.3289251219
 11
11.5420651351
 21
45.3809810828
  0
LINE
  5
21F
100
AcDbEntity
  8
0
100
AcDbLine
 62
7
  6
BYLAYER
 10
13.9020685526
 20
49.9250628912
 11
13.6630563143
 21
49.1670129186
  0
LINE
  5
220
100
AcDbEntity
  8
0
100
AcDbLine
 62
7
  6
BYLAYER
 10
13.6630563143
 20
36.0768601674
 11
13.9020685526
 21
35.3188101948
  0
LINE
  5
221
100
AcDbEntity
  8
0
100
AcDbLine
 62
7
  6
BYLAYER
 10
15.8329228861
 20
49.9851049396
 11
15.4058570223
 21
49.3147458127
  0
LINE
  5
222
100
AcDbEntity
  8
0
100
AcDbLine
 62
7
  6
BYLAYER
 10
15.4058570223
 20
35.9291272733
 11
15.8329228861
 21
35.2587681464
  0
LINE
  5
223
100
AcDbEntity
  8
0
100
AcDbLine
 62
7
  6
BYLAYER
 10
14.4455280375
 20
46.8219359977
 11
14.4455280375
 21
47.621936543
  0
LINE
  5
224
100
AcDbEntity
  8
0
100
AcDbLine
 62
7
  6
BYLAYER
 10
15.0955280372
 20
46.371936543
 11
15.0955280372
 21
46.121936543
  0
LINE
  5
225
100
AcDbEntity
  8
0
100
AcDbLine
 62
7
  6
BYLAYER
 10
15.0955280375
 20
39.121936543
 11
15.0955280375
 21
38.871936543
  0
LINE
  5
226
100
AcDbEntity
  8
0
100
AcDbLine
 62
7
  6
BYLAYER
 10
15.7455280375
 20
47.621936543
 11
15.7455280375
 21
46.8219359678
  0
LINE
  5
227
100
AcDbEntity
  8
0
100
AcDbLine
 62
7
  6
BYLAYER
 10
8.7110897649
 20
40.5899552577
 11
8.1741053505
 21
40.0039396012
  0
LINE
  5
228
100
AcDbEntity
  8
0
100
AcDbLine
 62
7
  6
BYLAYER
 10
8.1741053505
 20
45.2399334848
 11
8.7110897649
 21
44.6539178283
  0
LINE
  5
229
100
AcDbEntity
  8
0
100
AcDbLine
 62
7
  6
BYLAYER
 10
13.0150060018
 20
38.7209597894
 11
13.095527214
 21
38.8719369822
  0
LINE
  5
22A
100
AcDbEntity
  8
0
100
AcDbLine
 62
7
  6
BYLAYER
 10
17.7135249793
 20
49.54335923
 11
17.1275093228
 21
49.0063748155
  0
LINE
  5
22B
100
AcDbEntity
  8
0
100
AcDbLine
 62
7
  6
BYLAYER
 10
17.1275093228
 20
36.2374982705
 11
17.7135249793
 21
35.700513856
  0
LINE
  5
22C
100
AcDbEntity
  8
0
100
AcDbLine
 62
7
  6
BYLAYER
 10
13.0955265801
 20
46.3719357657
 11
12.9799107578
 21
46.588718245
  0
LINE
  5
22D
100
AcDbEntity
  8
0
100
AcDbLine
 62
7
  6
BYLAYER
 10
18.173179888
 20
48.5732438857
 11
18.1385095643
 21
49.3673248511
  0
LINE
  5
22E
100
AcDbEntity
  8
0
100
AcDbLine
 62
7
  6
BYLAYER
 10
17.7455280375
 20
41.8898857354
 11
17.7455280375
 21
43.3539873506
  0
LINE
  5
22F
100
AcDbEntity
  8
0
100
AcDbLine
 62
7
  6
BYLAYER
 10
18.1385095643
 20
35.8765482349
 11
18.173179888
 21
36.6706292003
  0
LINE
  5
230
100
AcDbEntity
  8
0
100
AcDbLine
 62
7
  6
BYLAYER
 10
16.2889875224
 20
35.3188101948
 11
16.5279997606
 21
36.0768601674
  0
LINE
  5
231
100
AcDbEntity
  8
0
100
AcDbLine
 62
7
  6
BYLAYER
 10
8.4027187677
 20
42.3116075582
 11
7.7323596409
 21
41.8845416944
  0
LINE
  5
232
100
AcDbEntity
  8
0
100
AcDbLine
 62
7
  6
BYLAYER
 10
7.7323596409
 20
43.3593313916
 11
8.4027187677
 21
42.9322655278
  0
LINE
  5
233
100
AcDbEntity
  8
0
100
AcDbLine
 62
7
  6
BYLAYER
 10
16.5279997606
 20
49.1670129186
 11
16.2889875224
 21
49.9250628912
  0
LINE
  5
234
100
AcDbEntity
  8
0
100
AcDbLine
 62
7
  6
BYLAYER
 10
14.3581331888
 20
35.2587681464
 11
14.7851990526
 21
35.9291272733
  0
LINE
  5
235
100
AcDbEntity
  8
0
100
AcDbLine
 62
7
  6
BYLAYER
 10
14.7851990526
 20
49.3147458127
 11
14.3581331888
 21
49.9851049396
  0
LINE
  5
236
100
AcDbEntity
  8
0
100
AcDbLine
 62
7
  6
BYLAYER
 10
21.47996631
 20
44.6539178283
 11
22.0169507245
 21
45.2399334848
  0
LINE
  5
237
100
AcDbEntity
  8
0
100
AcDbLine
 62
7
  6
BYLAYER
 10
22.0169507245
 20
40.0039396012
 11
21.47996631
 21
40.5899552577
  0
LINE
  5
238
100
AcDbEntity
  8
0
100
AcDbLine
 62
7
  6
BYLAYER
 10
12.4775310957
 20
35.700513856
 11
13.0635467521
 21
36.2374982705
  0
LINE
  5
239
100
AcDbEntity
  8
0
100
AcDbLine
 62
7
  6
BYLAYER
 10
8.5504516619
 20
44.0544082661
 11
7.7924016893
 21
43.8153960279
  0
LINE
  5
23A
100
AcDbEntity
  8
0
100
AcDbLine
 62
7
  6
BYLAYER
 10
15.0955280375
 20
34.621936543
 11
37.7455280375
 21
34.621936543
  0
LINE
  5
23B
100
AcDbEntity
  8
0
100
AcDbLine
 62
7
  6
BYLAYER
 10
38.4455280375
 20
34.721936543
 11
37.9955280375
 21
34.721936543
  0
LINE
  5
23C
100
AcDbEntity
  8
0
100
AcDbLine
 62
7
  6
BYLAYER
 10
17.3759348213
 20
34.9076508287
 11
37.7455280375
 21
34.9076508287
  0
LINE
  5
23D
100
AcDbEntity
  8
0
100
AcDbLine
 62
7
  6
BYLAYER
 10
7.7924016893
 20
41.4284770581
 11
8.5504516619
 21
41.1894648199
  0
LINE
  5
23E
100
AcDbEntity
  8
0
100
AcDbLine
 62
7
  6
BYLAYER
 10
13.0635467521
 20
49.0063748156
 11
12.4775310957
 21
49.54335923
  0
LINE
  5
23F
100
AcDbEntity
  8
0
100
AcDbLine
 62
7
  6
BYLAYER
 10
21.7883373072
 20
42.9322655278
 11
22.4586964341
 21
43.3593313916
  0
LINE
  5
240
100
AcDbEntity
  8
0
100
AcDbLine
 62
7
  6
BYLAYER
 10
16.1632358627
 20
36.971936543
 11
14.0278202123
 21
36.971936543
  0
LINE
  5
241
100
AcDbEntity
  8
0
100
AcDbLine
 62
7
  6
BYLAYER
 10
39.1455280375
 20
37.4248219589
 11
44.5455495128
 21
37.4248219589
  0
LINE
  5
242
100
AcDbEntity
  8
0
100
AcDbLine
 62
7
  6
BYLAYER
 10
22.4586964341
 20
41.8845416944
 11
21.7883373072
 21
42.3116075582
  0
LINE
  5
243
100
AcDbEntity
  8
0
100
AcDbLine
 62
7
  6
BYLAYER
 10
13.0955280375
 20
38.871936543
 11
15.0955280375
 21
38.8719367527
  0
LINE
  5
244
100
AcDbEntity
  8
0
100
AcDbLine
 62
7
  6
BYLAYER
 10
45.5455280375
 20
39.0250629005
 11
51.7455376603
 21
39.0250629005
  0
LINE
  5
245
100
AcDbEntity
  8
0
100
AcDbLine
 62
7
  6
BYLAYER
 10
11.7955280375
 20
39.121936543
 11
15.0955280372
 21
39.121936543
  0
LINE
  5
246
100
AcDbEntity
  8
0
100
AcDbLine
 62
7
  6
BYLAYER
 10
16.0831603197
 20
39.321936543
 11
11.7955280375
 21
39.321936543
  0
LINE
  5
247
100
AcDbEntity
  8
0
100
AcDbLine
 62
7
  6
BYLAYER
 10
8.3501397293
 20
39.5789550162
 11
9.1442206948
 21
39.5442846925
  0
LINE
  5
248
100
AcDbEntity
  8
0
100
AcDbLine
 62
7
  6
BYLAYER
 10
18.4165323171
 20
41.7100906806
 11
17.7455280375
 21
41.8898857354
  0
LINE
  5
249
100
AcDbEntity
  8
0
100
AcDbLine
 62
7
  6
BYLAYER
 10
21.0468353802
 20
39.5442846925
 11
21.8409163456
 21
39.5789550162
  0
LINE
  5
24A
100
AcDbEntity
  8
0
100
AcDbLine
 62
7
  6
BYLAYER
 10
11.5955280375
 20
40.6219364965
 11
11.3455280375
 21
40.6219364965
  0
LINE
  5
24B
100
AcDbEntity
  8
0
100
AcDbLine
 62
7
  6
BYLAYER
 10
37.7455280375
 20
40.9856297258
 11
33.2455280375
 21
40.9856297249
  0
LINE
  5
24C
100
AcDbEntity
  8
0
100
AcDbLine
 62
7
  6
BYLAYER
 10
21.6406044131
 20
41.1894648199
 11
22.3986543857
 21
41.4284770581
  0
LINE
  5
24D
100
AcDbEntity
  8
0
100
AcDbLine
 62
7
  6
BYLAYER
 10
11.5955280375
 20
41.621936543
 11
18.3992276234
 21
41.621936543
  0
LINE
  5
24E
100
AcDbEntity
  8
0
100
AcDbLine
 62
7
  6
BYLAYER
 10
17.8125153356
 20
41.871936543
 11
11.5955280375
 21
41.871936543
  0
LINE
  5
24F
100
AcDbEntity
  8
0
100
AcDbLine
 62
7
  6
BYLAYER
 10
23.0955234611
 20
42.621936555
 11
23.3455280372
 21
42.6219366446
  0
LINE
  5
250
100
AcDbEntity
  8
0
100
AcDbLine
 62
7
  6
BYLAYER
 10
22.3986543857
 20
43.8153960279
 11
21.6406044131
 21
44.0544082661
  0
LINE
  5
251
100
AcDbEntity
  8
0
100
AcDbLine
 62
7
  6
BYLAYER
 10
11.5955280375
 20
43.371936543
 11
17.8125153356
 21
43.371936543
  0
LINE
  5
252
100
AcDbEntity
  8
0
100
AcDbLine
 62
7
  6
BYLAYER
 10
18.3966156701
 20
43.621936543
 11
11.5955280375
 21
43.621936543
  0
LINE
  5
253
100
AcDbEntity
  8
0
100
AcDbLine
 62
7
  6
BYLAYER
 10
33.2455280375
 20
44.2582433611
 11
37.7455280375
 21
44.2582433602
  0
LINE
  5
254
100
AcDbEntity
  8
0
100
AcDbLine
 62
7
  6
BYLAYER
 10
33.2455280375
 20
44.2582433589
 11
33.2455280375
 21
40.9856297271
  0
LINE
  5
255
100
AcDbEntity
  8
0
100
AcDbLine
 62
7
  6
BYLAYER
 10
11.3455280375
 20
44.621936543
 11
11.5955280375
 21
44.621936543
  0
LINE
  5
256
100
AcDbEntity
  8
0
100
AcDbLine
 62
7
  6
BYLAYER
 10
11.7955280375
 20
45.921936543
 11
16.1009959359
 21
45.921936543
  0
LINE
  5
257
100
AcDbEntity
  8
0
100
AcDbLine
 62
7
  6
BYLAYER
 10
11.7955280375
 20
46.121936543
 11
15.0955280372
 21
46.121936543
  0
LINE
  5
258
100
AcDbEntity
  8
0
100
AcDbLine
 62
7
  6
BYLAYER
 10
21.8409163456
 20
45.6649180698
 11
21.0468353802
 21
45.6995883935
  0
LINE
  5
259
100
AcDbEntity
  8
0
100
AcDbLine
 62
7
  6
BYLAYER
 10
18.4142711357
 20
43.5331765237
 11
17.7455280375
 21
43.3539873506
  0
LINE
  5
25A
100
AcDbEntity
  8
0
100
AcDbLine
 62
7
  6
BYLAYER
 10
9.1442206948
 20
45.6995883935
 11
8.3501397293
 21
45.6649180698
  0
LINE
  5
25B
100
AcDbEntity
  8
0
100
AcDbLine
 62
7
  6
BYLAYER
 10
51.745537659
 20
46.2188101855
 11
45.5455280375
 21
46.2188101855
  0
LINE
  5
25C
100
AcDbEntity
  8
0
100
AcDbLine
 62
7
  6
BYLAYER
 10
15.09552375
 20
46.371936543
 11
13.0955280375
 21
46.371936543
  0
LINE
  5
25D
100
AcDbEntity
  8
0
100
AcDbLine
 62
7
  6
BYLAYER
 10
14.4455280375
 20
47.371936543
 11
15.7455280375
 21
47.371936543
  0
LINE
  5
25E
100
AcDbEntity
  8
0
100
AcDbLine
 62
7
  6
BYLAYER
 10
15.7455280375
 20
47.621936543
 11
14.4455280375
 21
47.621936543
  0
LINE
  5
25F
100
AcDbEntity
  8
0
100
AcDbLine
 62
7
  6
BYLAYER
 10
44.5455495164
 20
47.8190511271
 11
39.1455280375
 21
47.8190511271
  0
LINE
  5
260
100
AcDbEntity
  8
0
100
AcDbLine
 62
7
  6
BYLAYER
 10
14.0278202123
 20
48.271936543
 11
16.1632358627
 21
48.271936543
  0
LINE
  5
261
100
AcDbEntity
  8
0
100
AcDbLine
 62
7
  6
BYLAYER
 10
37.7455280375
 20
50.621936543
 11
37.7455280375
 21
34.621936543
  0
LINE
  5
262
100
AcDbEntity
  8
0
100
AcDbLine
 62
7
  6
BYLAYER
 10
37.9955280375
 20
34.721936543
 11
37.9955280375
 21
50.521936543
  0
LINE
  5
263
100
AcDbEntity
  8
0
100
AcDbLine
 62
7
  6
BYLAYER
 10
38.4455280375
 20
50.521936543
 11
38.4455280375
 21
34.721936543
  0
LINE
  5
264
100
AcDbEntity
  8
0
100
AcDbLine
 62
7
  6
BYLAYER
 10
39.0862017018
 20
50.2332517317
 11
39.0862017018
 21
46.6257510858
  0
LINE
  5
265
100
AcDbEntity
  8
0
100
AcDbLine
 62
7
  6
BYLAYER
 10
39.0862017018
 20
46.2294367893
 11
39.0862017018
 21
39.014435883
  0
LINE
  5
266
100
AcDbEntity
  8
0
100
AcDbLine
 62
7
  6
BYLAYER
 10
39.0862017018
 20
38.6181216006
 11
39.0862017018
 21
35.0106213402
  0
LINE
  5
267
100
AcDbEntity
  8
0
100
AcDbLine
 62
7
  6
BYLAYER
 10
39.1455280375
 20
46.1650523451
 11
39.1455280375
 21
39.0788207409
  0
LINE
  5
268
100
AcDbEntity
  8
0
100
AcDbLine
 62
7
  6
BYLAYER
 10
39.1455280375
 20
38.757571231
 11
39.1455280375
 21
35.1026922369
  0
LINE
  5
269
100
AcDbEntity
  8
0
100
AcDbLine
 62
7
  6
BYLAYER
 10
39.1455280375
 20
46.486301855
 11
39.1455280375
 21
50.1411808491
  0
LINE
  5
26A
100
AcDbEntity
  8
0
100
AcDbLine
 62
7
  6
BYLAYER
 10
37.7455280375
 20
50.3362222573
 11
17.3759348213
 21
50.3362222573
  0
LINE
  5
26B
100
AcDbEntity
  8
0
100
AcDbLine
 62
7
  6
BYLAYER
 10
38.4455280375
 20
50.521936543
 11
37.9955280375
 21
50.521936543
  0
LINE
  5
26C
100
AcDbEntity
  8
0
100
AcDbLine
 62
7
  6
BYLAYER
 10
37.7455280375
 20
50.621936543
 11
15.0955280375
 21
50.621936543
  0
LINE
  5
26D
100
AcDbEntity
  8
0
100
AcDbLine
 62
7
  6
BYLAYER
 10
37.9955280375
 20
34.721936543
 11
37.7455280375
 21
34.621936543
  0
LINE
  5
26E
100
AcDbEntity
  8
0
100
AcDbLine
 62
7
  6
BYLAYER
 10
37.9955280375
 20
50.521936543
 11
37.7455280375
 21
50.621936543
  0
LINE
  5
26F
100
AcDbEntity
  8
0
100
AcDbLine
 62
7
  6
BYLAYER
 10
38.5522089575
 20
34.7696190181
 11
38.4455280375
 21
34.7219400267
  0
LINE
  5
270
100
AcDbEntity
  8
0
100
AcDbLine
 62
7
  6
BYLAYER
 10
38.4455280375
 20
50.5219373888
 11
38.5522407243
 21
50.4743345604
  0
LINE
  5
271
100
AcDbEntity
  8
0
100
AcDbLine
 62
7
  6
BYLAYER
 10
44.5455280375
 20
47.8190511271
 11
44.5455280375
 21
37.4248219589
  0
LINE
  5
272
100
AcDbEntity
  8
0
100
AcDbLine
 62
7
  6
BYLAYER
 10
45.5455280375
 20
46.7462546685
 11
45.5455280375
 21
38.4976184175
  0
LINE
  5
273
100
AcDbEntity
  8
0
100
AcDbLine
 62
7
  6
BYLAYER
 10
51.7455280375
 20
46.2188101855
 11
51.7455280375
 21
39.0250629005
  0
LINE
  5
274
100
AcDbEntity
  8
0
100
AcDbLine
 62
7
  6
BYLAYER
 10
52.2455280375
 20
45.6530254562
 11
52.2455280375
 21
39.5908476298
  0
ARC
  5
275
100
AcDbEntity
  8
0
100
AcDbCircle
 62
7
  6
BYLAYER
 10
-42.3718097899
 20
-105.3746589578
 40
172.1023245233
100
AcDbArc
 50
61.750535394
 51
61.9923868395
  0
ARC
  5
276
100
AcDbEntity
  8
0
100
AcDbCircle
 62
7
  6
BYLAYER
 10
-28.8917221983
 20
-21.6448822587
 40
101.0854608098
100
AcDbArc
 50
42.5760843662
 51
43.4073131046
  0
ARC
  5
277
100
AcDbEntity
  8
0
100
AcDbCircle
 62
7
  6
BYLAYER
 10
-41.1894182221
 20
188.4067622532
 40
169.5943459394
100
AcDbArc
 50
298.0058251397
 51
298.2512594572
  0
ARC
  5
278
100
AcDbEntity
  8
0
100
AcDbCircle
 62
7
  6
BYLAYER
 10
-27.686968447
 20
105.7633178412
 40
99.4368476485
100
AcDbArc
 50
316.5867708492
 51
317.4317810946
  0
ARC
  5
279
100
AcDbEntity
  8
0
100
AcDbCircle
 62
7
  6
BYLAYER
 10
48.5988425374
 20
-70.461862022
 40
117.4733986662
100
AcDbArc
 50
94.6447230207
 51
94.9583038951
  0
ARC
  5
27A
100
AcDbEntity
  8
0
100
AcDbCircle
 62
7
  6
BYLAYER
 10
7.3155172169
 20
-19.4230121915
 40
76.5595975592
100
AcDbArc
 50
65.4819680774
 51
65.9204060985
  0
ARC
  5
27B
100
AcDbEntity
  8
0
100
AcDbCircle
 62
7
  6
BYLAYER
 10
21.272955536
 20
18.7835280421
 40
41.0033186206
100
AcDbArc
 50
40.9425226679
 51
41.9975554952
  0
ARC
  5
27C
100
AcDbEntity
  8
0
100
AcDbCircle
 62
7
  6
BYLAYER
 10
15.0988268879
 20
41.4036764657
 40
9.2182606676
100
AcDbArc
 50
76.0870340644
 51
90.020503891
  0
ARC
  5
27D
100
AcDbEntity
  8
0
100
AcDbCircle
 62
7
  6
BYLAYER
 10
11.5955280375
 20
40.421936543
 40
0.2
100
AcDbArc
 50
0.0
 51
90.0
  0
ARC
  5
27E
100
AcDbEntity
  8
0
100
AcDbCircle
 62
7
  6
BYLAYER
 10
11.7955280375
 20
39.321936543
 40
0.2
100
AcDbArc
 50
180.0
 51
270.0
  0
ARC
  5
27F
100
AcDbEntity
  8
0
100
AcDbCircle
 62
7
  6
BYLAYER
 10
11.5955280375
 20
44.821936543
 40
0.2
100
AcDbArc
 50
270.0
 51
360.0
  0
ARC
  5
280
100
AcDbEntity
  8
0
100
AcDbCircle
 62
7
  6
BYLAYER
 10
11.7955280375
 20
45.921936543
 40
0.2
100
AcDbArc
 50
90.0
 51
180.0
  0
ARC
  5
281
100
AcDbEntity
  8
0
100
AcDbCircle
 62
7
  6
BYLAYER
 10
15.1292741384
 20
41.5485638624
 40
9.0703045312
100
AcDbArc
 50
75.6588987792
 51
76.0536567559
  0
CIRCLE
  5
282
100
AcDbEntity
  8
0
100
AcDbCircle
 62
7
  6
BYLAYER
 10
15.0955280375
 20
42.621936543
 40
8.0
  0
ARC
  5
283
100
AcDbEntity
  8
0
100
AcDbCircle
 62
7
  6
BYLAYER
 10
15.0955280375
 20
42.621936543
 40
7.4
100
AcDbArc
 50
350.7188983855
 51
354.2811016145
  0
ARC
  5
284
100
AcDbEntity
  8
0
100
AcDbCircle
 62
7
  6
BYLAYER
 10
15.0955280375
 20
42.621936543
 40
7.4
100
AcDbArc
 50
335.7188983855
 51
339.2811016145
  0
ARC
  5
285
100
AcDbEntity
  8
0
100
AcDbCircle
 62
7
  6
BYLAYER
 10
15.0955280375
 20
42.621936543
 40
7.4
100
AcDbArc
 50
290.7188983855
 51
294.2811016145
  0
ARC
  5
286
100
AcDbEntity
  8
0
100
AcDbCircle
 62
7
  6
BYLAYER
 10
15.0955280375
 20
42.621936543
 40
7.4
100
AcDbArc
 50
275.7188983855
 51
279.2811016145
  0
ARC
  5
287
100
AcDbEntity
  8
0
100
AcDbCircle
 62
7
  6
BYLAYER
 10
15.0955280375
 20
42.621936543
 40
7.4
100
AcDbArc
 50
260.7188983855
 51
264.2811016145
  0
ARC
  5
288
100
AcDbEntity
  8
0
100
AcDbCircle
 62
7
  6
BYLAYER
 10
15.0955280375
 20
42.621936543
 40
7.4
100
AcDbArc
 50
245.7188983855
 51
249.2811016145
  0
ARC
  5
289
100
AcDbEntity
  8
0
100
AcDbCircle
 62
7
  6
BYLAYER
 10
15.0955280375
 20
42.621936543
 40
7.4
100
AcDbArc
 50
155.7188983855
 51
159.2811016145
  0
ARC
  5
28A
100
AcDbEntity
  8
0
100
AcDbCircle
 62
7
  6
BYLAYER
 10
15.0955280375
 20
42.621936543
 40
7.4
100
AcDbArc
 50
200.7188983855
 51
204.2811016145
  0
ARC
  5
28B
100
AcDbEntity
  8
0
100
AcDbCircle
 62
7
  6
BYLAYER
 10
15.0955280375
 20
42.621936543
 40
7.4
100
AcDbArc
 50
185.7188983855
 51
189.2811016145
  0
ARC
  5
28C
100
AcDbEntity
  8
0
100
AcDbCircle
 62
7
  6
BYLAYER
 10
15.0955280375
 20
42.621936543
 40
7.4
100
AcDbArc
 50
170.7188983855
 51
174.2811016145
  0
ARC
  5
28D
100
AcDbEntity
  8
0
100
AcDbCircle
 62
7
  6
BYLAYER
 10
15.0955280375
 20
42.621936543
 40
7.4
100
AcDbArc
 50
110.7188983855
 51
114.2811016145
  0
ARC
  5
28E
100
AcDbEntity
  8
0
100
AcDbCircle
 62
7
  6
BYLAYER
 10
15.0955280375
 20
42.621936543
 40
7.4
100
AcDbArc
 50
95.7188983855
 51
99.2811016145
  0
ARC
  5
28F
100
AcDbEntity
  8
0
100
AcDbCircle
 62
7
  6
BYLAYER
 10
15.0955280375
 20
42.621936543
 40
7.4
100
AcDbArc
 50
5.7188983855
 51
9.2811016145
  0
ARC
  5
290
100
AcDbEntity
  8
0
100
AcDbCircle
 62
7
  6
BYLAYER
 10
15.0955280375
 20
42.621936543
 40
7.4
100
AcDbArc
 50
80.7188983855
 51
84.2811016145
  0
ARC
  5
291
100
AcDbEntity
  8
0
100
AcDbCircle
 62
7
  6
BYLAYER
 10
15.0955280375
 20
42.621936543
 40
7.4
100
AcDbArc
 50
65.7188983855
 51
69.2811016145
  0
ARC
  5
292
100
AcDbEntity
  8
0
100
AcDbCircle
 62
7
  6
BYLAYER
 10
15.0955280375
 20
42.621936543
 40
7.4
100
AcDbArc
 50
20.7188983855
 51
24.2811016145
  0
ARC
  5
293
100
AcDbEntity
  8
0
100
AcDbCircle
 62
7
  6
BYLAYER
 10
15.0955280375
 20
42.621936543
 40
7.2
100
AcDbArc
 50
349.9127185415
 51
355.087281476
  0
ARC
  5
294
100
AcDbEntity
  8
0
100
AcDbCircle
 62
7
  6
BYLAYER
 10
15.0955280375
 20
42.621936543
 40
7.2
100
AcDbArc
 50
334.9127185415
 51
340.087281476
  0
ARC
  5
295
100
AcDbEntity
  8
0
100
AcDbCircle
 62
7
  6
BYLAYER
 10
15.0955280375
 20
42.621936543
 40
7.2
100
AcDbArc
 50
289.9127185415
 51
295.087281476
  0
ARC
  5
296
100
AcDbEntity
  8
0
100
AcDbCircle
 62
7
  6
BYLAYER
 10
15.0955280375
 20
42.621936543
 40
7.2
100
AcDbArc
 50
274.9127185415
 51
280.087281476
  0
ARC
  5
297
100
AcDbEntity
  8
0
100
AcDbCircle
 62
7
  6
BYLAYER
 10
15.0955280375
 20
42.621936543
 40
7.2
100
AcDbArc
 50
259.9127185415
 51
265.087281476
  0
ARC
  5
298
100
AcDbEntity
  8
0
100
AcDbCircle
 62
7
  6
BYLAYER
 10
15.0955280375
 20
42.621936543
 40
7.2
100
AcDbArc
 50
154.9127185521
 51
160.0872814469
  0
ARC
  5
299
100
AcDbEntity
  8
0
100
AcDbCircle
 62
7
  6
BYLAYER
 10
15.0955280375
 20
42.621936543
 40
7.2
100
AcDbArc
 50
244.9127185415
 51
250.087281476
  0
ARC
  5
29A
100
AcDbEntity
  8
0
100
AcDbCircle
 62
7
  6
BYLAYER
 10
15.0955280375
 20
42.621936543
 40
7.2
100
AcDbArc
 50
199.9127185521
 51
205.0872814469
  0
ARC
  5
29B
100
AcDbEntity
  8
0
100
AcDbCircle
 62
7
  6
BYLAYER
 10
15.0955280375
 20
42.621936543
 40
7.2
100
AcDbArc
 50
184.9127185521
 51
190.0872814469
  0
ARC
  5
29C
100
AcDbEntity
  8
0
100
AcDbCircle
 62
7
  6
BYLAYER
 10
15.0955280375
 20
42.621936543
 40
7.2
100
AcDbArc
 50
109.9127185521
 51
115.0872814469
  0
ARC
  5
29D
100
AcDbEntity
  8
0
100
AcDbCircle
 62
7
  6
BYLAYER
 10
15.0955280375
 20
42.621936543
 40
7.2
100
AcDbArc
 50
169.9127185521
 51
175.0872814469
  0
ARC
  5
29E
100
AcDbEntity
  8
0
100
AcDbCircle
 62
7
  6
BYLAYER
 10
15.0955280375
 20
42.621936543
 40
7.2
100
AcDbArc
 50
94.9127185521
 51
100.0872814469
  0
ARC
  5
29F
100
AcDbEntity
  8
0
100
AcDbCircle
 62
7
  6
BYLAYER
 10
15.0955280375
 20
42.621936543
 40
7.2
100
AcDbArc
 50
79.9127185521
 51
85.0872814469
  0
ARC
  5
2A0
100
AcDbEntity
  8
0
100
AcDbCircle
 62
7
  6
BYLAYER
 10
15.0955280375
 20
42.621936543
 40
7.2
100
AcDbArc
 50
4.9127185415
 51
10.087281476
  0
ARC
  5
2A1
100
AcDbEntity
  8
0
100
AcDbCircle
 62
7
  6
BYLAYER
 10
15.0955280375
 20
42.621936543
 40
7.2
100
AcDbArc
 50
64.9127185521
 51
70.0872814469
  0
ARC
  5
2A2
100
AcDbEntity
  8
0
100
AcDbCircle
 62
7
  6
BYLAYER
 10
15.0955280375
 20
42.621936543
 40
7.2
100
AcDbArc
 50
19.9127185415
 51
25.087281476
  0
CIRCLE
  5
2A3
100
AcDbEntity
  8
0
100
AcDbCircle
 62
7
  6
BYLAYER
 10
15.0955280375
 20
42.621936543
 40
6.7
  0
CIRCLE
  5
2A4
100
AcDbEntity
  8
0
100
AcDbCircle
 62
7
  6
BYLAYER
 10
15.0955280375
 20
42.621936543
 40
6.5
  0
CIRCLE
  5
2A5
100
AcDbEntity
  8
0
100
AcDbCircle
 62
7
  6
BYLAYER
 10
15.0955280375
 20
42.621936543
 40
6.35
  0
ARC
  5
2A6
100
AcDbEntity
  8
0
100
AcDbCircle
 62
7
  6
BYLAYER
 10
15.0955280375
 20
42.621936543
 40
5.75
100
AcDbArc
 50
100.7012654404
 51
259.2987345596
  0
ARC
  5
2A7
100
AcDbEntity
  8
0
100
AcDbCircle
 62
7
  6
BYLAYER
 10
15.0955280375
 20
42.621936543
 40
5.75
100
AcDbArc
 50
280.7012654404
 51
79.2987345596
  0
CIRCLE
  5
2A8
100
AcDbEntity
  8
0
100
AcDbCircle
 62
7
  6
BYLAYER
 10
15.0955280375
 20
42.621936543
 40
5.4999998494
  0
CIRCLE
  5
2A9
100
AcDbEntity
  8
0
100
AcDbCircle
 62
7
  6
BYLAYER
 10
15.0955280375
 20
42.621936543
 40
5.25
  0
ARC
  5
2AA
100
AcDbEntity
  8
0
100
AcDbCircle
 62
7
  6
BYLAYER
 10
15.0955280375
 20
42.621936543
 40
4.5
100
AcDbArc
 50
98.3051095281
 51
128.9424403558
  0
ARC
  5
2AB
100
AcDbEntity
  8
0
100
AcDbCircle
 62
7
  6
BYLAYER
 10
15.0955280375
 20
42.621936543
 40
4.5
100
AcDbArc
 50
231.0575568018
 51
81.6948904719
  0
ARC
  5
2AC
100
AcDbEntity
  8
0
100
AcDbCircle
 62
7
  6
BYLAYER
 10
15.0955280375
 20
42.621936543
 40
4.5
100
AcDbArc
 50
141.057558731
 51
218.942441269
  0
ARC
  5
2AD
100
AcDbEntity
  8
0
100
AcDbCircle
 62
7
  6
BYLAYER
 10
15.0955280375
 20
42.621936543
 40
4.25
100
AcDbArc
 50
151.9275132656
 51
208.0724868855
  0
ARC
  5
2AE
100
AcDbEntity
  8
0
100
AcDbCircle
 62
7
  6
BYLAYER
 10
15.0955280375
 20
42.621936543
 40
4.25
100
AcDbArc
 50
241.927513064
 51
81.2025900092
  0
ARC
  5
2AF
100
AcDbEntity
  8
0
100
AcDbCircle
 62
7
  6
BYLAYER
 10
15.0955280375
 20
42.621936543
 40
4.25
100
AcDbArc
 50
98.7974102892
 51
118.072486936
  0
ARC
  5
2B0
100
AcDbEntity
  8
0
100
AcDbCircle
 62
7
  6
BYLAYER
 10
15.0955280375
 20
42.621936543
 40
3.7499995806
100
AcDbArc
 50
270.0
 51
90.0000655074
  0
ARC
  5
2B1
100
AcDbEntity
  8
0
100
AcDbCircle
 62
7
  6
BYLAYER
 10
15.0955280375
 20
42.621936543
 40
3.5
100
AcDbArc
 50
269.999999998
 51
90.0000000023
  0
ARC
  5
2B2
100
AcDbEntity
  8
0
100
AcDbCircle
 62
7
  6
BYLAYER
 10
15.1292662909
 20
43.6953431221
 40
9.0703393172
100
AcDbArc
 50
283.9463351482
 51
284.3410962085
  0
ARC
  5
2B3
100
AcDbEntity
  8
0
100
AcDbCircle
 62
7
  6
BYLAYER
 10
15.2438157986
 20
42.5049042403
 40
8.1112817278
100
AcDbArc
 50
66.7743166033
 51
68.0971437904
  0
ARC
  5
2B4
100
AcDbEntity
  8
0
100
AcDbCircle
 62
7
  6
BYLAYER
 10
15.0989777251
 20
43.8392525034
 40
9.2173079768
100
AcDbArc
 50
270.1207521428
 51
283.9134624225
  0
ARC
  5
2B5
100
AcDbEntity
  8
0
100
AcDbCircle
 62
7
  6
BYLAYER
 10
21.6741655129
 20
66.1054950717
 40
40.4677307173
100
AcDbArc
 50
317.9957417791
 51
319.0647385027
  0
ARC
  5
2B6
100
AcDbEntity
  8
0
100
AcDbCircle
 62
7
  6
BYLAYER
 10
7.48703253
 20
104.2860672659
 40
76.1419383599
100
AcDbArc
 50
294.0786803626
 51
294.519538236
  0
ARC
  5
2B7
100
AcDbEntity
  8
0
100
AcDbCircle
 62
7
  6
BYLAYER
 10
48.7455280375
 20
42.621936543
 40
5.8
100
AcDbArc
 50
232.6638954552
 51
127.3365687351
  0
ARC
  5
2B8
100
AcDbEntity
  8
0
100
AcDbCircle
 62
7
  6
BYLAYER
 10
48.7455280375
 20
42.621936543
 40
5.6
100
AcDbArc
 50
232.8089148306
 51
127.1896386483
  0
CIRCLE
  5
2B9
100
AcDbEntity
  8
0
100
AcDbCircle
 62
7
  6
BYLAYER
 10
48.7455280375
 20
42.621936543
 40
1.265
  0
ARC
  5
2BA
100
AcDbEntity
  8
0
100
AcDbCircle
 62
7
  6
BYLAYER
 10
48.757883122
 20
157.5990876418
 40
119.3734142783
100
AcDbArc
 50
265.0441913028
 51
265.3527730696
  0
SPLINE
  5
2BB
100
AcDbEntity
  8
0
100
AcDbSpline
 62
7
  6
BYLAYER
 70
0
 71
3
 72
25
 73
21
 74
0
 42
0.0000001
 43
0.0000001
 44
0.0000000001
 40
0.0
 40
0.0
 40
0.0
 40
0.0
 40
0.0316413889
 40
0.0632034978
 40
0.0946334095
 40
0.1259083473
 40
0.187966772
 40
0.2498031775
 40
0.3117928181
 40
0.3742062779
 40
0.4999999967
 40
0.6257937433
 40
0.6882071971
 40
0.7501968094
 40
0.8120331941
 40
0.8740916209
 40
0.9053665645
 40
0.9367964978
 40
0.9683586178
 40
1.0
 40
1.0
 40
1.0
 40
1.0
 10
46.4305280375
 20
42.621936543
 30
0.0
 10
46.4305280375
 20
42.691072214
 30
0.0
 10
46.4403480746
 20
42.8293680483
 30
0.0
 10
46.4837679892
 20
43.032162865
 30
0.0
 10
46.5537589153
 20
43.2265316176
 30
0.0
 10
46.6781688381
 20
43.4697748442
 30
0.0
 10
46.8853390272
 20
43.7420333935
 30
0.0
 10
47.1937150618
 20
44.0099382728
 30
0.0
 10
47.5453151558
 20
44.2188052258
 30
0.0
 10
48.0561083115
 20
44.4189817487
 30
0.0
 10
48.7455280742
 20
44.5199031185
 30
0.0
 10
49.4349478328
 20
44.4189817479
 30
0.0
 10
49.945740961
 20
44.218805195
 30
0.0
 10
50.2973409478
 20
44.0099383033
 30
0.0
 10
50.6057169262
 20
43.7420335204
 30
0.0
 10
50.8128871307
 20
43.4697750168
 30
0.0
 10
50.9372971023
 20
43.2265317429
 30
0.0
 10
51.0072880739
 20
43.0321629162
 30
0.0
 10
51.0507079986
 20
42.829368043
 30
0.0
 10
51.0605280375
 20
42.6910721994
 30
0.0
 10
51.0605280375
 20
42.621936543
 30
0.0
  0
SPLINE
  5
2BC
100
AcDbEntity
  8
0
100
AcDbSpline
 62
7
  6
BYLAYER
 70
0
 71
3
 72
25
 73
21
 74
0
 42
0.0000001
 43
0.0000001
 44
0.0000000001
 40
0.0
 40
0.0
 40
0.0
 40
0.0
 40
0.0316413886
 40
0.0632034974
 40
0.0946334091
 40
0.125908347
 40
0.1879667717
 40
0.2498031773
 40
0.3117928181
 40
0.374206278
 40
0.4999999967
 40
0.6257937433
 40
0.6882071973
 40
0.7501968094
 40
0.812033194
 40
0.8740916208
 40
0.9053665645
 40
0.936796498
 40
0.9683586181
 40
1.0
 40
1.0
 40
1.0
 40
1.0
 10
51.0605280375
 20
42.621936543
 30
0.0
 10
51.0605280375
 20
42.5528008726
 30
0.0
 10
51.0507080005
 20
42.4145050392
 30
0.0
 10
51.0072880863
 20
42.2117102233
 30
0.0
 10
50.9372971608
 20
42.0173414706
 30
0.0
 10
50.812887238
 20
41.7740982437
 30
0.0
 10
50.6057170491
 20
41.5018396938
 30
0.0
 10
50.2973410141
 20
41.2339348138
 30
0.0
 10
49.9457409194
 20
41.0250678603
 30
0.0
 10
49.4349477632
 20
40.8248913372
 30
0.0
 10
48.7455280003
 20
40.7239699675
 30
0.0
 10
48.0561082417
 20
40.8248913382
 30
0.0
 10
47.5453151135
 20
41.0250678913
 30
0.0
 10
47.1937151271
 20
41.2339347828
 30
0.0
 10
46.885339149
 20
41.5018395654
 30
0.0
 10
46.6781689446
 20
41.7740980688
 30
0.0
 10
46.5537589725
 20
42.0173413433
 30
0.0
 10
46.4837680009
 20
42.2117101708
 30
0.0
 10
46.4403480763
 20
42.4145050441
 30
0.0
 10
46.4305280375
 20
42.5528008873
 30
0.0
 10
46.4305280375
 20
42.621936543
 30
0.0
  0
SPLINE
  5
2BD
100
AcDbEntity
  8
0
100
AcDbSpline
 62
7
  6
BYLAYER
 70
0
 71
3
 72
11
 73
7
 74
0
 42
0.0000001
 43
0.0000001
 44
0.0000000001
 40
0.0
 40
0.0
 40
0.0
 40
0.0
 40
0.3092985013
 40
0.5873527443
 40
0.8187831824
 40
1.0
 40
1.0
 40
1.0
 40
1.0
 10
39.0861885312
 20
46.2294459201
 30
0.0
 10
39.0944246198
 20
46.2250200278
 30
0.0
 10
39.1095662313
 20
46.2156334148
 30
0.0
 10
39.128504623
 20
46.1994826569
 30
0.0
 10
39.1414146074
 20
46.1828865955
 30
0.0
 10
39.1455280375
 20
46.1705304488
 30
0.0
 10
39.1455280375
 20
46.1650523451
 30
0.0
  0
SPLINE
  5
2BE
100
AcDbEntity
  8
0
100
AcDbSpline
 62
7
  6
BYLAYER
 70
0
 71
3
 72
9
 73
5
 74
0
 42
0.0000001
 43
0.0000001
 44
0.0000000001
 40
0.0
 40
0.0
 40
0.0
 40
0.0
 40
0.4930428313
 40
1.0
 40
1.0
 40
1.0
 40
1.0
 10
39.0861885312
 20
50.2332611991
 30
0.0
 10
39.1032578933
 20
50.2254747317
 30
0.0
 10
39.1340159405
 20
50.1993559712
 30
0.0
 10
39.1455280375
 20
50.1604717779
 30
0.0
 10
39.1455280375
 20
50.1411808491
 30
0.0
  0
SPLINE
  5
2BF
100
AcDbEntity
  8
0
100
AcDbSpline
 62
7
  6
BYLAYER
 70
0
 71
3
 72
9
 73
5
 74
0
 42
0.0000001
 43
0.0000001
 44
0.0000000001
 40
0.0
 40
0.0
 40
0.0
 40
0.0
 40
0.506960946
 40
1.0
 40
1.0
 40
1.0
 40
1.0
 10
39.1455280375
 20
35.1026922369
 30
0.0
 10
39.1455280375
 20
35.0834046823
 30
0.0
 10
39.1340190395
 20
35.0445288757
 30
0.0
 10
39.1032711858
 20
35.0184087534
 30
0.0
 10
39.0862050673
 20
35.0106237656
 30
0.0
  0
SPLINE
  5
2C0
100
AcDbEntity
  8
0
100
AcDbSpline
 62
7
  6
BYLAYER
 70
0
 71
3
 72
11
 73
7
 74
0
 42
0.0000001
 43
0.0000001
 44
0.0000000001
 40
0.0
 40
0.0
 40
0.0
 40
0.0
 40
0.1812458826
 40
0.4126499471
 40
0.690679005
 40
1.0
 40
1.0
 40
1.0
 40
1.0
 10
39.1455280375
 20
39.0788207409
 30
0.0
 10
39.1455280375
 20
39.0733430173
 30
0.0
 10
39.1414127113
 20
39.0609905598
 30
0.0
 10
39.1285104794
 20
39.0443962986
 30
0.0
 10
39.1095764823
 20
39.028249898
 30
0.0
 10
39.0944398625
 20
39.018863417
 30
0.0
 10
39.0862050673
 20
39.0144382198
 30
0.0
  0
SPLINE
  5
2C1
100
AcDbEntity
  8
0
100
AcDbSpline
 62
7
  6
BYLAYER
 70
0
 71
3
 72
9
 73
5
 74
0
 42
0.0000001
 43
0.0000001
 44
0.0000000001
 40
0.0
 40
0.0
 40
0.0
 40
0.0
 40
0.2731521391
 40
1.0
 40
1.0
 40
1.0
 40
1.0
 10
11.345528235
 20
44.621936478
 30
0.0
 10
11.360063912
 20
44.6841978311
 30
0.0
 10
11.4149388375
 20
44.911748121
 30
0.0
 10
11.4750420249
 20
45.1380039532
 30
0.0
 10
11.5202097254
 20
45.3020289624
 30
0.0
  0
LINE
  5
2C2
100
AcDbEntity
  8
0
100
AcDbLine
 62
7
  6
BYLAYER
 10
11.5202097254
 20
45.3020289624
 11
11.5281059501
 21
45.3306473877
  0
SPLINE
  5
2C3
100
AcDbEntity
  8
0
100
AcDbSpline
 62
7
  6
BYLAYER
 70
0
 71
3
 72
12
 73
8
 74
0
 42
0.0000001
 43
0.0000001
 44
0.0000000001
 40
0.0
 40
0.0
 40
0.0
 40
0.0
 40
0.3259053016
 40
0.5946528733
 40
0.8070354043
 40
0.9028328127
 40
1.0
 40
1.0
 40
1.0
 40
1.0
 10
39.0861885314
 20
38.618121264
 30
0.0
 10
39.0940801255
 20
38.6174803746
 30
0.0
 10
39.1086253161
 20
38.6174236458
 30
0.0
 10
39.1279892713
 20
38.6215586697
 30
0.0
 10
39.1401708047
 20
38.6298295617
 30
0.0
 10
39.14482053
 20
38.6387189641
 30
0.0
 10
39.1455280375
 20
38.6434474499
 30
0.0
 10
39.1455280375
 20
38.645808039
 30
0.0
  0
LINE
  5
2C4
100
AcDbEntity
  8
0
100
AcDbLine
 62
7
  6
BYLAYER
 10
11.5348705716
 20
39.8887933476
 11
11.5281096908
 21
39.9132121633
  0
LINE
  5
2C5
100
AcDbEntity
  8
0
100
AcDbLine
 62
7
  6
BYLAYER
 10
11.5281096908
 20
39.9132121633
 11
11.5200577733
 21
39.9423959506
  0
SPLINE
  5
2C6
100
AcDbEntity
  8
0
100
AcDbSpline
 62
7
  6
BYLAYER
 70
0
 71
3
 72
9
 73
5
 74
0
 42
0.0000001
 43
0.0000001
 44
0.0000000001
 40
0.0
 40
0.0
 40
0.0
 40
0.0
 40
0.2138467479
 40
1.0
 40
1.0
 40
1.0
 40
1.0
 10
11.5200577733
 20
39.9423959506
 30
0.0
 10
11.5067809265
 20
39.9906141648
 30
0.0
 10
11.4452968579
 20
40.2162556713
 30
0.0
 10
11.3873283399
 20
40.4428922337
 30
0.0
 10
11.3455282332
 20
40.6219366076
 30
0.0
  0
SPLINE
  5
2C7
100
AcDbEntity
  8
0
100
AcDbSpline
 62
7
  6
BYLAYER
 70
0
 71
3
 72
20
 73
16
 74
0
 42
0.0000001
 43
0.0000001
 44
0.0000000001
 40
0.0
 40
0.0
 40
0.0
 40
0.0
 40
0.156424578
 40
0.3108563369
 40
0.4623016088
 40
0.6086275393
 40
0.6790281855
 40
0.746718741
 40
0.8107449156
 40
0.8696383257
 40
0.9214526164
 40
0.962847238
 40
0.9784897435
 40
0.9901794434
 40
1.0
 40
1.0
 40
1.0
 40
1.0
 10
13.0955286752
 20
46.3719341515
 30
0.0
 10
13.0562128288
 20
46.3614500398
 30
0.0
 10
12.9782761792
 20
46.3398784793
 30
0.0
 10
12.8630152545
 20
46.3055553429
 30
0.0
 10
12.7509686578
 20
46.2697210488
 30
0.0
 10
12.6603397696
 20
46.2387517508
 30
0.0
 10
12.5907054759
 20
46.2137382304
 30
0.0
 10
12.5414183976
 20
46.195482237
 30
0.0
 10
12.4950410654
 20
46.1777797215
 30
0.0
 10
12.4528982336
 20
46.1612666582
 30
0.0
 10
12.4156629411
 20
46.1462640511
 30
0.0
 10
12.3907219323
 20
46.136070588
 30
0.0
 10
12.372360227
 20
46.1283953897
 30
0.0
 10
12.3670046642
 20
46.1262413111
 30
0.0
 10
12.3546068268
 20
46.1208708467
 30
0.0
 10
12.356926602
 20
46.1219406166
 30
0.0
  0
SPLINE
  5
2C8
100
AcDbEntity
  8
0
100
AcDbSpline
 62
7
  6
BYLAYER
 70
0
 71
3
 72
27
 73
23
 74
0
 42
0.0000001
 43
0.0000001
 44
0.0000000001
 40
0.0
 40
0.0
 40
0.0
 40
0.0
 40
0.034260417
 40
0.0685007922
 40
0.1026424961
 40
0.1366129389
 40
0.1703759935
 40
0.2039022425
 40
0.2701306013
 40
0.3351106466
 40
0.3987991023
 40
0.4612530751
 40
0.5225588004
 40
0.5828797663
 40
0.6424318902
 40
0.7014502816
 40
0.7601668693
 40
0.8189208544
 40
0.8781624826
 40
0.9081356485
 40
0.9384225239
 40
1.0
 40
1.0
 40
1.0
 40
1.0
 10
23.3455280375
 20
42.6219365428
 30
0.0
 10
23.3466235288
 20
42.5023336765
 30
0.0
 10
23.3418286777
 20
42.2630889354
 30
0.0
 10
23.3159679696
 20
41.9055523524
 30
0.0
 10
23.2739436618
 20
41.5505903566
 30
0.0
 10
23.2171464401
 20
41.1993858854
 30
0.0
 10
23.1453549732
 20
40.8531130087
 30
0.0
 10
23.0300572588
 20
40.4013283369
 30
0.0
 10
22.85017641
 20
39.8542095284
 30
0.0
 10
22.5824633932
 20
39.2277976234
 30
0.0
 10
22.2684038565
 20
38.6381844786
 30
0.0
 10
21.9135043904
 20
38.0875149587
 30
0.0
 10
21.5229573811
 20
37.5763053542
 30
0.0
 10
21.1001350798
 20
37.1050003687
 30
0.0
 10
20.6474187664
 20
36.6738459146
 30
0.0
 10
20.1671964498
 20
36.2824743048
 30
0.0
 10
19.6623103331
 20
35.9283740666
 30
0.0
 10
19.1320883484
 20
35.6118994197
 30
0.0
 10
18.6692242345
 20
35.3812889918
 30
0.0
 10
18.285570826
 20
35.2171520146
 30
0.0
 10
17.8882460654
 20
35.0650759065
 30
0.0
 10
17.582585211
 20
34.9668969114
 30
0.0
 10
17.3759348213
 20
34.9076508287
 30
0.0
  0
SPLINE
  5
2C9
100
AcDbEntity
  8
0
100
AcDbSpline
 62
7
  6
BYLAYER
 70
0
 71
3
 72
11
 73
7
 74
0
 42
0.0000001
 43
0.0000001
 44
0.0000000001
 40
0.0
 40
0.0
 40
0.0
 40
0.0
 40
0.1952974295
 40
0.4188427499
 40
0.683651104
 40
1.0
 40
1.0
 40
1.0
 40
1.0
 10
17.3068321551
 20
34.9336206521
 30
0.0
 10
17.3116365889
 20
34.9350033771
 30
0.0
 10
17.3225631501
 20
34.9359863292
 30
0.0
 10
17.3398242805
 20
34.9319918515
 30
0.0
 10
17.3582809033
 20
34.9224781989
 30
0.0
 10
17.3699818957
 20
34.9131478789
 30
0.0
 10
17.3759349458
 20
34.9076576024
 30
0.0
  0
SPLINE
  5
2CA
100
AcDbEntity
  8
0
100
AcDbSpline
 62
7
  6
BYLAYER
 70
0
 71
3
 72
23
 73
19
 74
0
 42
0.0000001
 43
0.0000001
 44
0.0000000001
 40
0.0
 40
0.0
 40
0.0
 40
0.0
 40
0.0682996049
 40
0.1023915979
 40
0.1363530953
 40
0.2037120333
 40
0.2701786804
 40
0.3356199969
 40
0.3999211711
 40
0.4630772077
 40
0.5251505714
 40
0.5862202694
 40
0.6464136533
 40
0.7059095658
 40
0.7648875978
 40
0.8819612812
 40
0.9406823905
 40
1.0
 40
1.0
 40
1.0
 40
1.0
 10
23.3455280375
 20
42.6219365428
 30
0.0
 10
23.3472768862
 20
42.8345895217
 30
0.0
 10
23.3340108649
 20
43.1537202642
 30
0.0
 10
23.2892951
 20
43.5759779155
 30
0.0
 10
23.2284949302
 20
43.9932927783
 30
0.0
 10
23.1234948277
 20
44.5056486607
 30
0.0
 10
22.9506124491
 20
45.1022062482
 30
0.0
 10
22.7342656712
 20
45.674203575
 30
0.0
 10
22.4794021357
 20
46.2186901405
 30
0.0
 10
22.1895608255
 20
46.7333694195
 30
0.0
 10
21.8681990199
 20
47.2168833227
 30
0.0
 10
21.5193071364
 20
47.6692806956
 30
0.0
 10
21.1449927913
 20
48.0902011249
 30
0.0
 10
20.7463288398
 20
48.4789000563
 30
0.0
 10
20.187150799
 20
48.9540653717
 30
0.0
 10
19.5850172314
 20
49.3729175662
 30
0.0
 10
18.945124511
 20
49.7293283596
 30
0.0
 10
18.6122554439
 20
49.8859987782
 30
0.0
 10
18.4425312315
 20
49.9588368163
 30
0.0
  0
SPLINE
  5
2CB
100
AcDbEntity
  8
0
100
AcDbSpline
 62
7
  6
BYLAYER
 70
0
 71
3
 72
9
 73
5
 74
0
 42
0.0000001
 43
0.0000001
 44
0.0000000001
 40
0.0
 40
0.0
 40
0.0
 40
0.0
 40
0.2470994382
 40
1.0
 40
1.0
 40
1.0
 40
1.0
 10
18.2695999505
 20
50.0306946662
 30
0.0
 10
18.1974091464
 20
50.0597285597
 30
0.0
 10
17.9036106056
 20
50.1731183954
 30
0.0
 10
17.6037722234
 20
50.2706519748
 30
0.0
 10
17.3759348213
 20
50.3362222573
 30
0.0
  0
SPLINE
  5
2CC
100
AcDbEntity
  8
0
100
AcDbSpline
 62
7
  6
BYLAYER
 70
0
 71
3
 72
11
 73
7
 74
0
 42
0.0000001
 43
0.0000001
 44
0.0000000001
 40
0.0
 40
0.0
 40
0.0
 40
0.0
 40
0.206538455
 40
0.4360984203
 40
0.6991514588
 40
1.0
 40
1.0
 40
1.0
 40
1.0
 10
17.3068319288
 20
50.310247986
 30
0.0
 10
17.3119118096
 20
50.3087870472
 30
0.0
 10
17.3233271491
 20
50.3078972462
 30
0.0
 10
17.3408806647
 20
50.3123496851
 30
0.0
 10
17.3589433279
 20
50.3219427353
 30
0.0
 10
17.3702755082
 20
50.3310023792
 30
0.0
 10
17.3759348802
 20
50.3362227407
 30
0.0
  0
SPLINE
  5
2CD
100
AcDbEntity
  8
0
100
AcDbSpline
 62
7
  6
BYLAYER
 70
0
 71
3
 72
12
 73
8
 74
0
 42
0.0000001
 43
0.0000001
 44
0.0000000001
 40
0.0
 40
0.0
 40
0.0
 40
0.0
 40
0.0971750608
 40
0.192988909
 40
0.4053530686
 40
0.674076569
 40
1.0
 40
1.0
 40
1.0
 40
1.0
 10
39.1455280375
 20
46.598065047
 30
0.0
 10
39.1455280375
 20
46.6004252254
 30
0.0
 10
39.1448195907
 20
46.6051530825
 30
0.0
 10
39.1401696778
 20
46.6140392274
 30
0.0
 10
39.1279954614
 20
46.6223118599
 30
0.0
 10
39.1086361621
 20
46.6264456718
 30
0.0
 10
39.0940950878
 20
46.6263917588
 30
0.0
 10
39.0862050673
 20
46.6257509972
 30
0.0
  0
SPLINE
  5
2CE
100
AcDbEntity
  8
0
100
AcDbSpline
 62
7
  6
BYLAYER
 70
0
 71
3
 72
19
 73
15
 74
0
 42
0.0000001
 43
0.0000001
 44
0.0000000001
 40
0.0
 40
0.0
 40
0.0
 40
0.0
 40
0.0025354569
 40
0.0098434361
 40
0.0215123316
 40
0.0371306122
 40
0.0784989957
 40
0.1303055975
 40
0.1891925813
 40
0.2532149137
 40
0.3913145235
 40
0.5376559999
 40
0.6891181966
 40
1.0
 40
1.0
 40
1.0
 40
1.0
 10
12.3569292157
 20
39.1219310148
 30
0.0
 10
12.3575225561
 20
39.1216430706
 30
0.0
 10
12.3599138065
 20
39.1207184237
 30
0.0
 10
12.3650416073
 20
39.118482351
 30
0.0
 10
12.3733606334
 20
39.1150477737
 30
0.0
 10
12.3898445652
 20
39.1081787708
 30
0.0
 10
12.4160320359
 20
39.0974504013
 30
0.0
 10
12.452724888
 20
39.0826797608
 30
0.0
 10
12.4950376179
 20
39.0660931708
 30
0.0
 10
12.5584693129
 20
39.0418855817
 30
0.0
 10
12.6436333492
 20
39.010833891
 30
0.0
 10
12.7509343364
 20
38.9741624951
 30
0.0
 10
12.9017477617
 20
38.9259323531
 30
0.0
 10
13.0173930757
 20
38.892774997
 30
0.0
 10
13.0955287153
 20
38.871939085
 30
0.0
  0
ELLIPSE
  5
2CF
100
AcDbEntity
  8
0
100
AcDbEllipse
 62
7
  6
BYLAYER
 10
38.4455280375
 20
42.621936543
 30
0.0
 11
20.4126526173
 21
-6.5022740143
 31
0.0
 40
0.1625559039
 41
-1.5016102927
 42
-1.4848084806
  0
ELLIPSE
  5
2D0
100
AcDbEntity
  8
0
100
AcDbEllipse
 62
7
  6
BYLAYER
 10
38.4455280375
 20
42.621936543
 30
0.0
 11
20.4126526173
 21
6.5022740143
 31
0.0
 40
0.1625559039
 41
1.4848084806
 42
1.5016104192
  0
ENDSEC
  0
SECTION
  2
OBJECTS
  0
DICTIONARY
  5
C
100
AcDbDictionary
280
0
281
1
  3
ACAD_GROUP
350
D
  3
ACAD_MLINESTYLE
350
17
  3
ACAD_LAYOUT
350
1A
  3
ACAD_PLOTSETTINGS
350
19
  3
ACAD_PLOTSTYLENAME
350
E
  0
DICTIONARY
  5
D
102
{ACAD_REACTORS
330
C
102
}
100
AcDbDictionary
280
0
281
1
  0
ACDBDICTIONARYWDFLT
  5
E
102
{ACAD_REACTORS
330
C
102
}
100
AcDbDictionary
281
1
  3
Normal
350
F
100
AcDbDictionaryWithDefault
340
F
  0
DICTIONARY
  5
17
102
{ACAD_REACTORS
330
C
102
}
100
AcDbDictionary
280
0
281
1
  3
Standard
350
18
  0
DICTIONARY
  5
19
102
{ACAD_REACTORS
330
C
102
}
100
AcDbDictionary
281
1
  0
DICTIONARY
  5
1A
102
{ACAD_REACTORS
330
C
102
}
100
AcDbDictionary
281
1
  3
Model
350
2D1
  3
Layout1
350
2D2
  0
ACDBPLACEHOLDER
  5
F
102
{ACAD_REACTORS
330
E
102
}
  0
MLINESTYLE
  5
18
102
{ACAD_REACTORS
330
17
102
}
100
AcDbMlineStyle
  2
STANDARD
 70
0
  3

 62
256
 51
90.0
 52
90.0
 71
2
 49
0.5
 62
256
  6
BYLAYER
 49
-0.5
 62
256
  6
BYLAYER
  0
LAYOUT
  5
2D1
102
{ACAD_REACTORS
330
1A
102
}
100
AcDbPlotSettings
  1

  2
none_device
  4

  6

 40
0.0
 41
0.0
 42
0.0
 43
0.0
 44
210.0
 45
297.0
 46
0.0
 47
0.0
 48
0.0
 49
0.0
140
0.0
141
0.0
142
1.0
143
1.0
 70
1024
 72
1
 73
0
 74
0
  7

 75
0
147
1.0
148
0.0
149
0.0
100
AcDbLayout
  1
Model
 70
0
 71
0
 10
0.0
 20
0.0
 11
210.0
 21
297.0
 12
0.0
 22
0.0
 32
0.0
 14
0.0
 24
0.0
 34
0.0
 15
0.0
 25
0.0
 35
0.0
146
0.0
 13
0.0
 23
0.0
 33
0.0
 16
1.0
 26
0.0
 36
0.0
 17
0.0
 27
1.0
 37
0.0
 76
0
330
210
345
0
346
0
  0
LAYOUT
  5
2D2
102
{ACAD_REACTORS
330
1A
102
}
100
AcDbPlotSettings
  1

  2
none_device
  4

  6

 40
0.0
 41
0.0
 42
0.0
 43
0.0
 44
210.0
 45
297.0
 46
0.0
 47
0.0
 48
0.0
 49
0.0
140
0.0
141
0.0
142
1.0
143
1.0
 70
0
 72
1
 73
0
 74
0
  7

 75
0
147
1.0
148
0.0
149
0.0
100
AcDbLayout
  1
Layout1
 70
0
 71
1
 10
0.0
 20
0.0
 11
210.0
 21
297.0
 12
0.0
 22
0.0
 32
0.0
 14
0.0
 24
0.0
 34
0.0
 15
0.0
 25
0.0
 35
0.0
146
0.0
 13
0.0
 23
0.0
 33
0.0
 16
1.0
 26
0.0
 36
0.0
 17
0.0
 27
1.0
 37
0.0
 76
0
330
211
345
0
346
0
  0
ENDSEC
  0
EOF
