999
DXF file: C:\Users\sesa63760\Dev\_Creo\CAD\MCADID0004509_3D-CAD\drw0001_1.dxf
999
Pro/ENGINEER 2019471 by Parametric Technology Corporation
  0
SECTION
  2
HEADER
  9
$ACADVER
  1
AC1024
  9
$DWGCODEPAGE
  3
ANSI_1252
  9
$EXTMAX
 10
30.4972059007
 20
43.1317626309
 30
0.0
  9
$EXTMIN
 10
-0.0
 20
0.0
 30
0.0
  9
$LIMMIN
 10
-0.0
 20
0.0
  9
$LIMMAX
 10
30.4972059007
 20
43.1317626309
  9
$VIEWCTR
 10
15.2486029503
 20
21.5658813155
  9
$VIEWSIZE
 40
43.1317626309
  9
$CLAYER
  8
0
  9
$LTSCALE
 40
2.8115519345
  9
$CELTYPE
  6
BYLAYER
  9
$DIMSCALE
 40
1.0
  9
$DIMASZ
 40
0.363061975
  9
$DIMEXO
 40
1.0
  9
$DIMDLI
 40
1.9425267911
  9
$DIMEXE
 40
1.0
  9
$DIMCEN
 40
0.4600721347
  9
$DIMLFAC
 40
1.0
  9
$DIMBLK
  1
_FILLED
  9
$DIMALT
 70
0
  9
$DIMALTF
 40
0.0393700787
  9
$DIMTXT
 40
0.508286765
  9
$DIMTOL
 70
1
  9
$DIMLIM
 70
0
  9
$DIMTFAC
 40
1.0
  9
$DIMTP
 40
0.01
  9
$DIMTM
 40
0.01
  9
$DIMGAP
 40
0.625
  9
$DIMDSEP
 70
46
  9
$AUNITS
 70
0
  9
$PDMODE
 70
3
  9
$PDSIZE
 40
0.3125
  9
$HANDSEED
  5
262
  9
$TILEMODE
 70
1
  9
$MEASUREMENT
 70
1
  9
$INSUNITS
 70
4
  0
ENDSEC
  0
SECTION
  2
CLASSES
  0
CLASS
  1
ACDBDICTIONARYWDFLT
  2
AcDbDictionaryWithDefault
  3
AutoCAD 2000
 90
0
 91
1
280
0
281
0
  0
CLASS
  1
ACDBPLACEHOLDER
  2
AcDbPlaceHolder
  3
AutoCAD 2000
 90
0
 91
1
280
0
281
0
  0
CLASS
  1
LAYOUT
  2
AcDbLayout
  3
AutoCAD 2000
 90
0
 91
0
280
0
281
0
  0
ENDSEC
  0
SECTION
  2
TABLES
  0
TABLE
  2
VPORT
  5
8
100
AcDbSymbolTable
 70
2
  0
VPORT
  5
1F4
100
AcDbSymbolTableRecord
100
AcDbViewportTableRecord
  2
*ACTIVE
 70
0
 10
0.0
 20
0.0
 11
1.0
 21
1.0
 12
15.2486029503
 22
21.5658813155
 13
0.0
 23
0.0
 14
1.0
 24
1.0
 15
0.0
 25
0.0
 16
0.0
 26
0.0
 36
1.0
 17
0.0
 27
0.0
 37
0.0
 40
43.1317626309
 41
0.7070707071
 42
50.0
 43
0.0
 44
0.0
 50
0.0
 51
0.0
 71
0
 72
100
 73
1
 74
1
 75
0
 76
0
 77
0
 78
0
  0
ENDTAB
  0
TABLE
  2
LTYPE
  5
5
100
AcDbSymbolTable
 70
6
  0
LTYPE
  5
14
100
AcDbSymbolTableRecord
100
AcDbLinetypeTableRecord
  2
BYBLOCK
 70
0
  3

 72
65
 73
0
 40
0.0
  0
LTYPE
  5
15
100
AcDbSymbolTableRecord
100
AcDbLinetypeTableRecord
  2
BYLAYER
 70
0
  3

 72
65
 73
0
 40
0.0
  0
LTYPE
  5
16
100
AcDbSymbolTableRecord
100
AcDbLinetypeTableRecord
  2
CONTINUOUS
 70
64
  3
Solid line
 72
65
 73
0
 40
0.0
  0
LTYPE
  5
1F5
100
AcDbSymbolTableRecord
100
AcDbLinetypeTableRecord
  2
CENTER
 70
64
  3
____ _ ____ _ ____ _ ____ _ ____ _ ____ _ ____
 72
65
 73
4
 40
0.6
 49
0.375
 74
0
 49
-0.075
 74
0
 49
0.075
 74
0
 49
-0.075
 74
0
  0
LTYPE
  5
1F6
100
AcDbSymbolTableRecord
100
AcDbLinetypeTableRecord
  2
HIDDEN
 70
64
  3
- - - - - - - - - - - - - - - - - - - -
 72
65
 73
2
 40
0.2
 49
0.1
 74
0
 49
-0.1
 74
0
  0
LTYPE
  5
1F7
100
AcDbSymbolTableRecord
100
AcDbLinetypeTableRecord
  2
PHANTOM
 70
64
  3
_____ _ _ _____ _ _ _____ _ _ _____
 72
65
 73
6
 40
0.8
 49
0.45
 74
0
 49
-0.05
 74
0
 49
0.1
 74
0
 49
-0.05
 74
0
 49
0.1
 74
0
 49
-0.05
 74
0
  0
LTYPE
  5
1F8
100
AcDbSymbolTableRecord
100
AcDbLinetypeTableRecord
  2
DOT
 70
64
  3
. . . . . . . . . . . . . . . . . . . .
 72
65
 73
2
 40
0.2
 49
0.1
 74
0
 49
-0.1
 74
0
  0
LTYPE
  5
1F9
100
AcDbSymbolTableRecord
100
AcDbLinetypeTableRecord
  2
DASHED
 70
64
  3
- - - - - - - - - - - - - - - - - - - -
 72
65
 73
2
 40
0.2
 49
0.1
 74
0
 49
-0.1
 74
0
  0
ENDTAB
  0
TABLE
  2
LAYER
  5
2
100
AcDbSymbolTable
 70
36
  0
LAYER
  5
10
100
AcDbSymbolTableRecord
100
AcDbLayerTableRecord
  2
0
 70
0
 62
7
  6
CONTINUOUS
370
-3
390
F
  0
LAYER
  5
1FA
100
AcDbSymbolTableRecord
100
AcDbLayerTableRecord
  2
DEFAULT_1
 70
0
 62
7
  6
CENTER
370
-3
390
F
  0
LAYER
  5
1FB
100
AcDbSymbolTableRecord
100
AcDbLayerTableRecord
  2
DEFAULT_2
 70
0
 62
7
  6
HIDDEN
370
-3
390
F
  0
LAYER
  5
1FC
100
AcDbSymbolTableRecord
100
AcDbLayerTableRecord
  2
DEFAULT_3
 70
0
 62
7
  6
PHANTOM
370
-3
390
F
  0
LAYER
  5
1FD
100
AcDbSymbolTableRecord
100
AcDbLayerTableRecord
  2
00_COMPONENTS
 70
0
 62
7
  6
CONTINUOUS
370
-3
390
F
  0
LAYER
  5
1FE
100
AcDbSymbolTableRecord
100
AcDbLayerTableRecord
  2
01_1_DEFAULT_DATUMS
 70
0
 62
7
  6
CONTINUOUS
370
-3
390
F
  0
LAYER
  5
1FF
100
AcDbSymbolTableRecord
100
AcDbLayerTableRecord
  2
01_PLANES
 70
0
 62
7
  6
CONTINUOUS
370
-3
390
F
  0
LAYER
  5
200
100
AcDbSymbolTableRecord
100
AcDbLayerTableRecord
  2
02_COORD_SYS
 70
0
 62
7
  6
CONTINUOUS
370
-3
390
F
  0
LAYER
  5
201
100
AcDbSymbolTableRecord
100
AcDbLayerTableRecord
  2
03_AXES
 70
0
 62
7
  6
CONTINUOUS
370
-3
390
F
  0
LAYER
  5
202
100
AcDbSymbolTableRecord
100
AcDbLayerTableRecord
  2
04_POINTS
 70
0
 62
7
  6
CONTINUOUS
370
-3
390
F
  0
LAYER
  5
203
100
AcDbSymbolTableRecord
100
AcDbLayerTableRecord
  2
05_CURVES
 70
0
 62
7
  6
CONTINUOUS
370
-3
390
F
  0
LAYER
  5
204
100
AcDbSymbolTableRecord
100
AcDbLayerTableRecord
  2
06_SURFS
 70
0
 62
7
  6
CONTINUOUS
370
-3
390
F
  0
LAYER
  5
205
100
AcDbSymbolTableRecord
100
AcDbLayerTableRecord
  2
07_COSMETICS
 70
0
 62
7
  6
CONTINUOUS
370
-3
390
F
  0
LAYER
  5
206
100
AcDbSymbolTableRecord
100
AcDbLayerTableRecord
  2
10_NOTES
 70
0
 62
7
  6
CONTINUOUS
370
-3
390
F
  0
LAYER
  5
207
100
AcDbSymbolTableRecord
100
AcDbLayerTableRecord
  2
11_NOTES_PUB
 70
0
 62
7
  6
CONTINUOUS
370
-3
390
F
  0
LAYER
  5
208
100
AcDbSymbolTableRecord
100
AcDbLayerTableRecord
  2
13_REF_GTOL
 70
0
 62
7
  6
CONTINUOUS
370
-3
390
F
  0
LAYER
  5
209
100
AcDbSymbolTableRecord
100
AcDbLayerTableRecord
  2
16_MISC
 70
0
 62
7
  6
CONTINUOUS
370
-3
390
F
  0
LAYER
  5
20A
100
AcDbSymbolTableRecord
100
AcDbLayerTableRecord
  2
17_NO_PRINT
 70
0
 62
7
  6
CONTINUOUS
370
-3
390
F
  0
LAYER
  5
20B
100
AcDbSymbolTableRecord
100
AcDbLayerTableRecord
  2
18_DATUM_CAMS_JOINTS
 70
0
 62
7
  6
CONTINUOUS
370
-3
390
F
  0
LAYER
  5
20C
100
AcDbSymbolTableRecord
100
AcDbLayerTableRecord
  2
19_DATUM_FUNCTIONAL
 70
0
 62
7
  6
CONTINUOUS
370
-3
390
F
  0
LAYER
  5
20D
100
AcDbSymbolTableRecord
100
AcDbLayerTableRecord
  2
20_DATUM_KINEMATIC_SCHEME
 70
0
 62
7
  6
CONTINUOUS
370
-3
390
F
  0
ENDTAB
  0
TABLE
  2
STYLE
  5
3
100
AcDbSymbolTable
 70
1
  0
STYLE
  5
11
100
AcDbSymbolTableRecord
100
AcDbTextStyleTableRecord
  2
STANDARD
 70
0
 40
0.0
 41
1.0
 50
0.0
 71
0
 42
0.2
  3
ARIAL.TTF
  4

  0
STYLE
  5
20E
100
AcDbSymbolTableRecord
100
AcDbTextStyleTableRecord
  2
TEXTSTYLE_1
 70
0
 40
0.0
 41
0.8
 50
0.0
 71
0
 42
0.2
  3
gdt
  4

  0
ENDTAB
  0
TABLE
  2
VIEW
  5
6
100
AcDbSymbolTable
 70
0
  0
ENDTAB
  0
TABLE
  2
UCS
  5
7
100
AcDbSymbolTable
 70
0
  0
ENDTAB
  0
TABLE
  2
APPID
  5
9
100
AcDbSymbolTable
 70
1
  0
APPID
  5
20F
100
AcDbSymbolTableRecord
100
AcDbRegAppTableRecord
  2
ACAD
 70
0
  0
ENDTAB
  0
TABLE
  2
BLOCK_RECORD
  5
1
100
AcDbSymbolTable
 70
0
  0
BLOCK_RECORD
  5
210
100
AcDbSymbolTableRecord
100
AcDbBlockTableRecord
  2
*Model_Space
  0
BLOCK_RECORD
  5
211
100
AcDbSymbolTableRecord
100
AcDbBlockTableRecord
  2
*Paper_Space
  0
BLOCK_RECORD
  5
212
100
AcDbSymbolTableRecord
100
AcDbBlockTableRecord
  2
_FILLED
  0
ENDTAB
  0
TABLE
  2
DIMSTYLE
  5
A
100
AcDbSymbolTable
 70
1
100
AcDbDimStyleTable
 71
0
  0
DIMSTYLE
105
213
100
AcDbSymbolTableRecord
100
AcDbDimStyleTableRecord
  2
STANDARD
 70
0
  3

  4

 40
1.0
 41
0.363061975
 42
1.0
 43
0.38
 44
1.0
 45
0.0
 46
0.0
 47
0.01
 48
0.01
140
0.508286765
141
0.09
142
0.0
143
25.4
144
1.0
145
0.0
146
1.0
147
0.625
 71
1
 72
0
 73
0
 74
0
 75
0
 76
0
 77
1
 78
8
 79
2
170
0
171
1
172
0
173
0
174
0
175
0
176
0
177
0
178
0
270
2
179
2
271
2
272
2
273
2
274
2
275
0
280
0
281
0
282
0
283
1
284
8
285
0
286
0
287
3
288
0
340
11
278
46
341
212
342
212
343
212
344
212
  0
ENDTAB
  0
ENDSEC
  0
SECTION
  2
BLOCKS
  0
BLOCK
  5
20
100
AcDbEntity
  8
0
100
AcDbBlockBegin
  2
*Model_Space
 70
0
 10
0.0
 20
0.0
 30
0.0
  3
*Model_Space
  1

  0
ENDBLK
  5
21
100
AcDbEntity
  8
0
100
AcDbBlockEnd
  0
BLOCK
  5
1C
100
AcDbEntity
  8
0
100
AcDbBlockBegin
  2
*Paper_Space
 70
0
 10
0.0
 20
0.0
 30
0.0
  3
*Paper_Space
  1

  0
ENDBLK
  5
1D
100
AcDbEntity
  8
0
100
AcDbBlockEnd
  0
BLOCK
  5
214
100
AcDbEntity
  8
0
100
AcDbBlockBegin
  2
_FILLED
 70
64
 10
0.0
 20
0.0
  3
_FILLED
  1

  0
SOLID
  5
215
100
AcDbEntity
  8
0
  6
BYBLOCK
 62
0
100
AcDbTrace
 10
0.0
 20
0.0
 11
-1.0
 21
0.25
 12
-1.0
 22
-0.25
 13
-1.0
 23
-0.25
  0
ENDBLK
  5
216
100
AcDbEntity
  8
0
  6
BYBLOCK
 62
0
100
AcDbBlockEnd
  0
ENDSEC
  0
SECTION
  2
ENTITIES
  0
LINE
  5
217
100
AcDbEntity
  8
0
100
AcDbLine
 62
7
  6
BYLAYER
 10
14.8136594417
 20
39.9080646918
 11
12.3387960115
 21
38.4792101532
  0
LINE
  5
218
100
AcDbEntity
  8
0
100
AcDbLine
 62
7
  6
BYLAYER
 10
12.7630618465
 20
38.1526154588
 11
7.1062282049
 21
34.8866534735
  0
LINE
  5
219
100
AcDbEntity
  8
0
100
AcDbLine
 62
7
  6
BYLAYER
 10
15.6622558791
 20
3.3289615453
 11
7.4597830674
 21
8.0645542978
  0
LINE
  5
21A
100
AcDbEntity
  8
0
100
AcDbLine
 62
7
  6
BYLAYER
 10
7.1062282049
 20
8.6769258836
 11
7.4597830674
 21
8.0645542978
  0
LINE
  5
21B
100
AcDbEntity
  8
0
100
AcDbLine
 62
7
  6
BYLAYER
 10
20.8948163542
 20
6.3499707659
 11
21.3898004933
 21
6.064198005
  0
LINE
  5
21C
100
AcDbEntity
  8
0
100
AcDbLine
 62
7
  6
BYLAYER
 10
7.1062282049
 20
14.4740930452
 11
7.81333793
 21
14.0658522907
  0
LINE
  5
21D
100
AcDbEntity
  8
0
100
AcDbLine
 62
7
  6
BYLAYER
 10
15.3087010166
 20
9.7385002928
 11
16.0158107417
 21
9.3302595383
  0
LINE
  5
21E
100
AcDbEntity
  8
0
100
AcDbLine
 62
7
  6
BYLAYER
 10
7.1062282049
 20
8.6769258836
 11
7.1062282049
 21
14.4740930452
  0
LINE
  5
21F
100
AcDbEntity
  8
0
100
AcDbLine
 62
7
  6
BYLAYER
 10
7.1062282049
 20
29.0894863118
 11
7.1062282049
 21
34.8866534735
  0
LINE
  5
220
100
AcDbEntity
  8
0
100
AcDbLine
 62
7
  6
BYLAYER
 10
7.81333793
 20
14.0658522907
 11
7.81333793
 21
28.6812455573
  0
LINE
  5
221
100
AcDbEntity
  8
0
100
AcDbLine
 62
7
  6
BYLAYER
 10
20.9655346583
 20
33.4170227064
 11
15.6622558791
 21
30.3551915523
  0
LINE
  5
222
100
AcDbEntity
  8
0
100
AcDbLine
 62
7
  6
BYLAYER
 10
23.8646639236
 20
34.6825830339
 11
21.3898004933
 21
33.2537284954
  0
LINE
  5
223
100
AcDbEntity
  8
0
100
AcDbLine
 62
7
  6
BYLAYER
 10
21.3190895208
 20
32.8046511205
 11
16.0158107417
 21
29.7428199665
  0
LINE
  5
224
100
AcDbEntity
  8
0
100
AcDbLine
 62
7
  6
BYLAYER
 10
20.6119797957
 20
12.8003314468
 11
21.3190895208
 21
12.3920906923
  0
LINE
  5
225
100
AcDbEntity
  8
0
100
AcDbLine
 62
7
  6
BYLAYER
 10
12.3387960115
 20
38.4792101532
 11
12.3387960115
 21
37.9076669269
  0
LINE
  5
226
100
AcDbEntity
  8
0
100
AcDbLine
 62
7
  6
BYLAYER
 10
16.0158107417
 20
23.9456528049
 11
21.3190895208
 21
27.0074839589
  0
LINE
  5
227
100
AcDbEntity
  8
0
100
AcDbLine
 62
7
  6
BYLAYER
 10
15.3087010166
 20
24.3538935594
 11
15.3087010166
 21
9.7385002928
  0
LINE
  5
228
100
AcDbEntity
  8
0
100
AcDbLine
 62
7
  6
BYLAYER
 10
16.0158107417
 20
29.7428199665
 11
16.0158107417
 21
23.9456528049
  0
LINE
  5
229
100
AcDbEntity
  8
0
100
AcDbLine
 62
7
  6
BYLAYER
 10
16.0158107417
 20
9.3302595383
 11
16.0158107417
 21
3.5330923766
  0
LINE
  5
22A
100
AcDbEntity
  8
0
100
AcDbLine
 62
7
  6
BYLAYER
 10
7.1062282049
 20
14.4740930452
 11
7.81333793
 21
14.8823405985
  0
LINE
  5
22B
100
AcDbEntity
  8
0
100
AcDbLine
 62
7
  6
BYLAYER
 10
16.0158107417
 20
23.9456528049
 11
15.3087010166
 21
24.3538935594
  0
LINE
  5
22C
100
AcDbEntity
  8
0
100
AcDbLine
 62
7
  6
BYLAYER
 10
7.81333793
 20
28.6812455573
 11
7.1062282049
 21
29.0894863118
  0
LINE
  5
22D
100
AcDbEntity
  8
0
100
AcDbLine
 62
7
  6
BYLAYER
 10
20.6119797957
 20
26.5992364057
 11
20.6119797957
 21
12.8003314468
  0
LINE
  5
22E
100
AcDbEntity
  8
0
100
AcDbLine
 62
7
  6
BYLAYER
 10
16.0158107417
 20
29.7428199665
 11
15.6622558791
 21
30.3551915523
  0
LINE
  5
22F
100
AcDbEntity
  8
0
100
AcDbLine
 62
7
  6
BYLAYER
 10
21.3190895208
 20
32.8046511205
 11
21.3190895208
 21
27.0074839589
  0
LINE
  5
230
100
AcDbEntity
  8
0
100
AcDbLine
 62
7
  6
BYLAYER
 10
21.3190895208
 20
12.3920906923
 11
21.3190895208
 21
6.5949235307
  0
LINE
  5
231
100
AcDbEntity
  8
0
100
AcDbLine
 62
7
  6
BYLAYER
 10
21.3898004933
 20
6.064198005
 11
21.3898004933
 21
33.2537284954
  0
LINE
  5
232
100
AcDbEntity
  8
0
100
AcDbLine
 62
7
  6
BYLAYER
 10
7.4597830674
 20
35.0907843048
 11
15.6622558791
 21
30.3551915523
  0
LINE
  5
233
100
AcDbEntity
  8
0
100
AcDbLine
 62
7
  6
BYLAYER
 10
23.8646639236
 20
7.4930525435
 11
23.8646639236
 21
34.6825830339
  0
LINE
  5
234
100
AcDbEntity
  8
0
100
AcDbLine
 62
7
  6
BYLAYER
 10
15.3087010166
 20
9.7385002928
 11
20.6119797957
 21
12.8003314468
  0
LINE
  5
235
100
AcDbEntity
  8
0
100
AcDbLine
 62
7
  6
BYLAYER
 10
16.0158107417
 20
9.3302595383
 11
21.3190895208
 21
12.3920906923
  0
LINE
  5
236
100
AcDbEntity
  8
0
100
AcDbLine
 62
7
  6
BYLAYER
 10
20.9655346583
 20
33.4170227064
 11
21.3190895208
 21
32.8046511205
  0
LINE
  5
237
100
AcDbEntity
  8
0
100
AcDbLine
 62
7
  6
BYLAYER
 10
12.7630618465
 20
38.1526154588
 11
20.9655346583
 21
33.4170227064
  0
LINE
  5
238
100
AcDbEntity
  8
0
100
AcDbLine
 62
7
  6
BYLAYER
 10
21.3898004933
 20
33.2537284954
 11
12.3387960115
 21
38.4792101532
  0
LINE
  5
239
100
AcDbEntity
  8
0
100
AcDbLine
 62
7
  6
BYLAYER
 10
21.3190895208
 20
6.5949235307
 11
15.6622558791
 21
3.3289615453
  0
LINE
  5
23A
100
AcDbEntity
  8
0
100
AcDbLine
 62
7
  6
BYLAYER
 10
23.8646639236
 20
34.6825830339
 11
14.8136594417
 21
39.9080646918
  0
LINE
  5
23B
100
AcDbEntity
  8
0
100
AcDbLine
 62
7
  6
BYLAYER
 10
23.8646639236
 20
7.4930525435
 11
21.3898004933
 21
6.064198005
  0
SPLINE
  5
23C
100
AcDbEntity
  8
0
100
AcDbSpline
 62
7
  6
BYLAYER
 70
0
 71
3
 72
9
 73
5
 74
0
 42
0.0000001
 43
0.0000001
 44
0.0000000001
 40
0.0
 40
0.0
 40
0.0
 40
0.0
 40
0.2575031451
 40
1.0
 40
1.0
 40
1.0
 40
1.0
 10
12.9508740521
 20
22.6372300733
 30
0.0
 10
12.9483667529
 20
22.6253923529
 30
0.0
 10
12.9377907911
 20
22.5796061695
 30
0.0
 10
12.9237645487
 20
22.5345915184
 30
0.0
 10
12.9112125866
 20
22.5020368172
 30
0.0
  0
SPLINE
  5
23D
100
AcDbEntity
  8
0
100
AcDbSpline
 62
7
  6
BYLAYER
 70
0
 71
3
 72
11
 73
7
 74
0
 42
0.0000001
 43
0.0000001
 44
0.0000000001
 40
0.0
 40
0.0
 40
0.0
 40
0.0
 40
0.267200345
 40
0.5201961264
 40
0.7628502711
 40
1.0
 40
1.0
 40
1.0
 40
1.0
 10
12.9112125866
 20
22.5020368172
 30
0.0
 10
12.898421004
 20
22.4688606377
 30
0.0
 10
12.8691132794
 20
22.4058237577
 30
0.0
 10
12.812177307
 20
22.3212345979
 30
0.0
 10
12.7442761545
 20
22.2505389125
 30
0.0
 10
12.6918944983
 20
22.2132519832
 30
0.0
 10
12.6645645305
 20
22.1974731121
 30
0.0
  0
SPLINE
  5
23E
100
AcDbEntity
  8
0
100
AcDbSpline
 62
7
  6
BYLAYER
 70
0
 71
3
 72
19
 73
15
 74
0
 42
0.0000001
 43
0.0000001
 44
0.0000000001
 40
0.0
 40
0.0
 40
0.0
 40
0.0
 40
0.0558243534
 40
0.1142050225
 40
0.1748305835
 40
0.2374068464
 40
0.3670162081
 40
0.499998938
 40
0.6329818152
 40
0.7625916098
 40
0.8251681848
 40
0.8857941106
 40
0.9441751926
 40
1.0
 40
1.0
 40
1.0
 40
1.0
 10
11.5610194733
 20
16.7603656737
 30
0.0
 10
11.6083786973
 20
16.7330234315
 30
0.0
 10
11.7028616485
 20
16.6728428216
 30
0.0
 10
11.8399398843
 20
16.5699343026
 30
0.0
 10
11.9743323478
 20
16.4531800364
 30
0.0
 10
12.1502214179
 20
16.2786281991
 30
0.0
 10
12.3546618586
 20
16.0332592274
 30
0.0
 10
12.5673581429
 20
15.7083870398
 30
0.0
 10
12.7423593936
 20
15.3617510089
 30
0.0
 10
12.8526367987
 20
15.0620156722
 30
0.0
 10
12.9158603326
 20
14.8224146892
 30
0.0
 10
12.9497776655
 20
14.6476494563
 30
0.0
 10
12.9703614187
 20
14.477480929
 30
0.0
 10
12.9752389238
 20
14.3655651874
 30
0.0
 10
12.9752389236
 20
14.3108793304
 30
0.0
  0
SPLINE
  5
23F
100
AcDbEntity
  8
0
100
AcDbSpline
 62
7
  6
BYLAYER
 70
0
 71
3
 72
19
 73
15
 74
0
 42
0.0000001
 43
0.0000001
 44
0.0000000001
 40
0.0
 40
0.0
 40
0.0
 40
0.0
 40
0.0558243534
 40
0.1142050225
 40
0.1748305835
 40
0.2374068464
 40
0.3670162081
 40
0.499998938
 40
0.6329818152
 40
0.7625916098
 40
0.8251681848
 40
0.8857941106
 40
0.9441751926
 40
1.0
 40
1.0
 40
1.0
 40
1.0
 10
11.5610194733
 20
24.925389845
 30
0.0
 10
11.6083786973
 20
24.8980476028
 30
0.0
 10
11.7028616485
 20
24.8378669929
 30
0.0
 10
11.8399398843
 20
24.7349584739
 30
0.0
 10
11.9743323478
 20
24.6182042077
 30
0.0
 10
12.1502214179
 20
24.4436523704
 30
0.0
 10
12.3546618586
 20
24.1982833987
 30
0.0
 10
12.5673581429
 20
23.8734112111
 30
0.0
 10
12.7423593936
 20
23.5267751801
 30
0.0
 10
12.8526367987
 20
23.2270398435
 30
0.0
 10
12.9158603326
 20
22.9874388604
 30
0.0
 10
12.9497776655
 20
22.8126736276
 30
0.0
 10
12.9703614187
 20
22.6425051003
 30
0.0
 10
12.9752389238
 20
22.5305893587
 30
0.0
 10
12.9752389236
 20
22.4759035017
 30
0.0
  0
SPLINE
  5
240
100
AcDbEntity
  8
0
100
AcDbSpline
 62
7
  6
BYLAYER
 70
0
 71
3
 72
17
 73
13
 74
0
 42
0.0000001
 43
0.0000001
 44
0.0000000001
 40
0.0
 40
0.0
 40
0.0
 40
0.0
 40
0.0558268908
 40
0.11421997
 40
0.1748612878
 40
0.2374482147
 40
0.3670760233
 40
0.5000780074
 40
0.6330800297
 40
0.7627106392
 40
0.8858634609
 40
1.0
 40
1.0
 40
1.0
 40
1.0
 10
16.8643353464
 20
6.9215689421
 30
0.0
 10
16.8643353462
 20
6.9762476855
 30
0.0
 10
16.8692167075
 20
7.0881582821
 30
0.0
 10
16.8897961914
 20
7.2583273095
 30
0.0
 10
16.9237108069
 20
7.4331005403
 30
0.0
 10
16.9869337913
 20
7.6727030522
 30
0.0
 10
17.0972142978
 20
7.9724314571
 30
0.0
 10
17.2722010579
 20
8.3190561866
 30
0.0
 10
17.4849049431
 20
8.643945762
 30
0.0
 10
17.7273738365
 20
8.9349282492
 30
0.0
 10
17.9904859015
 20
9.1810927915
 30
0.0
 10
18.1817071128
 20
9.3151397792
 30
0.0
 10
18.2785185807
 20
9.3710357648
 30
0.0
  0
SPLINE
  5
241
100
AcDbEntity
  8
0
100
AcDbSpline
 62
7
  6
BYLAYER
 70
0
 71
3
 72
12
 73
8
 74
0
 42
0.0000001
 43
0.0000001
 44
0.0000000001
 40
0.0
 40
0.0
 40
0.0
 40
0.0
 40
0.1145273548
 40
0.230208813
 40
0.4689251436
 40
0.7238516862
 40
1.0
 40
1.0
 40
1.0
 40
1.0
 10
11.1645782533
 20
24.7955410631
 30
0.0
 10
11.1824303791
 20
24.8058479319
 30
0.0
 10
11.2196419203
 20
24.8243633004
 30
0.0
 10
11.29940924
 20
24.8524770705
 30
0.0
 10
11.4087716792
 20
24.8698478777
 30
0.0
 10
11.5479478792
 20
24.8618830662
 30
0.0
 10
11.6413084426
 20
24.8390061899
 30
0.0
 10
11.6885687666
 20
24.823612848
 30
0.0
  0
SPLINE
  5
242
100
AcDbEntity
  8
0
100
AcDbSpline
 62
7
  6
BYLAYER
 70
0
 71
3
 72
12
 73
8
 74
0
 42
0.0000001
 43
0.0000001
 44
0.0000000001
 40
0.0
 40
0.0
 40
0.0
 40
0.0
 40
0.1145273548
 40
0.230208813
 40
0.4689251436
 40
0.7238516862
 40
1.0
 40
1.0
 40
1.0
 40
1.0
 10
11.1645782533
 20
16.6305168918
 30
0.0
 10
11.1824303791
 20
16.6408237606
 30
0.0
 10
11.2196419203
 20
16.6593391291
 30
0.0
 10
11.29940924
 20
16.6874528992
 30
0.0
 10
11.4087716792
 20
16.7048237064
 30
0.0
 10
11.5479478792
 20
16.6968588949
 30
0.0
 10
11.6413084426
 20
16.6739820186
 30
0.0
 10
11.6885687666
 20
16.6585886767
 30
0.0
  0
SPLINE
  5
243
100
AcDbEntity
  8
0
100
AcDbSpline
 62
7
  6
BYLAYER
 70
0
 71
3
 72
13
 73
9
 74
0
 42
0.0000001
 43
0.0000001
 44
0.0000000001
 40
0.0
 40
0.0
 40
0.0
 40
0.0
 40
0.2795036507
 40
0.5352974796
 40
0.6559434422
 40
0.7728357889
 40
0.8870947724
 40
1.0
 40
1.0
 40
1.0
 40
1.0
 10
18.0955376648
 20
9.2494550769
 30
0.0
 10
18.1475371578
 20
9.2696997683
 30
0.0
 10
18.2503479045
 20
9.3009705068
 30
0.0
 10
18.3816451413
 20
9.3146712768
 30
0.0
 10
18.4801059846
 20
9.3077406539
 30
0.0
 10
18.5492350924
 20
9.2942942364
 30
0.0
 10
18.6145844995
 20
9.2725269253
 30
0.0
 10
18.6554499762
 20
9.2524858283
 30
0.0
 10
18.6749711736
 20
9.241215702
 30
0.0
  0
SPLINE
  5
244
100
AcDbEntity
  8
0
100
AcDbSpline
 62
7
  6
BYLAYER
 70
0
 71
3
 72
11
 73
7
 74
0
 42
0.0000001
 43
0.0000001
 44
0.0000000001
 40
0.0
 40
0.0
 40
0.0
 40
0.0
 40
0.238306958
 40
0.4815920395
 40
0.7342880117
 40
1.0
 40
1.0
 40
1.0
 40
1.0
 10
17.1750051428
 20
6.6431395522
 30
0.0
 10
17.1491188722
 20
6.658084411
 30
0.0
 10
17.0994167135
 20
6.6930809121
 30
0.0
 10
17.0343451697
 20
6.7588734703
 30
0.0
 10
16.9790212128
 20
6.8372428305
 30
0.0
 10
16.9498485543
 20
6.8956441462
 30
0.0
 10
16.9369425809
 20
6.9263718251
 30
0.0
  0
SPLINE
  5
245
100
AcDbEntity
  8
0
100
AcDbSpline
 62
7
  6
BYLAYER
 70
0
 71
3
 72
9
 73
5
 74
0
 42
0.0000001
 43
0.0000001
 44
0.0000000001
 40
0.0
 40
0.0
 40
0.0
 40
0.0
 40
0.2361556644
 40
1.0
 40
1.0
 40
1.0
 40
1.0
 10
16.9369425809
 20
6.9263718251
 30
0.0
 10
16.9282773614
 20
6.9470027434
 30
0.0
 10
16.8954346508
 20
7.0359783134
 30
0.0
 10
16.877563056
 20
7.1300885651
 30
0.0
 10
16.8704542513
 20
7.2021162355
 30
0.0
  0
SPLINE
  5
246
100
AcDbEntity
  8
0
100
AcDbSpline
 62
7
  6
BYLAYER
 70
0
 71
3
 72
11
 73
7
 74
0
 42
0.0000001
 43
0.0000001
 44
0.0000000001
 40
0.0
 40
0.0
 40
0.0
 40
0.0
 40
0.238306958
 40
0.4815920395
 40
0.7342880117
 40
1.0
 40
1.0
 40
1.0
 40
1.0
 10
17.1750051428
 20
27.0556999804
 30
0.0
 10
17.1491188722
 20
27.0706448392
 30
0.0
 10
17.0994167135
 20
27.1056413403
 30
0.0
 10
17.0343451697
 20
27.1714338986
 30
0.0
 10
16.9790212128
 20
27.2498032587
 30
0.0
 10
16.9498485543
 20
27.3082045744
 30
0.0
 10
16.9369425809
 20
27.3389322533
 30
0.0
  0
SPLINE
  5
247
100
AcDbEntity
  8
0
100
AcDbSpline
 62
7
  6
BYLAYER
 70
0
 71
3
 72
9
 73
5
 74
0
 42
0.0000001
 43
0.0000001
 44
0.0000000001
 40
0.0
 40
0.0
 40
0.0
 40
0.0
 40
0.2361556644
 40
1.0
 40
1.0
 40
1.0
 40
1.0
 10
16.9369425809
 20
27.3389322533
 30
0.0
 10
16.9282773614
 20
27.3595631716
 30
0.0
 10
16.8954346508
 20
27.4485387416
 30
0.0
 10
16.877563056
 20
27.5426489933
 30
0.0
 10
16.8704542513
 20
27.6146766637
 30
0.0
  0
SPLINE
  5
248
100
AcDbEntity
  8
0
100
AcDbSpline
 62
7
  6
BYLAYER
 70
0
 71
3
 72
13
 73
9
 74
0
 42
0.0000001
 43
0.0000001
 44
0.0000000001
 40
0.0
 40
0.0
 40
0.0
 40
0.0
 40
0.2795036507
 40
0.5352974796
 40
0.6559434422
 40
0.7728357889
 40
0.8870947724
 40
1.0
 40
1.0
 40
1.0
 40
1.0
 10
18.0955376648
 20
29.6620155052
 30
0.0
 10
18.1475371578
 20
29.6822601965
 30
0.0
 10
18.2503479045
 20
29.713530935
 30
0.0
 10
18.3816451413
 20
29.727231705
 30
0.0
 10
18.4801059846
 20
29.7203010821
 30
0.0
 10
18.5492350924
 20
29.7068546647
 30
0.0
 10
18.6145844995
 20
29.6850873535
 30
0.0
 10
18.6554499762
 20
29.6650462566
 30
0.0
 10
18.6749711736
 20
29.6537761303
 30
0.0
  0
SPLINE
  5
249
100
AcDbEntity
  8
0
100
AcDbSpline
 62
7
  6
BYLAYER
 70
0
 71
3
 72
17
 73
13
 74
0
 42
0.0000001
 43
0.0000001
 44
0.0000000001
 40
0.0
 40
0.0
 40
0.0
 40
0.0
 40
0.0558268908
 40
0.11421997
 40
0.1748612878
 40
0.2374482147
 40
0.3670760233
 40
0.5000780074
 40
0.6330800297
 40
0.7627106392
 40
0.8858634609
 40
1.0
 40
1.0
 40
1.0
 40
1.0
 10
16.8643353464
 20
27.3341293703
 30
0.0
 10
16.8643353462
 20
27.3888081137
 30
0.0
 10
16.8692167075
 20
27.5007187103
 30
0.0
 10
16.8897961914
 20
27.6708877378
 30
0.0
 10
16.9237108069
 20
27.8456609685
 30
0.0
 10
16.9869337913
 20
28.0852634804
 30
0.0
 10
17.0972142978
 20
28.3849918854
 30
0.0
 10
17.2722010579
 20
28.7316166149
 30
0.0
 10
17.4849049431
 20
29.0565061902
 30
0.0
 10
17.7273738365
 20
29.3474886774
 30
0.0
 10
17.9904859015
 20
29.5936532197
 30
0.0
 10
18.1817071128
 20
29.7277002074
 30
0.0
 10
18.2785185807
 20
29.7835961931
 30
0.0
  0
SPLINE
  5
24A
100
AcDbEntity
  8
0
100
AcDbSpline
 62
7
  6
BYLAYER
 70
0
 71
3
 72
9
 73
5
 74
0
 42
0.0000001
 43
0.0000001
 44
0.0000000001
 40
0.0
 40
0.0
 40
0.0
 40
0.0
 40
0.2575031451
 40
1.0
 40
1.0
 40
1.0
 40
1.0
 10
12.9508740518
 20
14.4722059008
 30
0.0
 10
12.9483667526
 20
14.4603681805
 30
0.0
 10
12.9377907909
 20
14.4145819973
 30
0.0
 10
12.9237645485
 20
14.3695673464
 30
0.0
 10
12.9112125863
 20
14.3370126453
 30
0.0
  0
SPLINE
  5
24B
100
AcDbEntity
  8
0
100
AcDbSpline
 62
7
  6
BYLAYER
 70
0
 71
3
 72
11
 73
7
 74
0
 42
0.0000001
 43
0.0000001
 44
0.0000000001
 40
0.0
 40
0.0
 40
0.0
 40
0.0
 40
0.2672003449
 40
0.5201961264
 40
0.7628502711
 40
1.0
 40
1.0
 40
1.0
 40
1.0
 10
12.9112125863
 20
14.3370126453
 30
0.0
 10
12.8984210038
 20
14.3038364659
 30
0.0
 10
12.8691132792
 20
14.240799586
 30
0.0
 10
12.8121773069
 20
14.1562104264
 30
0.0
 10
12.7442761544
 20
14.0855147412
 30
0.0
 10
12.6918944983
 20
14.0482278119
 30
0.0
 10
12.6645645305
 20
14.0324489408
 30
0.0
  0
SPLINE
  5
24C
100
AcDbEntity
  8
0
100
AcDbSpline
 62
7
  6
BYLAYER
 70
0
 71
3
 72
23
 73
19
 74
0
 42
0.0000001
 43
0.0000001
 44
0.0000000001
 40
0.0
 40
0.0
 40
0.0
 40
0.0
 40
0.0742630537
 40
0.144750755
 40
0.2113712731
 40
0.2743232104
 40
0.3339987966
 40
0.3909711085
 40
0.4459957939
 40
0.5000019828
 40
0.5540080803
 40
0.6090325003
 40
0.6660043955
 40
0.725679448
 40
0.7886307664
 40
0.8552506116
 40
0.9257376211
 40
1.0
 40
1.0
 40
1.0
 40
1.0
 10
12.9752389236
 20
22.4759035017
 30
0.0
 10
12.9752389234
 20
22.4238385415
 30
0.0
 10
12.97102165
 20
22.3222869337
 30
0.0
 10
12.9510584373
 20
22.1752124535
 30
0.0
 10
12.91765016
 20
22.0386914698
 30
0.0
 10
12.8711237823
 20
21.9140726037
 30
0.0
 10
12.8117844932
 20
21.8025607861
 30
0.0
 10
12.7401702178
 20
21.7052466745
 30
0.0
 10
12.6568295466
 20
21.6232646045
 30
0.0
 10
12.5626539687
 20
21.5575129383
 30
0.0
 10
12.4586249403
 20
21.5088278248
 30
0.0
 10
12.3459573024
 20
21.4776411975
 30
0.0
 10
12.2258747976
 20
21.4642759649
 30
0.0
 10
12.0996340908
 20
21.4686400858
 30
0.0
 10
11.9684486834
 20
21.4906540969
 30
0.0
 10
11.8335146684
 20
21.5299798531
 30
0.0
 10
11.6961634533
 20
21.5862262209
 30
0.0
 10
11.6061088967
 20
21.6333483746
 30
0.0
 10
11.5610194733
 20
21.6593801764
 30
0.0
  0
SPLINE
  5
24D
100
AcDbEntity
  8
0
100
AcDbSpline
 62
7
  6
BYLAYER
 70
0
 71
3
 72
15
 73
11
 74
0
 42
0.0000001
 43
0.0000001
 44
0.0000000001
 40
0.0
 40
0.0
 40
0.0
 40
0.0
 40
0.1080132134
 40
0.2180692915
 40
0.3320072107
 40
0.4513450946
 40
0.5772524299
 40
0.7105305573
 40
0.8515215253
 40
1.0
 40
1.0
 40
1.0
 40
1.0
 10
12.6645645305
 20
22.1974731121
 30
0.0
 10
12.6399718504
 20
22.1832746055
 30
0.0
 10
12.5877614231
 20
22.1588081306
 30
0.0
 10
12.5032656368
 20
22.1354728551
 30
0.0
 10
12.413208827
 20
22.1254140822
 30
0.0
 10
12.3185332627
 20
22.1287002093
 30
0.0
 10
12.2201366318
 20
22.145203966
 30
0.0
 10
12.1189258806
 20
22.1747166898
 30
0.0
 10
12.0159136535
 20
22.2169042369
 30
0.0
 10
11.9483774308
 20
22.2522359778
 30
0.0
 10
11.9145713919
 20
22.2717534619
 30
0.0
  0
SPLINE
  5
24E
100
AcDbEntity
  8
0
100
AcDbSpline
 62
7
  6
BYLAYER
 70
0
 71
3
 72
23
 73
19
 74
0
 42
0.0000001
 43
0.0000001
 44
0.0000000001
 40
0.0
 40
0.0
 40
0.0
 40
0.0
 40
0.0742630537
 40
0.144750755
 40
0.2113712731
 40
0.2743232104
 40
0.3339987966
 40
0.3909711085
 40
0.4459957939
 40
0.5000019828
 40
0.5540080803
 40
0.6090325003
 40
0.6660043955
 40
0.725679448
 40
0.7886307664
 40
0.8552506116
 40
0.9257376211
 40
1.0
 40
1.0
 40
1.0
 40
1.0
 10
10.146800023
 20
24.1088665197
 30
0.0
 10
10.1468000232
 20
24.1609314799
 30
0.0
 10
10.1510172966
 20
24.2624830877
 30
0.0
 10
10.1709805093
 20
24.4095575679
 30
0.0
 10
10.2043887866
 20
24.5460785516
 30
0.0
 10
10.2509151643
 20
24.6706974177
 30
0.0
 10
10.3102544534
 20
24.7822092353
 30
0.0
 10
10.3818687288
 20
24.8795233469
 30
0.0
 10
10.4652094
 20
24.9615054169
 30
0.0
 10
10.5593849779
 20
25.0272570831
 30
0.0
 10
10.6634140063
 20
25.0759421966
 30
0.0
 10
10.7760816442
 20
25.1071288239
 30
0.0
 10
10.896164149
 20
25.1204940565
 30
0.0
 10
11.0224048558
 20
25.1161299356
 30
0.0
 10
11.1535902632
 20
25.0941159245
 30
0.0
 10
11.2885242782
 20
25.0547901683
 30
0.0
 10
11.4258754933
 20
24.9985438005
 30
0.0
 10
11.5159300499
 20
24.9514216468
 30
0.0
 10
11.5610194733
 20
24.925389845
 30
0.0
  0
SPLINE
  5
24F
100
AcDbEntity
  8
0
100
AcDbSpline
 62
7
  6
BYLAYER
 70
0
 71
3
 72
17
 73
13
 74
0
 42
0.0000001
 43
0.0000001
 44
0.0000000001
 40
0.0
 40
0.0
 40
0.0
 40
0.0
 40
0.0558165958
 40
0.1142103169
 40
0.2373765287
 40
0.366996199
 40
0.4999989195
 40
0.6330017904
 40
0.7626219
 40
0.8857888042
 40
0.9441829469
 40
1.0
 40
1.0
 40
1.0
 40
1.0
 10
11.9145713919
 20
22.2717534619
 30
0.0
 10
11.8790618099
 20
22.2922544649
 30
0.0
 10
11.8082069051
 20
22.3373914006
 30
0.0
 10
11.6686519724
 20
22.4421648953
 30
0.0
 10
11.501172102
 20
22.5988561433
 30
0.0
 10
11.3193610982
 20
22.8170715725
 30
0.0
 10
11.1598149983
 20
23.0607360168
 30
0.0
 10
11.0285670726
 20
23.3207388784
 30
0.0
 10
10.9304907467
 20
23.5872999048
 30
0.0
 10
10.8785304075
 20
23.8106881193
 30
0.0
 10
10.85756987
 20
23.9839339621
 30
0.0
 10
10.8539068041
 20
24.0678651867
 30
0.0
 10
10.8539068042
 20
24.1088682242
 30
0.0
  0
SPLINE
  5
250
100
AcDbEntity
  8
0
100
AcDbSpline
 62
7
  6
BYLAYER
 70
0
 71
3
 72
32
 73
28
 74
0
 42
0.0000001
 43
0.0000001
 44
0.0000000001
 40
0.0
 40
0.0
 40
0.0
 40
0.0
 40
0.0325390777
 40
0.0665738853
 40
0.101919101
 40
0.1383983325
 40
0.2139528108
 40
0.29147392
 40
0.3689949906
 40
0.4445509221
 40
0.5163311263
 40
0.5828560233
 40
0.6431792154
 40
0.6709706728
 40
0.6972372382
 40
0.722136294
 40
0.7459037666
 40
0.7688606318
 40
0.7913919613
 40
0.8139235506
 40
0.8368807408
 40
0.8606501843
 40
0.8855463645
 40
0.9118112454
 40
0.9396100773
 40
0.9690207761
 40
1.0
 40
1.0
 40
1.0
 40
1.0
 10
19.6927506952
 20
8.5545455576
 30
0.0
 10
19.6927506952
 20
8.4998663838
 30
0.0
 10
19.6878692559
 20
8.3879548892
 30
0.0
 10
19.6672894595
 20
8.2177844958
 30
0.0
 10
19.6333743141
 20
8.0430098466
 30
0.0
 10
19.570150449
 20
7.8034054675
 30
0.0
 10
19.459867782
 20
7.5036745263
 30
0.0
 10
19.2848809397
 20
7.1570488944
 30
0.0
 10
19.0721655643
 20
6.8321530032
 30
0.0
 10
18.8297249371
 20
6.5411872397
 30
0.0
 10
18.5665026218
 20
6.2949637686
 30
0.0
 10
18.2922332224
 20
6.1026505308
 30
0.0
 10
18.0560130722
 20
5.9902607873
 30
0.0
 10
17.8711428937
 20
5.9363229753
 30
0.0
 10
17.7399469897
 20
5.9143327853
 30
0.0
 10
17.6137034187
 20
5.9099243333
 30
0.0
 10
17.4936247415
 20
5.9233283758
 30
0.0
 10
17.3809528504
 20
5.9544816564
 30
0.0
 10
17.2769333843
 20
6.003184675
 30
0.0
 10
17.1827451075
 20
6.0689151869
 30
0.0
 10
17.0994182959
 20
6.1509123046
 30
0.0
 10
17.0277940713
 20
6.248215438
 30
0.0
 10
16.968453293
 20
6.3597263496
 30
0.0
 10
16.9219232538
 20
6.4843499904
 30
0.0
 10
16.8885172102
 20
6.6208840567
 30
0.0
 10
16.8685571497
 20
6.7679624762
 30
0.0
 10
16.8643353466
 20
6.8695109711
 30
0.0
 10
16.8643353464
 20
6.9215689421
 30
0.0
  0
SPLINE
  5
251
100
AcDbEntity
  8
0
100
AcDbSpline
 62
7
  6
BYLAYER
 70
0
 71
3
 72
19
 73
15
 74
0
 42
0.0000001
 43
0.0000001
 44
0.0000000001
 40
0.0
 40
0.0
 40
0.0
 40
0.0
 40
0.0558243534
 40
0.1142050225
 40
0.1748305835
 40
0.2374068464
 40
0.3670162081
 40
0.499998938
 40
0.6329818152
 40
0.7625916098
 40
0.8251681848
 40
0.8857941106
 40
0.9441751926
 40
1.0
 40
1.0
 40
1.0
 40
1.0
 10
11.5610194733
 20
13.4943560051
 30
0.0
 10
11.5136602492
 20
13.5216982473
 30
0.0
 10
11.4191772981
 20
13.5818788572
 30
0.0
 10
11.2820990623
 20
13.6847873762
 30
0.0
 10
11.1477065988
 20
13.8015416425
 30
0.0
 10
10.9718175287
 20
13.9760934797
 30
0.0
 10
10.767377088
 20
14.2214624514
 30
0.0
 10
10.5546808037
 20
14.546334639
 30
0.0
 10
10.3796795529
 20
14.89297067
 30
0.0
 10
10.2694021479
 20
15.1927060066
 30
0.0
 10
10.206178614
 20
15.4323069897
 30
0.0
 10
10.1722612811
 20
15.6070722225
 30
0.0
 10
10.1516775278
 20
15.7772407498
 30
0.0
 10
10.1468000227
 20
15.8891564915
 30
0.0
 10
10.146800023
 20
15.9438423484
 30
0.0
  0
SPLINE
  5
252
100
AcDbEntity
  8
0
100
AcDbSpline
 62
7
  6
BYLAYER
 70
0
 71
3
 72
15
 73
11
 74
0
 42
0.0000001
 43
0.0000001
 44
0.0000000001
 40
0.0
 40
0.0
 40
0.0
 40
0.0
 40
0.1080129681
 40
0.2180683617
 40
0.3320055757
 40
0.4513431389
 40
0.5772504858
 40
0.7105289387
 40
0.8515205842
 40
1.0
 40
1.0
 40
1.0
 40
1.0
 10
18.6749711736
 20
29.6537761303
 30
0.0
 10
18.6995646893
 20
29.6395776145
 30
0.0
 10
18.7468606721
 20
29.6065960316
 30
0.0
 10
18.8093196181
 20
29.5450872503
 30
0.0
 10
18.863059787
 20
29.4721229791
 30
0.0
 10
18.9075520475
 20
29.3884859812
 30
0.0
 10
18.9424580468
 20
29.2950172791
 30
0.0
 10
18.9675046171
 20
29.1926065124
 30
0.0
 10
18.9824746478
 20
29.0822977955
 30
0.0
 10
18.9856439138
 20
29.0061412579
 30
0.0
 10
18.9856439141
 20
28.9671042902
 30
0.0
  0
SPLINE
  5
253
100
AcDbEntity
  8
0
100
AcDbSpline
 62
7
  6
BYLAYER
 70
0
 71
3
 72
22
 73
18
 74
0
 42
0.0000001
 43
0.0000001
 44
0.0000000001
 40
0.0
 40
0.0
 40
0.0
 40
0.0
 40
0.144610648
 40
0.2112341055
 40
0.2742019609
 40
0.3338914853
 40
0.3908682452
 40
0.4459016957
 40
0.499914955
 40
0.5539287732
 40
0.6089628175
 40
0.6659440119
 40
0.7256262707
 40
0.788589657
 40
0.855230328
 40
0.9257350756
 40
1.0
 40
1.0
 40
1.0
 40
1.0
 10
18.2785185807
 20
29.7835961931
 30
0.0
 10
18.3663063557
 20
29.834282174
 30
0.0
 10
18.5010889695
 20
29.8984255437
 30
0.0
 10
18.685924518
 20
29.9523459956
 30
0.0
 10
18.8171284135
 20
29.974341682
 30
0.0
 10
18.9433718359
 20
29.9787508394
 30
0.0
 10
19.0634524054
 20
29.9653483662
 30
0.0
 10
19.1761256632
 20
29.934196076
 30
0.0
 10
19.280146581
 20
29.8854938285
 30
0.0
 10
19.3743361858
 20
29.819763754
 30
0.0
 10
19.4576642179
 20
29.7377667849
 30
0.0
 10
19.5292895029
 20
29.6404635102
 30
0.0
 10
19.5886311735
 20
29.5289522016
 30
0.0
 10
19.635161915
 20
29.4043279284
 30
0.0
 10
19.6685684667
 20
29.2677930223
 30
0.0
 10
19.6885288301
 20
29.1207135822
 30
0.0
 10
19.6927506952
 20
29.0191643469
 30
0.0
 10
19.6927506952
 20
28.9671059858
 30
0.0
  0
SPLINE
  5
254
100
AcDbEntity
  8
0
100
AcDbSpline
 62
7
  6
BYLAYER
 70
0
 71
3
 72
23
 73
19
 74
0
 42
0.0000001
 43
0.0000001
 44
0.0000000001
 40
0.0
 40
0.0
 40
0.0
 40
0.0
 40
0.0742630537
 40
0.144750755
 40
0.2113712731
 40
0.2743232104
 40
0.3339987966
 40
0.3909711085
 40
0.4459957939
 40
0.5000019828
 40
0.5540080803
 40
0.6090325003
 40
0.6660043955
 40
0.725679448
 40
0.7886307664
 40
0.8552506116
 40
0.9257376211
 40
1.0
 40
1.0
 40
1.0
 40
1.0
 10
12.9752389236
 20
14.3108793304
 30
0.0
 10
12.9752389234
 20
14.2588143702
 30
0.0
 10
12.97102165
 20
14.1572627624
 30
0.0
 10
12.9510584373
 20
14.0101882822
 30
0.0
 10
12.91765016
 20
13.8736672985
 30
0.0
 10
12.8711237823
 20
13.7490484324
 30
0.0
 10
12.8117844932
 20
13.6375366148
 30
0.0
 10
12.7401702178
 20
13.5402225032
 30
0.0
 10
12.6568295466
 20
13.4582404332
 30
0.0
 10
12.5626539687
 20
13.392488767
 30
0.0
 10
12.4586249403
 20
13.3438036536
 30
0.0
 10
12.3459573024
 20
13.3126170262
 30
0.0
 10
12.2258747976
 20
13.2992517936
 30
0.0
 10
12.0996340908
 20
13.3036159145
 30
0.0
 10
11.9684486834
 20
13.3256299256
 30
0.0
 10
11.8335146684
 20
13.3649556818
 30
0.0
 10
11.6961634533
 20
13.4212020496
 30
0.0
 10
11.6061088967
 20
13.4683242033
 30
0.0
 10
11.5610194733
 20
13.4943560051
 30
0.0
  0
SPLINE
  5
255
100
AcDbEntity
  8
0
100
AcDbSpline
 62
7
  6
BYLAYER
 70
0
 71
3
 72
15
 73
11
 74
0
 42
0.0000001
 43
0.0000001
 44
0.0000000001
 40
0.0
 40
0.0
 40
0.0
 40
0.0
 40
0.1484790225
 40
0.2894704226
 40
0.4227488168
 40
0.5486562372
 40
0.6679940143
 40
0.7819316476
 40
0.8919872946
 40
1.0
 40
1.0
 40
1.0
 40
1.0
 10
10.8539068042
 20
24.1088682242
 30
0.0
 10
10.8539068043
 20
24.1479050445
 30
0.0
 10
10.8570760943
 20
24.2240613289
 30
0.0
 10
10.8720461592
 20
24.334369727
 30
0.0
 10
10.8970926327
 20
24.4367803266
 30
0.0
 10
10.9319985509
 20
24.5302490122
 30
0.0
 10
10.976491152
 20
24.6138859451
 30
0.0
 10
11.0302317753
 20
24.686850019
 30
0.0
 10
11.0926900454
 20
24.7483593289
 30
0.0
 10
11.1399850301
 20
24.781342243
 30
0.0
 10
11.1645782533
 20
24.7955410631
 30
0.0
  0
SPLINE
  5
256
100
AcDbEntity
  8
0
100
AcDbSpline
 62
7
  6
BYLAYER
 70
0
 71
3
 72
15
 73
11
 74
0
 42
0.0000001
 43
0.0000001
 44
0.0000000001
 40
0.0
 40
0.0
 40
0.0
 40
0.0
 40
0.1484790225
 40
0.2894704226
 40
0.4227488168
 40
0.5486562372
 40
0.6679940143
 40
0.7819316477
 40
0.8919872946
 40
1.0
 40
1.0
 40
1.0
 40
1.0
 10
10.8539068042
 20
15.9438440529
 30
0.0
 10
10.8539068043
 20
15.9828808732
 30
0.0
 10
10.8570760943
 20
16.0590371576
 30
0.0
 10
10.8720461592
 20
16.1693455557
 30
0.0
 10
10.8970926327
 20
16.2717561553
 30
0.0
 10
10.9319985509
 20
16.3652248409
 30
0.0
 10
10.976491152
 20
16.4488617738
 30
0.0
 10
11.0302317753
 20
16.5218258477
 30
0.0
 10
11.0926900454
 20
16.5833351576
 30
0.0
 10
11.1399850301
 20
16.6163180717
 30
0.0
 10
11.1645782533
 20
16.6305168918
 30
0.0
  0
SPLINE
  5
257
100
AcDbEntity
  8
0
100
AcDbSpline
 62
7
  6
BYLAYER
 70
0
 71
3
 72
32
 73
28
 74
0
 42
0.0000001
 43
0.0000001
 44
0.0000000001
 40
0.0
 40
0.0
 40
0.0
 40
0.0
 40
0.0325390777
 40
0.0665738853
 40
0.101919101
 40
0.1383983325
 40
0.2139528108
 40
0.29147392
 40
0.3689949906
 40
0.4445509221
 40
0.5163311263
 40
0.5828560233
 40
0.6431792154
 40
0.6709706728
 40
0.6972372382
 40
0.722136294
 40
0.7459037666
 40
0.7688606318
 40
0.7913919613
 40
0.8139235506
 40
0.8368807408
 40
0.8606501843
 40
0.8855463645
 40
0.9118112454
 40
0.9396100773
 40
0.9690207761
 40
1.0
 40
1.0
 40
1.0
 40
1.0
 10
19.6927506952
 20
28.9671059858
 30
0.0
 10
19.6927506952
 20
28.9124268121
 30
0.0
 10
19.6878692559
 20
28.8005153174
 30
0.0
 10
19.6672894595
 20
28.6303449241
 30
0.0
 10
19.6333743141
 20
28.4555702748
 30
0.0
 10
19.570150449
 20
28.2159658958
 30
0.0
 10
19.459867782
 20
27.9162349545
 30
0.0
 10
19.2848809397
 20
27.5696093226
 30
0.0
 10
19.0721655643
 20
27.2447134315
 30
0.0
 10
18.8297249371
 20
26.9537476679
 30
0.0
 10
18.5665026218
 20
26.7075241968
 30
0.0
 10
18.2922332224
 20
26.5152109591
 30
0.0
 10
18.0560130722
 20
26.4028212155
 30
0.0
 10
17.8711428937
 20
26.3488834035
 30
0.0
 10
17.7399469897
 20
26.3268932136
 30
0.0
 10
17.6137034187
 20
26.3224847616
 30
0.0
 10
17.4936247415
 20
26.335888804
 30
0.0
 10
17.3809528504
 20
26.3670420846
 30
0.0
 10
17.2769333843
 20
26.4157451033
 30
0.0
 10
17.1827451075
 20
26.4814756151
 30
0.0
 10
17.0994182959
 20
26.5634727328
 30
0.0
 10
17.0277940713
 20
26.6607758663
 30
0.0
 10
16.968453293
 20
26.7722867778
 30
0.0
 10
16.9219232538
 20
26.8969104187
 30
0.0
 10
16.8885172102
 20
27.033444485
 30
0.0
 10
16.8685571497
 20
27.1805229044
 30
0.0
 10
16.8643353466
 20
27.2820713994
 30
0.0
 10
16.8643353464
 20
27.3341293703
 30
0.0
  0
SPLINE
  5
258
100
AcDbEntity
  8
0
100
AcDbSpline
 62
7
  6
BYLAYER
 70
0
 71
3
 72
15
 73
11
 74
0
 42
0.0000001
 43
0.0000001
 44
0.0000000001
 40
0.0
 40
0.0
 40
0.0
 40
0.0
 40
0.1080132134
 40
0.2180692915
 40
0.3320072107
 40
0.4513450946
 40
0.5772524299
 40
0.7105305573
 40
0.8515215253
 40
1.0
 40
1.0
 40
1.0
 40
1.0
 10
12.6645645305
 20
14.0324489408
 30
0.0
 10
12.6399718504
 20
14.0182504342
 30
0.0
 10
12.5877614231
 20
13.9937839593
 30
0.0
 10
12.5032656368
 20
13.9704486838
 30
0.0
 10
12.413208827
 20
13.9603899109
 30
0.0
 10
12.3185332627
 20
13.963676038
 30
0.0
 10
12.2201366318
 20
13.9801797947
 30
0.0
 10
12.1189258806
 20
14.0096925185
 30
0.0
 10
12.0159136535
 20
14.0518800656
 30
0.0
 10
11.9483774308
 20
14.0872118065
 30
0.0
 10
11.9145713919
 20
14.1067292906
 30
0.0
  0
SPLINE
  5
259
100
AcDbEntity
  8
0
100
AcDbSpline
 62
7
  6
BYLAYER
 70
0
 71
3
 72
24
 73
20
 74
0
 42
0.0000001
 43
0.0000001
 44
0.0000000001
 40
0.0
 40
0.0
 40
0.0
 40
0.0
 40
0.0623673465
 40
0.1287408808
 40
0.1983307704
 40
0.2703113899
 40
0.343695605
 40
0.4174326949
 40
0.4904620198
 40
0.5617537748
 40
0.6303569821
 40
0.6954484036
 40
0.7564010435
 40
0.8128435633
 40
0.8647470854
 40
0.9125262688
 40
0.9571046942
 40
0.9786664734
 40
1.0
 40
1.0
 40
1.0
 40
1.0
 10
18.9856439141
 20
28.9671042902
 30
0.0
 10
18.9856439144
 20
28.904895907
 30
0.0
 10
18.9771909948
 20
28.7763995681
 30
0.0
 10
18.9425343064
 20
28.5812994815
 30
0.0
 10
18.8861211293
 20
28.3813721802
 30
0.0
 10
18.8092105321
 20
28.1809363328
 30
0.0
 10
18.7134492508
 20
27.9841943843
 30
0.0
 10
18.6008601344
 20
27.795359666
 30
0.0
 10
18.4738377687
 20
27.618469979
 30
0.0
 10
18.3351113678
 20
27.4572754423
 30
0.0
 10
18.187612362
 20
27.3152107894
 30
0.0
 10
18.0344339605
 20
27.1953022158
 30
0.0
 10
17.8787767338
 20
27.1000646283
 30
0.0
 10
17.7237966704
 20
27.0315571269
 30
0.0
 10
17.5725503886
 20
26.9914000835
 30
0.0
 10
17.4281049302
 20
26.9807162815
 30
0.0
 10
17.3145456697
 20
26.9974359691
 30
0.0
 10
17.2319039317
 20
27.0260154284
 30
0.0
 10
17.1934336092
 20
27.0450607179
 30
0.0
 10
17.1750051428
 20
27.0556999804
 30
0.0
  0
SPLINE
  5
25A
100
AcDbEntity
  8
0
100
AcDbSpline
 62
7
  6
BYLAYER
 70
0
 71
3
 72
17
 73
13
 74
0
 42
0.0000001
 43
0.0000001
 44
0.0000000001
 40
0.0
 40
0.0
 40
0.0
 40
0.0
 40
0.0558165958
 40
0.1142103169
 40
0.2373765287
 40
0.366996199
 40
0.4999989195
 40
0.6330017904
 40
0.7626219
 40
0.8857888042
 40
0.9441829469
 40
1.0
 40
1.0
 40
1.0
 40
1.0
 10
11.9145713919
 20
14.1067292906
 30
0.0
 10
11.8790618099
 20
14.1272302936
 30
0.0
 10
11.8082069051
 20
14.1723672293
 30
0.0
 10
11.6686519724
 20
14.277140724
 30
0.0
 10
11.501172102
 20
14.433831972
 30
0.0
 10
11.3193610982
 20
14.6520474012
 30
0.0
 10
11.1598149983
 20
14.8957118455
 30
0.0
 10
11.0285670726
 20
15.1557147071
 30
0.0
 10
10.9304907467
 20
15.4222757336
 30
0.0
 10
10.8785304075
 20
15.645663948
 30
0.0
 10
10.85756987
 20
15.8189097908
 30
0.0
 10
10.8539068041
 20
15.9028410154
 30
0.0
 10
10.8539068042
 20
15.9438440529
 30
0.0
  0
SPLINE
  5
25B
100
AcDbEntity
  8
0
100
AcDbSpline
 62
7
  6
BYLAYER
 70
0
 71
3
 72
24
 73
20
 74
0
 42
0.0000001
 43
0.0000001
 44
0.0000000001
 40
0.0
 40
0.0
 40
0.0
 40
0.0
 40
0.0623673465
 40
0.1287408808
 40
0.1983307704
 40
0.2703113899
 40
0.343695605
 40
0.4174326949
 40
0.4904620198
 40
0.5617537748
 40
0.6303569821
 40
0.6954484036
 40
0.7564010435
 40
0.8128435633
 40
0.8647470854
 40
0.9125262688
 40
0.9571046942
 40
0.9786664734
 40
1.0
 40
1.0
 40
1.0
 40
1.0
 10
18.9856439141
 20
8.554543862
 30
0.0
 10
18.9856439144
 20
8.4923354787
 30
0.0
 10
18.9771909948
 20
8.3638391399
 30
0.0
 10
18.9425343064
 20
8.1687390532
 30
0.0
 10
18.8861211293
 20
7.968811752
 30
0.0
 10
18.8092105321
 20
7.7683759045
 30
0.0
 10
18.7134492508
 20
7.571633956
 30
0.0
 10
18.6008601344
 20
7.3827992378
 30
0.0
 10
18.4738377687
 20
7.2059095508
 30
0.0
 10
18.3351113678
 20
7.044715014
 30
0.0
 10
18.187612362
 20
6.9026503611
 30
0.0
 10
18.0344339605
 20
6.7827417876
 30
0.0
 10
17.8787767338
 20
6.6875042001
 30
0.0
 10
17.7237966704
 20
6.6189966987
 30
0.0
 10
17.5725503886
 20
6.5788396552
 30
0.0
 10
17.4281049302
 20
6.5681558532
 30
0.0
 10
17.3145456697
 20
6.5848755408
 30
0.0
 10
17.2319039317
 20
6.6134550002
 30
0.0
 10
17.1934336092
 20
6.6325002897
 30
0.0
 10
17.1750051428
 20
6.6431395522
 30
0.0
  0
SPLINE
  5
25C
100
AcDbEntity
  8
0
100
AcDbSpline
 62
7
  6
BYLAYER
 70
0
 71
3
 72
22
 73
18
 74
0
 42
0.0000001
 43
0.0000001
 44
0.0000000001
 40
0.0
 40
0.0
 40
0.0
 40
0.0
 40
0.144610648
 40
0.2112341055
 40
0.2742019609
 40
0.3338914853
 40
0.3908682452
 40
0.4459016957
 40
0.499914955
 40
0.5539287732
 40
0.6089628175
 40
0.6659440119
 40
0.7256262707
 40
0.788589657
 40
0.855230328
 40
0.9257350756
 40
1.0
 40
1.0
 40
1.0
 40
1.0
 10
18.2785185807
 20
9.3710357648
 30
0.0
 10
18.3663063557
 20
9.4217217457
 30
0.0
 10
18.5010889695
 20
9.4858651154
 30
0.0
 10
18.685924518
 20
9.5397855673
 30
0.0
 10
18.8171284135
 20
9.5617812538
 30
0.0
 10
18.9433718359
 20
9.5661904112
 30
0.0
 10
19.0634524054
 20
9.5527879379
 30
0.0
 10
19.1761256632
 20
9.5216356478
 30
0.0
 10
19.280146581
 20
9.4729334003
 30
0.0
 10
19.3743361858
 20
9.4072033257
 30
0.0
 10
19.4576642179
 20
9.3252063567
 30
0.0
 10
19.5292895029
 20
9.2279030819
 30
0.0
 10
19.5886311735
 20
9.1163917734
 30
0.0
 10
19.635161915
 20
8.9917675001
 30
0.0
 10
19.6685684667
 20
8.8552325941
 30
0.0
 10
19.6885288301
 20
8.708153154
 30
0.0
 10
19.6927506952
 20
8.6066039187
 30
0.0
 10
19.6927506952
 20
8.5545455576
 30
0.0
  0
SPLINE
  5
25D
100
AcDbEntity
  8
0
100
AcDbSpline
 62
7
  6
BYLAYER
 70
0
 71
3
 72
23
 73
19
 74
0
 42
0.0000001
 43
0.0000001
 44
0.0000000001
 40
0.0
 40
0.0
 40
0.0
 40
0.0
 40
0.0742630537
 40
0.144750755
 40
0.2113712731
 40
0.2743232104
 40
0.3339987966
 40
0.3909711085
 40
0.4459957939
 40
0.5000019828
 40
0.5540080803
 40
0.6090325003
 40
0.6660043955
 40
0.725679448
 40
0.7886307664
 40
0.8552506116
 40
0.9257376211
 40
1.0
 40
1.0
 40
1.0
 40
1.0
 10
10.146800023
 20
15.9438423484
 30
0.0
 10
10.1468000232
 20
15.9959073086
 30
0.0
 10
10.1510172966
 20
16.0974589164
 30
0.0
 10
10.1709805093
 20
16.2445333966
 30
0.0
 10
10.2043887866
 20
16.3810543803
 30
0.0
 10
10.2509151643
 20
16.5056732464
 30
0.0
 10
10.3102544534
 20
16.617185064
 30
0.0
 10
10.3818687288
 20
16.7144991756
 30
0.0
 10
10.4652094
 20
16.7964812456
 30
0.0
 10
10.5593849779
 20
16.8622329118
 30
0.0
 10
10.6634140063
 20
16.9109180253
 30
0.0
 10
10.7760816442
 20
16.9421046526
 30
0.0
 10
10.896164149
 20
16.9554698852
 30
0.0
 10
11.0224048558
 20
16.9511057643
 30
0.0
 10
11.1535902632
 20
16.9290917532
 30
0.0
 10
11.2885242782
 20
16.889765997
 30
0.0
 10
11.4258754933
 20
16.8335196292
 30
0.0
 10
11.5159300499
 20
16.7863974755
 30
0.0
 10
11.5610194733
 20
16.7603656737
 30
0.0
  0
SPLINE
  5
25E
100
AcDbEntity
  8
0
100
AcDbSpline
 62
7
  6
BYLAYER
 70
0
 71
3
 72
15
 73
11
 74
0
 42
0.0000001
 43
0.0000001
 44
0.0000000001
 40
0.0
 40
0.0
 40
0.0
 40
0.0
 40
0.1080129681
 40
0.2180683617
 40
0.3320055757
 40
0.4513431389
 40
0.5772504858
 40
0.7105289387
 40
0.8515205842
 40
1.0
 40
1.0
 40
1.0
 40
1.0
 10
18.6749711736
 20
9.241215702
 30
0.0
 10
18.6995646893
 20
9.2270171863
 30
0.0
 10
18.7468606721
 20
9.1940356034
 30
0.0
 10
18.8093196181
 20
9.132526822
 30
0.0
 10
18.863059787
 20
9.0595625509
 30
0.0
 10
18.9075520475
 20
8.9759255529
 30
0.0
 10
18.9424580468
 20
8.8824568509
 30
0.0
 10
18.9675046171
 20
8.7800460842
 30
0.0
 10
18.9824746478
 20
8.6697373673
 30
0.0
 10
18.9856439138
 20
8.5935808296
 30
0.0
 10
18.9856439141
 20
8.554543862
 30
0.0
  0
SPLINE
  5
25F
100
AcDbEntity
  8
0
100
AcDbSpline
 62
7
  6
BYLAYER
 70
0
 71
3
 72
19
 73
15
 74
0
 42
0.0000001
 43
0.0000001
 44
0.0000000001
 40
0.0
 40
0.0
 40
0.0
 40
0.0
 40
0.0558243534
 40
0.1142050225
 40
0.1748305835
 40
0.2374068464
 40
0.3670162081
 40
0.499998938
 40
0.6329818152
 40
0.7625916098
 40
0.8251681848
 40
0.8857941106
 40
0.9441751926
 40
1.0
 40
1.0
 40
1.0
 40
1.0
 10
11.5610194733
 20
21.6593801764
 30
0.0
 10
11.5136602492
 20
21.6867224186
 30
0.0
 10
11.4191772981
 20
21.7469030285
 30
0.0
 10
11.2820990623
 20
21.8498115475
 30
0.0
 10
11.1477065988
 20
21.9665658137
 30
0.0
 10
10.9718175287
 20
22.141117651
 30
0.0
 10
10.767377088
 20
22.3864866227
 30
0.0
 10
10.5546808037
 20
22.7113588103
 30
0.0
 10
10.3796795529
 20
23.0579948413
 30
0.0
 10
10.2694021479
 20
23.3577301779
 30
0.0
 10
10.206178614
 20
23.597331161
 30
0.0
 10
10.1722612811
 20
23.7720963938
 30
0.0
 10
10.1516775278
 20
23.9422649211
 30
0.0
 10
10.1468000227
 20
24.0541806627
 30
0.0
 10
10.146800023
 20
24.1088665197
 30
0.0
  0
ENDSEC
  0
SECTION
  2
OBJECTS
  0
DICTIONARY
  5
C
100
AcDbDictionary
280
0
281
1
  3
ACAD_GROUP
350
D
  3
ACAD_MLINESTYLE
350
17
  3
ACAD_LAYOUT
350
1A
  3
ACAD_PLOTSETTINGS
350
19
  3
ACAD_PLOTSTYLENAME
350
E
  0
DICTIONARY
  5
D
102
{ACAD_REACTORS
330
C
102
}
100
AcDbDictionary
280
0
281
1
  0
ACDBDICTIONARYWDFLT
  5
E
102
{ACAD_REACTORS
330
C
102
}
100
AcDbDictionary
281
1
  3
Normal
350
F
100
AcDbDictionaryWithDefault
340
F
  0
DICTIONARY
  5
17
102
{ACAD_REACTORS
330
C
102
}
100
AcDbDictionary
280
0
281
1
  3
Standard
350
18
  0
DICTIONARY
  5
19
102
{ACAD_REACTORS
330
C
102
}
100
AcDbDictionary
281
1
  0
DICTIONARY
  5
1A
102
{ACAD_REACTORS
330
C
102
}
100
AcDbDictionary
281
1
  3
Model
350
260
  3
Layout1
350
261
  0
ACDBPLACEHOLDER
  5
F
102
{ACAD_REACTORS
330
E
102
}
  0
MLINESTYLE
  5
18
102
{ACAD_REACTORS
330
17
102
}
100
AcDbMlineStyle
  2
STANDARD
 70
0
  3

 62
256
 51
90.0
 52
90.0
 71
2
 49
0.5
 62
256
  6
BYLAYER
 49
-0.5
 62
256
  6
BYLAYER
  0
LAYOUT
  5
260
102
{ACAD_REACTORS
330
1A
102
}
100
AcDbPlotSettings
  1

  2
none_device
  4

  6

 40
0.0
 41
0.0
 42
0.0
 43
0.0
 44
210.0
 45
297.0
 46
0.0
 47
0.0
 48
0.0
 49
0.0
140
0.0
141
0.0
142
1.0
143
1.0
 70
1024
 72
1
 73
0
 74
0
  7

 75
0
147
1.0
148
0.0
149
0.0
100
AcDbLayout
  1
Model
 70
0
 71
0
 10
0.0
 20
0.0
 11
210.0
 21
297.0
 12
0.0
 22
0.0
 32
0.0
 14
0.0
 24
0.0
 34
0.0
 15
0.0
 25
0.0
 35
0.0
146
0.0
 13
0.0
 23
0.0
 33
0.0
 16
1.0
 26
0.0
 36
0.0
 17
0.0
 27
1.0
 37
0.0
 76
0
330
210
345
0
346
0
  0
LAYOUT
  5
261
102
{ACAD_REACTORS
330
1A
102
}
100
AcDbPlotSettings
  1

  2
none_device
  4

  6

 40
0.0
 41
0.0
 42
0.0
 43
0.0
 44
210.0
 45
297.0
 46
0.0
 47
0.0
 48
0.0
 49
0.0
140
0.0
141
0.0
142
1.0
143
1.0
 70
0
 72
1
 73
0
 74
0
  7

 75
0
147
1.0
148
0.0
149
0.0
100
AcDbLayout
  1
Layout1
 70
0
 71
1
 10
0.0
 20
0.0
 11
210.0
 21
297.0
 12
0.0
 22
0.0
 32
0.0
 14
0.0
 24
0.0
 34
0.0
 15
0.0
 25
0.0
 35
0.0
146
0.0
 13
0.0
 23
0.0
 33
0.0
 16
1.0
 26
0.0
 36
0.0
 17
0.0
 27
1.0
 37
0.0
 76
0
330
211
345
0
346
0
  0
ENDSEC
  0
EOF
