999
DXF file: C:\Users\sesa63760\Dev\_Creo\CAD\MCADID0004767_3D-CAD\drw0001_4.dxf
999
Pro/ENGINEER 2019471 by Parametric Technology Corporation
  0
SECTION
  2
HEADER
  9
$ACADVER
  1
AC1024
  9
$DWGCODEPAGE
  3
ANSI_1252
  9
$EXTMAX
 10
55.009046793
 20
77.7985090358
 30
0.0
  9
$EXTMIN
 10
0.0
 20
0.0
 30
0.0
  9
$LIMMIN
 10
0.0
 20
0.0
  9
$LIMMAX
 10
55.009046793
 20
77.7985090358
  9
$VIEWCTR
 10
27.5045233965
 20
38.8992545179
  9
$VIEWSIZE
 40
77.7985090358
  9
$CLAYER
  8
0
  9
$LTSCALE
 40
5.0713102186
  9
$CELTYPE
  6
BYLAYER
  9
$DIMSCALE
 40
1.0
  9
$DIMASZ
 40
0.6548696047
  9
$DIMEXO
 40
1.0
  9
$DIMDLI
 40
3.5038143329
  9
$DIMEXE
 40
1.0
  9
$DIMCEN
 40
0.829850763
  9
$DIMLFAC
 40
1.0
  9
$DIMBLK
  1
_FILLED
  9
$DIMALT
 70
0
  9
$DIMALTF
 40
0.0393700787
  9
$DIMTXT
 40
0.9168174466
  9
$DIMTOL
 70
1
  9
$DIMLIM
 70
0
  9
$DIMTFAC
 40
1.0
  9
$DIMTP
 40
0.01
  9
$DIMTM
 40
0.01
  9
$DIMGAP
 40
0.625
  9
$DIMDSEP
 70
46
  9
$AUNITS
 70
0
  9
$PDMODE
 70
3
  9
$PDSIZE
 40
0.3125
  9
$HANDSEED
  5
2C8
  9
$TILEMODE
 70
1
  9
$MEASUREMENT
 70
1
  9
$INSUNITS
 70
4
  0
ENDSEC
  0
SECTION
  2
CLASSES
  0
CLASS
  1
ACDBDICTIONARYWDFLT
  2
AcDbDictionaryWithDefault
  3
AutoCAD 2000
 90
0
 91
1
280
0
281
0
  0
CLASS
  1
ACDBPLACEHOLDER
  2
AcDbPlaceHolder
  3
AutoCAD 2000
 90
0
 91
1
280
0
281
0
  0
CLASS
  1
LAYOUT
  2
AcDbLayout
  3
AutoCAD 2000
 90
0
 91
0
280
0
281
0
  0
ENDSEC
  0
SECTION
  2
TABLES
  0
TABLE
  2
VPORT
  5
8
100
AcDbSymbolTable
 70
2
  0
VPORT
  5
1F4
100
AcDbSymbolTableRecord
100
AcDbViewportTableRecord
  2
*ACTIVE
 70
0
 10
0.0
 20
0.0
 11
1.0
 21
1.0
 12
27.5045233965
 22
38.8992545179
 13
0.0
 23
0.0
 14
1.0
 24
1.0
 15
0.0
 25
0.0
 16
0.0
 26
0.0
 36
1.0
 17
0.0
 27
0.0
 37
0.0
 40
77.7985090358
 41
0.7070707071
 42
50.0
 43
0.0
 44
0.0
 50
0.0
 51
0.0
 71
0
 72
100
 73
1
 74
1
 75
0
 76
0
 77
0
 78
0
  0
ENDTAB
  0
TABLE
  2
LTYPE
  5
5
100
AcDbSymbolTable
 70
6
  0
LTYPE
  5
14
100
AcDbSymbolTableRecord
100
AcDbLinetypeTableRecord
  2
BYBLOCK
 70
0
  3

 72
65
 73
0
 40
0.0
  0
LTYPE
  5
15
100
AcDbSymbolTableRecord
100
AcDbLinetypeTableRecord
  2
BYLAYER
 70
0
  3

 72
65
 73
0
 40
0.0
  0
LTYPE
  5
16
100
AcDbSymbolTableRecord
100
AcDbLinetypeTableRecord
  2
CONTINUOUS
 70
64
  3
Solid line
 72
65
 73
0
 40
0.0
  0
LTYPE
  5
1F5
100
AcDbSymbolTableRecord
100
AcDbLinetypeTableRecord
  2
CENTER
 70
64
  3
____ _ ____ _ ____ _ ____ _ ____ _ ____ _ ____
 72
65
 73
4
 40
0.6
 49
0.375
 74
0
 49
-0.075
 74
0
 49
0.075
 74
0
 49
-0.075
 74
0
  0
LTYPE
  5
1F6
100
AcDbSymbolTableRecord
100
AcDbLinetypeTableRecord
  2
HIDDEN
 70
64
  3
- - - - - - - - - - - - - - - - - - - -
 72
65
 73
2
 40
0.2
 49
0.1
 74
0
 49
-0.1
 74
0
  0
LTYPE
  5
1F7
100
AcDbSymbolTableRecord
100
AcDbLinetypeTableRecord
  2
PHANTOM
 70
64
  3
_____ _ _ _____ _ _ _____ _ _ _____
 72
65
 73
6
 40
0.8
 49
0.45
 74
0
 49
-0.05
 74
0
 49
0.1
 74
0
 49
-0.05
 74
0
 49
0.1
 74
0
 49
-0.05
 74
0
  0
LTYPE
  5
1F8
100
AcDbSymbolTableRecord
100
AcDbLinetypeTableRecord
  2
DOT
 70
64
  3
. . . . . . . . . . . . . . . . . . . .
 72
65
 73
2
 40
0.2
 49
0.1
 74
0
 49
-0.1
 74
0
  0
LTYPE
  5
1F9
100
AcDbSymbolTableRecord
100
AcDbLinetypeTableRecord
  2
DASHED
 70
64
  3
- - - - - - - - - - - - - - - - - - - -
 72
65
 73
2
 40
0.2
 49
0.1
 74
0
 49
-0.1
 74
0
  0
ENDTAB
  0
TABLE
  2
LAYER
  5
2
100
AcDbSymbolTable
 70
36
  0
LAYER
  5
10
100
AcDbSymbolTableRecord
100
AcDbLayerTableRecord
  2
0
 70
0
 62
7
  6
CONTINUOUS
370
-3
390
F
  0
LAYER
  5
1FA
100
AcDbSymbolTableRecord
100
AcDbLayerTableRecord
  2
DEFAULT_1
 70
0
 62
7
  6
CENTER
370
-3
390
F
  0
LAYER
  5
1FB
100
AcDbSymbolTableRecord
100
AcDbLayerTableRecord
  2
DEFAULT_2
 70
0
 62
7
  6
HIDDEN
370
-3
390
F
  0
LAYER
  5
1FC
100
AcDbSymbolTableRecord
100
AcDbLayerTableRecord
  2
DEFAULT_3
 70
0
 62
7
  6
PHANTOM
370
-3
390
F
  0
LAYER
  5
1FD
100
AcDbSymbolTableRecord
100
AcDbLayerTableRecord
  2
00_COMPONENTS
 70
0
 62
7
  6
CONTINUOUS
370
-3
390
F
  0
LAYER
  5
1FE
100
AcDbSymbolTableRecord
100
AcDbLayerTableRecord
  2
01_1_DEFAULT_DATUMS
 70
0
 62
7
  6
CONTINUOUS
370
-3
390
F
  0
LAYER
  5
1FF
100
AcDbSymbolTableRecord
100
AcDbLayerTableRecord
  2
01_PLANES
 70
0
 62
7
  6
CONTINUOUS
370
-3
390
F
  0
LAYER
  5
200
100
AcDbSymbolTableRecord
100
AcDbLayerTableRecord
  2
02_COORD_SYS
 70
0
 62
7
  6
CONTINUOUS
370
-3
390
F
  0
LAYER
  5
201
100
AcDbSymbolTableRecord
100
AcDbLayerTableRecord
  2
03_AXES
 70
0
 62
7
  6
CONTINUOUS
370
-3
390
F
  0
LAYER
  5
202
100
AcDbSymbolTableRecord
100
AcDbLayerTableRecord
  2
04_POINTS
 70
0
 62
7
  6
CONTINUOUS
370
-3
390
F
  0
LAYER
  5
203
100
AcDbSymbolTableRecord
100
AcDbLayerTableRecord
  2
05_CURVES
 70
0
 62
7
  6
CONTINUOUS
370
-3
390
F
  0
LAYER
  5
204
100
AcDbSymbolTableRecord
100
AcDbLayerTableRecord
  2
06_SURFS
 70
0
 62
7
  6
CONTINUOUS
370
-3
390
F
  0
LAYER
  5
205
100
AcDbSymbolTableRecord
100
AcDbLayerTableRecord
  2
07_COSMETICS
 70
0
 62
7
  6
CONTINUOUS
370
-3
390
F
  0
LAYER
  5
206
100
AcDbSymbolTableRecord
100
AcDbLayerTableRecord
  2
10_NOTES
 70
0
 62
7
  6
CONTINUOUS
370
-3
390
F
  0
LAYER
  5
207
100
AcDbSymbolTableRecord
100
AcDbLayerTableRecord
  2
11_NOTES_PUB
 70
0
 62
7
  6
CONTINUOUS
370
-3
390
F
  0
LAYER
  5
208
100
AcDbSymbolTableRecord
100
AcDbLayerTableRecord
  2
13_REF_GTOL
 70
0
 62
7
  6
CONTINUOUS
370
-3
390
F
  0
LAYER
  5
209
100
AcDbSymbolTableRecord
100
AcDbLayerTableRecord
  2
16_MISC
 70
0
 62
7
  6
CONTINUOUS
370
-3
390
F
  0
LAYER
  5
20A
100
AcDbSymbolTableRecord
100
AcDbLayerTableRecord
  2
17_NO_PRINT
 70
0
 62
7
  6
CONTINUOUS
370
-3
390
F
  0
LAYER
  5
20B
100
AcDbSymbolTableRecord
100
AcDbLayerTableRecord
  2
18_DATUM_CAMS_JOINTS
 70
0
 62
7
  6
CONTINUOUS
370
-3
390
F
  0
LAYER
  5
20C
100
AcDbSymbolTableRecord
100
AcDbLayerTableRecord
  2
19_DATUM_FUNCTIONAL
 70
0
 62
7
  6
CONTINUOUS
370
-3
390
F
  0
LAYER
  5
20D
100
AcDbSymbolTableRecord
100
AcDbLayerTableRecord
  2
20_DATUM_KINEMATIC_SCHEME
 70
0
 62
7
  6
CONTINUOUS
370
-3
390
F
  0
ENDTAB
  0
TABLE
  2
STYLE
  5
3
100
AcDbSymbolTable
 70
1
  0
STYLE
  5
11
100
AcDbSymbolTableRecord
100
AcDbTextStyleTableRecord
  2
STANDARD
 70
0
 40
0.0
 41
1.0
 50
0.0
 71
0
 42
0.2
  3
ARIAL.TTF
  4

  0
STYLE
  5
20E
100
AcDbSymbolTableRecord
100
AcDbTextStyleTableRecord
  2
TEXTSTYLE_1
 70
0
 40
0.0
 41
0.8
 50
0.0
 71
0
 42
0.2
  3
gdt
  4

  0
ENDTAB
  0
TABLE
  2
VIEW
  5
6
100
AcDbSymbolTable
 70
0
  0
ENDTAB
  0
TABLE
  2
UCS
  5
7
100
AcDbSymbolTable
 70
0
  0
ENDTAB
  0
TABLE
  2
APPID
  5
9
100
AcDbSymbolTable
 70
1
  0
APPID
  5
20F
100
AcDbSymbolTableRecord
100
AcDbRegAppTableRecord
  2
ACAD
 70
0
  0
ENDTAB
  0
TABLE
  2
BLOCK_RECORD
  5
1
100
AcDbSymbolTable
 70
0
  0
BLOCK_RECORD
  5
210
100
AcDbSymbolTableRecord
100
AcDbBlockTableRecord
  2
*Model_Space
  0
BLOCK_RECORD
  5
211
100
AcDbSymbolTableRecord
100
AcDbBlockTableRecord
  2
*Paper_Space
  0
BLOCK_RECORD
  5
212
100
AcDbSymbolTableRecord
100
AcDbBlockTableRecord
  2
_FILLED
  0
ENDTAB
  0
TABLE
  2
DIMSTYLE
  5
A
100
AcDbSymbolTable
 70
1
100
AcDbDimStyleTable
 71
0
  0
DIMSTYLE
105
213
100
AcDbSymbolTableRecord
100
AcDbDimStyleTableRecord
  2
STANDARD
 70
0
  3

  4

 40
1.0
 41
0.6548696047
 42
1.0
 43
0.38
 44
1.0
 45
0.0
 46
0.0
 47
0.01
 48
0.01
140
0.9168174466
141
0.09
142
0.0
143
25.4
144
1.0
145
0.0
146
1.0
147
0.625
 71
1
 72
0
 73
0
 74
0
 75
0
 76
0
 77
1
 78
8
 79
2
170
0
171
1
172
0
173
0
174
0
175
0
176
0
177
0
178
0
270
2
179
2
271
2
272
2
273
2
274
2
275
0
280
0
281
0
282
0
283
1
284
8
285
0
286
0
287
3
288
0
340
11
278
46
341
212
342
212
343
212
344
212
  0
ENDTAB
  0
ENDSEC
  0
SECTION
  2
BLOCKS
  0
BLOCK
  5
20
100
AcDbEntity
  8
0
100
AcDbBlockBegin
  2
*Model_Space
 70
0
 10
0.0
 20
0.0
 30
0.0
  3
*Model_Space
  1

  0
ENDBLK
  5
21
100
AcDbEntity
  8
0
100
AcDbBlockEnd
  0
BLOCK
  5
1C
100
AcDbEntity
  8
0
100
AcDbBlockBegin
  2
*Paper_Space
 70
0
 10
0.0
 20
0.0
 30
0.0
  3
*Paper_Space
  1

  0
ENDBLK
  5
1D
100
AcDbEntity
  8
0
100
AcDbBlockEnd
  0
BLOCK
  5
214
100
AcDbEntity
  8
0
100
AcDbBlockBegin
  2
_FILLED
 70
64
 10
0.0
 20
0.0
  3
_FILLED
  1

  0
SOLID
  5
215
100
AcDbEntity
  8
0
  6
BYBLOCK
 62
0
100
AcDbTrace
 10
0.0
 20
0.0
 11
-1.0
 21
0.25
 12
-1.0
 22
-0.25
 13
-1.0
 23
-0.25
  0
ENDBLK
  5
216
100
AcDbEntity
  8
0
  6
BYBLOCK
 62
0
100
AcDbBlockEnd
  0
ENDSEC
  0
SECTION
  2
ENTITIES
  0
LINE
  5
217
100
AcDbEntity
  8
0
100
AcDbLine
 62
7
  6
BYLAYER
 10
34.595632904
 20
5.5706398759
 11
21.841783088
 21
5.5706398759
  0
LINE
  5
218
100
AcDbEntity
  8
0
100
AcDbLine
 62
7
  6
BYLAYER
 10
34.9463557308
 20
5.983815787
 11
34.623865585
 21
5.983815787
  0
LINE
  5
219
100
AcDbEntity
  8
0
100
AcDbLine
 62
7
  6
BYLAYER
 10
33.9167588039
 20
5.983815787
 11
33.5321421685
 21
5.983815787
  0
LINE
  5
21A
100
AcDbEntity
  8
0
100
AcDbLine
 62
7
  6
BYLAYER
 10
31.6754327215
 20
5.983815787
 11
24.7619832704
 21
5.983815787
  0
LINE
  5
21B
100
AcDbEntity
  8
0
100
AcDbLine
 62
7
  6
BYLAYER
 10
22.9052738235
 20
5.983815787
 11
21.4910602611
 21
5.983815787
  0
LINE
  5
21C
100
AcDbEntity
  8
0
100
AcDbLine
 62
7
  6
BYLAYER
 10
33.9213577782
 20
6.0206398759
 11
34.1376692472
 21
6.0206398759
  0
LINE
  5
21D
100
AcDbEntity
  8
0
100
AcDbLine
 62
7
  6
BYLAYER
 10
34.03160323
 20
6.1706398759
 11
33.9400913346
 21
6.1706398759
  0
LINE
  5
21E
100
AcDbEntity
  8
0
100
AcDbLine
 62
7
  6
BYLAYER
 10
33.9555718432
 20
6.2945926492
 11
34.1360578661
 21
6.2945926492
  0
LINE
  5
21F
100
AcDbEntity
  8
0
100
AcDbLine
 62
7
  6
BYLAYER
 10
24.4431432932
 20
8.5074639647
 11
31.9942726987
 21
8.5074639647
  0
LINE
  5
220
100
AcDbEntity
  8
0
100
AcDbLine
 62
7
  6
BYLAYER
 10
37.3638914869
 20
8.9206398759
 11
34.990623428
 21
8.9206398759
  0
LINE
  5
221
100
AcDbEntity
  8
0
100
AcDbLine
 62
7
  6
BYLAYER
 10
34.3221857437
 20
8.9206398759
 11
19.0735258148
 21
8.9206398759
  0
LINE
  5
222
100
AcDbEntity
  8
0
100
AcDbLine
 62
7
  6
BYLAYER
 10
37.7970201595
 20
9.1706398759
 11
35.3359166077
 21
9.1706398759
  0
LINE
  5
223
100
AcDbEntity
  8
0
100
AcDbLine
 62
7
  6
BYLAYER
 10
34.6288098266
 20
9.1706398759
 11
18.6403958325
 21
9.1706398759
  0
LINE
  5
224
100
AcDbEntity
  8
0
100
AcDbLine
 62
7
  6
BYLAYER
 10
18.0733585767
 20
10.1527772127
 11
35.0302824772
 21
10.1527772127
  0
LINE
  5
225
100
AcDbEntity
  8
0
100
AcDbLine
 62
7
  6
BYLAYER
 10
35.7373892584
 20
10.1527772127
 11
38.3640574153
 21
10.1527772127
  0
LINE
  5
226
100
AcDbEntity
  8
0
100
AcDbLine
 62
7
  6
BYLAYER
 10
35.0776529883
 20
10.3925104995
 11
35.2124307097
 21
10.3925104995
  0
LINE
  5
227
100
AcDbEntity
  8
0
100
AcDbLine
 62
7
  6
BYLAYER
 10
38.4309685609
 20
10.3940510094
 11
35.7847597695
 21
10.3940510094
  0
LINE
  5
228
100
AcDbEntity
  8
0
100
AcDbLine
 62
7
  6
BYLAYER
 10
35.0776529883
 20
10.3940510094
 11
18.006447431
 21
10.3940510094
  0
LINE
  5
229
100
AcDbEntity
  8
0
100
AcDbLine
 62
7
  6
BYLAYER
 10
35.0833494731
 20
10.8550327842
 11
35.2687150813
 21
10.8550327842
  0
LINE
  5
22A
100
AcDbEntity
  8
0
100
AcDbLine
 62
7
  6
BYLAYER
 10
38.518707996
 20
15.4206398761
 11
35.8468747784
 21
15.4206398761
  0
LINE
  5
22B
100
AcDbEntity
  8
0
100
AcDbLine
 62
7
  6
BYLAYER
 10
35.1397679972
 20
15.4206398761
 11
17.918707996
 21
15.4206398761
  0
LINE
  5
22C
100
AcDbEntity
  8
0
100
AcDbLine
 62
7
  6
BYLAYER
 10
35.3251311469
 20
15.4258759966
 11
35.1397679972
 21
15.4258759966
  0
LINE
  5
22D
100
AcDbEntity
  8
0
100
AcDbLine
 62
7
  6
BYLAYER
 10
40.218707996
 20
15.8206398759
 11
33.7511294525
 21
15.8206398759
  0
LINE
  5
22E
100
AcDbEntity
  8
0
100
AcDbLine
 62
7
  6
BYLAYER
 10
22.6862865394
 20
15.8206398759
 11
16.218707996
 21
15.8206398759
  0
LINE
  5
22F
100
AcDbEntity
  8
0
100
AcDbLine
 62
7
  6
BYLAYER
 10
41.718707996
 20
16.4206398759
 11
14.718707996
 21
16.4206398759
  0
LINE
  5
230
100
AcDbEntity
  8
0
100
AcDbLine
 62
7
  6
BYLAYER
 10
18.6403958325
 20
9.1706398759
 11
18.0733585767
 21
10.1527772127
  0
LINE
  5
231
100
AcDbEntity
  8
0
100
AcDbLine
 62
7
  6
BYLAYER
 10
18.0733585767
 20
10.1527772127
 11
18.006447431
 21
10.3940510094
  0
LINE
  5
232
100
AcDbEntity
  8
0
100
AcDbLine
 62
7
  6
BYLAYER
 10
14.718707996
 20
22.9206398759
 11
41.718707996
 21
22.9206398759
  0
LINE
  5
233
100
AcDbEntity
  8
0
100
AcDbLine
 62
7
  6
BYLAYER
 10
14.718707996
 20
22.9206398759
 11
14.718707996
 21
16.4206398759
  0
LINE
  5
234
100
AcDbEntity
  8
0
100
AcDbLine
 62
7
  6
BYLAYER
 10
14.768707996
 20
22.9206398759
 11
14.768707996
 21
44.8206398759
  0
LINE
  5
235
100
AcDbEntity
  8
0
100
AcDbLine
 62
7
  6
BYLAYER
 10
15.4186101844
 20
16.4206398759
 11
15.4186072506
 21
22.9206398759
  0
LINE
  5
236
100
AcDbEntity
  8
0
100
AcDbLine
 62
7
  6
BYLAYER
 10
16.218707996
 20
15.8206398759
 11
16.218707996
 21
16.4206398759
  0
LINE
  5
237
100
AcDbEntity
  8
0
100
AcDbLine
 62
7
  6
BYLAYER
 10
16.3773668499
 20
15.8206398759
 11
16.3773668499
 21
16.4206398759
  0
LINE
  5
238
100
AcDbEntity
  8
0
100
AcDbLine
 62
7
  6
BYLAYER
 10
41.668707996
 20
24.9206398759
 11
14.768707996
 21
24.9206398759
  0
LINE
  5
239
100
AcDbEntity
  8
0
100
AcDbLine
 62
7
  6
BYLAYER
 10
18.006447431
 20
10.3940510094
 11
17.918707996
 21
15.4206398761
  0
LINE
  5
23A
100
AcDbEntity
  8
0
100
AcDbLine
 62
7
  6
BYLAYER
 10
17.4380270217
 20
16.4206398759
 11
17.4380270217
 21
15.8206398759
  0
LINE
  5
23B
100
AcDbEntity
  8
0
100
AcDbLine
 62
7
  6
BYLAYER
 10
17.918707996
 20
15.8206398759
 11
17.918707996
 21
15.4206398761
  0
LINE
  5
23C
100
AcDbEntity
  8
0
100
AcDbLine
 62
7
  6
BYLAYER
 10
18.7363460862
 20
15.8206398759
 11
18.7363460862
 21
16.4206398759
  0
LINE
  5
23D
100
AcDbEntity
  8
0
100
AcDbLine
 62
7
  6
BYLAYER
 10
16.572106361
 20
15.8206398759
 11
16.5803107746
 21
16.4206398759
  0
LINE
  5
23E
100
AcDbEntity
  8
0
100
AcDbLine
 62
7
  6
BYLAYER
 10
19.8526825922
 20
24.9206398759
 11
19.8526825922
 21
44.8206398759
  0
LINE
  5
23F
100
AcDbEntity
  8
0
100
AcDbLine
 62
7
  6
BYLAYER
 10
20.718707996
 20
24.9206398759
 11
20.718707996
 21
34.5835152123
  0
LINE
  5
240
100
AcDbEntity
  8
0
100
AcDbLine
 62
7
  6
BYLAYER
 10
20.718707996
 20
36.6786595768
 11
20.718707996
 21
38.88279522
  0
LINE
  5
241
100
AcDbEntity
  8
0
100
AcDbLine
 62
7
  6
BYLAYER
 10
20.718707996
 20
40.0948625982
 11
20.718707996
 21
44.8206398759
  0
LINE
  5
242
100
AcDbEntity
  8
0
100
AcDbLine
 62
7
  6
BYLAYER
 10
22.6862865394
 20
16.4206398759
 11
22.6862865394
 21
15.8206398759
  0
LINE
  5
243
100
AcDbEntity
  8
0
100
AcDbLine
 62
7
  6
BYLAYER
 10
23.8373193691
 20
47.5579946954
 11
24.7588370672
 21
62.5798816134
  0
LINE
  5
244
100
AcDbEntity
  8
0
100
AcDbLine
 62
7
  6
BYLAYER
 10
23.3603613963
 20
36.5166073411
 11
23.4950671779
 21
38.7124794576
  0
LINE
  5
245
100
AcDbEntity
  8
0
100
AcDbLine
 62
7
  6
BYLAYER
 10
29.0227405308
 20
32.4622932762
 11
26.8268684142
 21
32.5969990578
  0
LINE
  5
246
100
AcDbEntity
  8
0
100
AcDbLine
 62
7
  6
BYLAYER
 10
24.7546063808
 20
35.3206398759
 11
28.218707996
 21
33.3206398759
  0
LINE
  5
247
100
AcDbEntity
  8
0
100
AcDbLine
 62
7
  6
BYLAYER
 10
24.7546063808
 20
39.3206398759
 11
24.7546063808
 21
35.3206398759
  0
LINE
  5
248
100
AcDbEntity
  8
0
100
AcDbLine
 62
7
  6
BYLAYER
 10
28.218707996
 20
41.3206398759
 11
24.7546063808
 21
39.3206398759
  0
LINE
  5
249
100
AcDbEntity
  8
0
100
AcDbLine
 62
7
  6
BYLAYER
 10
23.3603613963
 20
36.5166073411
 11
20.242208883
 21
36.7078904163
  0
LINE
  5
24A
100
AcDbEntity
  8
0
100
AcDbLine
 62
7
  6
BYLAYER
 10
32.9423488141
 20
35.9288002941
 11
36.0605013274
 21
35.7375172188
  0
LINE
  5
24B
100
AcDbEntity
  8
0
100
AcDbLine
 62
7
  6
BYLAYER
 10
27.6412260938
 20
45.8720441262
 11
27.4146754612
 21
42.1789864756
  0
LINE
  5
24C
100
AcDbEntity
  8
0
100
AcDbLine
 62
7
  6
BYLAYER
 10
26.8268684142
 20
32.5969990578
 11
26.6355853389
 21
29.4788465445
  0
LINE
  5
24D
100
AcDbEntity
  8
0
100
AcDbLine
 62
7
  6
BYLAYER
 10
23.4950671779
 20
38.7124794576
 11
20.3769146646
 21
38.9037625329
  0
LINE
  5
24E
100
AcDbEntity
  8
0
100
AcDbLine
 62
7
  6
BYLAYER
 10
33.0770545957
 20
38.1246724107
 11
36.195207109
 21
37.9333893354
  0
LINE
  5
24F
100
AcDbEntity
  8
0
100
AcDbLine
 62
7
  6
BYLAYER
 10
29.0227405308
 20
32.4622932762
 11
28.8314574555
 21
29.3441407629
  0
LINE
  5
250
100
AcDbEntity
  8
0
100
AcDbLine
 62
7
  6
BYLAYER
 10
29.6105475777
 20
42.044280694
 11
29.8370982104
 21
45.7373383446
  0
LINE
  5
251
100
AcDbEntity
  8
0
100
AcDbLine
 62
7
  6
BYLAYER
 10
31.6828096111
 20
39.3206398759
 11
28.218707996
 21
41.3206398759
  0
LINE
  5
252
100
AcDbEntity
  8
0
100
AcDbLine
 62
7
  6
BYLAYER
 10
31.6828096111
 20
35.3206398759
 11
31.6828096111
 21
39.3206398759
  0
LINE
  5
253
100
AcDbEntity
  8
0
100
AcDbLine
 62
7
  6
BYLAYER
 10
33.0770545957
 20
38.1246724107
 11
32.9423488141
 21
35.9288002941
  0
LINE
  5
254
100
AcDbEntity
  8
0
100
AcDbLine
 62
7
  6
BYLAYER
 10
33.8185562627
 20
46.9456956882
 11
34.7400739608
 21
61.9675826062
  0
LINE
  5
255
100
AcDbEntity
  8
0
100
AcDbLine
 62
7
  6
BYLAYER
 10
28.218707996
 20
33.3206398759
 11
31.6828096111
 21
35.3206398759
  0
LINE
  5
256
100
AcDbEntity
  8
0
100
AcDbLine
 62
7
  6
BYLAYER
 10
27.4146754612
 20
42.1789864756
 11
29.6105475777
 21
42.044280694
  0
LINE
  5
257
100
AcDbEntity
  8
0
100
AcDbLine
 62
7
  6
BYLAYER
 10
33.7511294525
 20
15.8206398759
 11
33.7511294525
 21
16.4206398759
  0
LINE
  5
258
100
AcDbEntity
  8
0
100
AcDbLine
 62
7
  6
BYLAYER
 10
35.1397679972
 20
15.4206398762
 11
35.1397679972
 21
15.8206398759
  0
LINE
  5
259
100
AcDbEntity
  8
0
100
AcDbLine
 62
7
  6
BYLAYER
 10
35.3251311469
 20
15.8206398759
 11
35.3251311469
 21
15.4258759966
  0
LINE
  5
25A
100
AcDbEntity
  8
0
100
AcDbLine
 62
7
  6
BYLAYER
 10
35.5372631813
 20
15.4245669664
 11
35.5372631813
 21
15.8206398759
  0
LINE
  5
25B
100
AcDbEntity
  8
0
100
AcDbLine
 62
7
  6
BYLAYER
 10
35.1397679972
 20
15.4206398762
 11
35.0776529883
 21
10.3940510094
  0
LINE
  5
25C
100
AcDbEntity
  8
0
100
AcDbLine
 62
7
  6
BYLAYER
 10
35.2687150813
 20
10.8550327842
 11
35.3251311469
 21
15.4258759966
  0
LINE
  5
25D
100
AcDbEntity
  8
0
100
AcDbLine
 62
7
  6
BYLAYER
 10
14.768707996
 20
44.8206398759
 11
23.260477225
 21
44.8206398759
  0
LINE
  5
25E
100
AcDbEntity
  8
0
100
AcDbLine
 62
7
  6
BYLAYER
 10
27.5767276969
 20
44.8206398759
 11
29.7808633401
 21
44.8206398759
  0
LINE
  5
25F
100
AcDbEntity
  8
0
100
AcDbLine
 62
7
  6
BYLAYER
 10
33.9999531764
 20
44.8206398759
 11
41.668707996
 21
44.8206398759
  0
LINE
  5
260
100
AcDbEntity
  8
0
100
AcDbLine
 62
7
  6
BYLAYER
 10
29.8370982104
 20
45.7373383446
 11
27.6412260938
 21
45.8720441262
  0
LINE
  5
261
100
AcDbEntity
  8
0
100
AcDbLine
 62
7
  6
BYLAYER
 10
35.718707996
 20
24.9206398759
 11
35.718707996
 21
34.7809899682
  0
LINE
  5
262
100
AcDbEntity
  8
0
100
AcDbLine
 62
7
  6
BYLAYER
 10
35.718707996
 20
35.7584845318
 11
35.718707996
 21
37.9626201749
  0
LINE
  5
263
100
AcDbEntity
  8
0
100
AcDbLine
 62
7
  6
BYLAYER
 10
35.718707996
 20
40.0699791134
 11
35.718707996
 21
44.8206398759
  0
LINE
  5
264
100
AcDbEntity
  8
0
100
AcDbLine
 62
7
  6
BYLAYER
 10
35.8468747784
 20
15.8206398759
 11
35.8468747784
 21
15.4206398762
  0
LINE
  5
265
100
AcDbEntity
  8
0
100
AcDbLine
 62
7
  6
BYLAYER
 10
36.5847333998
 20
24.9206398759
 11
36.5847333998
 21
44.8206398759
  0
LINE
  5
266
100
AcDbEntity
  8
0
100
AcDbLine
 62
7
  6
BYLAYER
 10
37.7010699058
 20
16.4206398759
 11
37.7010699058
 21
15.8206398759
  0
LINE
  5
267
100
AcDbEntity
  8
0
100
AcDbLine
 62
7
  6
BYLAYER
 10
35.5372631813
 20
15.4245669664
 11
35.4808309613
 21
10.8524149233
  0
LINE
  5
268
100
AcDbEntity
  8
0
100
AcDbLine
 62
7
  6
BYLAYER
 10
35.7847597695
 20
10.3940510094
 11
35.8468747784
 21
15.4206398762
  0
LINE
  5
269
100
AcDbEntity
  8
0
100
AcDbLine
 62
7
  6
BYLAYER
 10
39.8571052174
 20
16.4206398759
 11
39.8653096309
 21
15.8206398759
  0
LINE
  5
26A
100
AcDbEntity
  8
0
100
AcDbLine
 62
7
  6
BYLAYER
 10
38.518707996
 20
15.8206398759
 11
38.518707996
 21
15.4206398761
  0
LINE
  5
26B
100
AcDbEntity
  8
0
100
AcDbLine
 62
7
  6
BYLAYER
 10
38.9993889703
 20
15.8206398759
 11
38.9993889703
 21
16.4206398759
  0
LINE
  5
26C
100
AcDbEntity
  8
0
100
AcDbLine
 62
7
  6
BYLAYER
 10
40.0600491421
 20
16.4206398759
 11
40.0600491421
 21
15.8206398759
  0
LINE
  5
26D
100
AcDbEntity
  8
0
100
AcDbLine
 62
7
  6
BYLAYER
 10
40.218707996
 20
16.4206398759
 11
40.218707996
 21
15.8206398759
  0
LINE
  5
26E
100
AcDbEntity
  8
0
100
AcDbLine
 62
7
  6
BYLAYER
 10
38.4309685609
 20
10.3940510094
 11
38.518707996
 21
15.4206398761
  0
LINE
  5
26F
100
AcDbEntity
  8
0
100
AcDbLine
 62
7
  6
BYLAYER
 10
34.1360578661
 20
6.2945926492
 11
34.4704726826
 21
8.9767344696
  0
LINE
  5
270
100
AcDbEntity
  8
0
100
AcDbLine
 62
7
  6
BYLAYER
 10
34.6848247509
 20
8.9814167381
 11
34.3465785193
 21
6.2685454226
  0
LINE
  5
271
100
AcDbEntity
  8
0
100
AcDbLine
 62
7
  6
BYLAYER
 10
33.9370845503
 20
48.8778544923
 11
23.9558476568
 21
49.4901534995
  0
LINE
  5
272
100
AcDbEntity
  8
0
100
AcDbLine
 62
7
  6
BYLAYER
 10
41.0188036262
 20
22.9206398759
 11
41.0188036262
 21
16.4206398759
  0
LINE
  5
273
100
AcDbEntity
  8
0
100
AcDbLine
 62
7
  6
BYLAYER
 10
41.668707996
 20
22.9206398759
 11
41.668707996
 21
44.8206398759
  0
LINE
  5
274
100
AcDbEntity
  8
0
100
AcDbLine
 62
7
  6
BYLAYER
 10
41.718707996
 20
16.4206398759
 11
41.718707996
 21
22.9206398759
  0
LINE
  5
275
100
AcDbEntity
  8
0
100
AcDbLine
 62
7
  6
BYLAYER
 10
38.3640574153
 20
10.1527772127
 11
38.4309685609
 21
10.3940510094
  0
LINE
  5
276
100
AcDbEntity
  8
0
100
AcDbLine
 62
7
  6
BYLAYER
 10
34.4478812295
 20
57.2044769408
 11
24.4666443359
 21
57.8167759481
  0
LINE
  5
277
100
AcDbEntity
  8
0
100
AcDbLine
 62
7
  6
BYLAYER
 10
37.7970201595
 20
9.1706398759
 11
38.3640574153
 21
10.1527772127
  0
ARC
  5
278
100
AcDbEntity
  8
0
100
AcDbCircle
 62
7
  6
BYLAYER
 10
19.0734085344
 20
9.4206398759
 40
0.5
100
AcDbArc
 50
210.0
 51
270.0
  0
ARC
  5
279
100
AcDbEntity
  8
0
100
AcDbCircle
 62
7
  6
BYLAYER
 10
13.8560824755
 20
48.1702937026
 40
10.0
100
AcDbArc
 50
322.9322795404
 51
356.4895892936
  0
ARC
  5
27A
100
AcDbEntity
  8
0
100
AcDbCircle
 62
7
  6
BYLAYER
 10
28.218707996
 20
37.3206398759
 40
8.0
100
AcDbArc
 50
4.392797027
 51
30.0468990641
  0
ARC
  5
27B
100
AcDbEntity
  8
0
100
AcDbCircle
 62
7
  6
BYLAYER
 10
28.218707996
 20
37.3206398759
 40
8.0
100
AcDbArc
 50
274.392797027
 51
348.5863815601
  0
ARC
  5
27C
100
AcDbEntity
  8
0
100
AcDbCircle
 62
7
  6
BYLAYER
 10
28.218707996
 20
37.3206398759
 40
8.0
100
AcDbArc
 50
184.392797027
 51
258.5863815601
  0
ARC
  5
27D
100
AcDbEntity
  8
0
100
AcDbCircle
 62
7
  6
BYLAYER
 10
28.218707996
 20
37.3206398759
 40
8.0
100
AcDbArc
 50
142.9322795207
 51
168.5863815601
  0
ARC
  5
27E
100
AcDbEntity
  8
0
100
AcDbCircle
 62
7
  6
BYLAYER
 10
28.218707996
 20
37.3206398759
 40
7.0125
100
AcDbArc
 50
74.9684403836
 51
98.8628462676
  0
ARC
  5
27F
100
AcDbEntity
  8
0
100
AcDbCircle
 62
7
  6
BYLAYER
 10
28.218707996
 20
37.3206398759
 40
7.0125
100
AcDbArc
 50
340.8990237033
 51
9.5745164271
  0
ARC
  5
280
100
AcDbEntity
  8
0
100
AcDbCircle
 62
7
  6
BYLAYER
 10
28.218707996
 20
37.3206398759
 40
7.0125
100
AcDbArc
 50
254.9684403836
 51
278.8628462676
  0
ARC
  5
281
100
AcDbEntity
  8
0
100
AcDbCircle
 62
7
  6
BYLAYER
 10
28.218707996
 20
37.3206398759
 40
7.0125
100
AcDbArc
 50
160.8990237033
 51
189.5745164271
  0
ARC
  5
282
100
AcDbEntity
  8
0
100
AcDbCircle
 62
7
  6
BYLAYER
 10
28.218707996
 20
37.3206398759
 40
6.5125
100
AcDbArc
 50
74.3562570798
 51
99.510490961
  0
ARC
  5
283
100
AcDbEntity
  8
0
100
AcDbCircle
 62
7
  6
BYLAYER
 10
28.218707996
 20
37.3206398759
 40
6.5125
100
AcDbArc
 50
340.28358371
 51
10.7798382556
  0
ARC
  5
284
100
AcDbEntity
  8
0
100
AcDbCircle
 62
7
  6
BYLAYER
 10
28.218707996
 20
37.3206398759
 40
6.5125
100
AcDbArc
 50
254.3562570798
 51
279.510490961
  0
ARC
  5
285
100
AcDbEntity
  8
0
100
AcDbCircle
 62
7
  6
BYLAYER
 10
28.218707996
 20
37.3206398759
 40
6.5125
100
AcDbArc
 50
160.28358371
 51
190.7798382556
  0
ARC
  5
286
100
AcDbEntity
  8
0
100
AcDbCircle
 62
7
  6
BYLAYER
 10
28.218707996
 20
37.3206398759
 40
6.02
100
AcDbArc
 50
75.8190654425
 51
97.0622610851
  0
ARC
  5
287
100
AcDbEntity
  8
0
100
AcDbCircle
 62
7
  6
BYLAYER
 10
28.218707996
 20
37.3206398759
 40
6.02
100
AcDbArc
 50
345.8710763676
 51
7.2130394438
  0
ARC
  5
288
100
AcDbEntity
  8
0
100
AcDbCircle
 62
7
  6
BYLAYER
 10
28.218707996
 20
37.3206398759
 40
6.02
100
AcDbArc
 50
255.8190654425
 51
277.0622610851
  0
ARC
  5
289
100
AcDbEntity
  8
0
100
AcDbCircle
 62
7
  6
BYLAYER
 10
28.218707996
 20
37.3206398759
 40
6.02
100
AcDbArc
 50
165.8710763676
 51
187.2130394438
  0
ARC
  5
28A
100
AcDbEntity
  8
0
100
AcDbCircle
 62
7
  6
BYLAYER
 10
28.218707996
 20
37.3206398759
 40
6.0
100
AcDbArc
 50
276.1255029829
 51
277.175361014
  0
ARC
  5
28B
100
AcDbEntity
  8
0
100
AcDbCircle
 62
7
  6
BYLAYER
 10
28.218707996
 20
37.3206398759
 40
6.0
100
AcDbArc
 50
352.0631308239
 51
2.3836169362
  0
ARC
  5
28C
100
AcDbEntity
  8
0
100
AcDbCircle
 62
7
  6
BYLAYER
 10
28.218707996
 20
37.3206398759
 40
6.0
100
AcDbArc
 50
77.1141612061
 51
93.5104107064
  0
ARC
  5
28D
100
AcDbEntity
  8
0
100
AcDbCircle
 62
7
  6
BYLAYER
 10
28.218707996
 20
37.3206398759
 40
6.0
100
AcDbArc
 50
96.1255029829
 51
97.175361014
  0
ARC
  5
28E
100
AcDbEntity
  8
0
100
AcDbCircle
 62
7
  6
BYLAYER
 10
28.218707996
 20
37.3206398759
 40
6.0
100
AcDbArc
 50
172.0631308239
 51
182.3836169362
  0
ARC
  5
28F
100
AcDbEntity
  8
0
100
AcDbCircle
 62
7
  6
BYLAYER
 10
28.218707996
 20
37.3206398759
 40
6.0
100
AcDbArc
 50
257.1141612061
 51
273.5104107064
  0
ARC
  5
290
100
AcDbEntity
  8
0
100
AcDbCircle
 62
7
  6
BYLAYER
 10
28.218707996
 20
37.3206398759
 40
5.0
100
AcDbArc
 50
72.1315792252
 51
101.7087374256
  0
ARC
  5
291
100
AcDbEntity
  8
0
100
AcDbCircle
 62
7
  6
BYLAYER
 10
28.218707996
 20
37.3206398759
 40
5.0
100
AcDbArc
 50
158.6021924733
 51
180.0
  0
ARC
  5
292
100
AcDbEntity
  8
0
100
AcDbCircle
 62
7
  6
BYLAYER
 10
28.218707996
 20
37.3206398759
 40
5.0
100
AcDbArc
 50
252.1315792252
 51
281.7087374256
  0
ARC
  5
293
100
AcDbEntity
  8
0
100
AcDbCircle
 62
7
  6
BYLAYER
 10
28.218707996
 20
37.3206398759
 40
5.0
100
AcDbArc
 50
338.6021924733
 51
360.0
  0
CIRCLE
  5
294
100
AcDbEntity
  8
0
100
AcDbCircle
 62
7
  6
BYLAYER
 10
28.218707996
 20
37.3206398759
 40
3.2
  0
CIRCLE
  5
295
100
AcDbEntity
  8
0
100
AcDbCircle
 62
7
  6
BYLAYER
 10
28.218707996
 20
37.3206398759
 40
2.525
  0
CIRCLE
  5
296
100
AcDbEntity
  8
0
100
AcDbCircle
 62
7
  6
BYLAYER
 10
28.218707996
 20
37.3206398759
 40
2.5
  0
CIRCLE
  5
297
100
AcDbEntity
  8
0
100
AcDbCircle
 62
7
  6
BYLAYER
 10
28.218707996
 20
37.3206398759
 40
2.0999738129
  0
ARC
  5
298
100
AcDbEntity
  8
0
100
AcDbCircle
 62
7
  6
BYLAYER
 10
35.3031696422
 20
-5.3219999307
 40
20.7478875503
100
AcDbArc
 50
89.3535314689
 51
89.9393527768
  0
ARC
  5
299
100
AcDbEntity
  8
0
100
AcDbCircle
 62
7
  6
BYLAYER
 10
32.7481400048
 20
10.9758062313
 40
2.5323827888
100
AcDbArc
 50
340.1736350443
 51
346.6832199027
  0
ARC
  5
29A
100
AcDbEntity
  8
0
100
AcDbCircle
 62
7
  6
BYLAYER
 10
37.3640074576
 20
9.4206398759
 40
0.5
100
AcDbArc
 50
270.0
 51
330.0
  0
ARC
  5
29B
100
AcDbEntity
  8
0
100
AcDbCircle
 62
7
  6
BYLAYER
 10
43.7997931563
 20
46.333396681
 40
10.0
100
AcDbArc
 50
176.4895892936
 51
210.0468990486
  0
ARC
  5
29C
100
AcDbEntity
  8
0
100
AcDbCircle
 62
7
  6
BYLAYER
 10
29.749455514
 20
62.2737321098
 40
9.5
100
AcDbArc
 50
298.7300531152
 51
235.3339347593
  0
ARC
  5
29D
100
AcDbEntity
  8
0
100
AcDbCircle
 62
7
  6
BYLAYER
 10
29.749455514
 20
62.2737321098
 40
5.0
100
AcDbArc
 50
356.4895892936
 51
176.4895892936
  0
CIRCLE
  5
29E
100
AcDbEntity
  8
0
100
AcDbCircle
 62
7
  6
BYLAYER
 10
29.749455514
 20
62.2737321098
 40
2.125
  0
CIRCLE
  5
29F
100
AcDbEntity
  8
0
100
AcDbCircle
 62
7
  6
BYLAYER
 10
29.749455514
 20
62.2737321098
 40
2.05
  0
CIRCLE
  5
2A0
100
AcDbEntity
  8
0
100
AcDbCircle
 62
7
  6
BYLAYER
 10
29.749455514
 20
62.2737321098
 40
1.3
  0
SPLINE
  5
2A1
100
AcDbEntity
  8
0
100
AcDbSpline
 62
7
  6
BYLAYER
 70
0
 71
3
 72
13
 73
9
 74
0
 42
0.0000001
 43
0.0000001
 44
0.0000000001
 40
0.0
 40
0.0
 40
0.0
 40
0.0
 40
0.2872822851
 40
0.5508761578
 40
0.6719677279
 40
0.785993188
 40
0.8945837796
 40
1.0
 40
1.0
 40
1.0
 40
1.0
 10
33.9167379775
 20
5.9836490297
 30
0.0
 10
33.9097702477
 20
5.9278601538
 30
0.0
 10
33.8833280717
 20
5.8219889195
 30
0.0
 10
33.8167466193
 20
5.7058989579
 30
0.0
 10
33.7473483256
 20
5.636523441
 30
0.0
 10
33.6909414617
 20
5.5989490268
 30
0.0
 10
33.6304419943
 20
5.5758739898
 30
0.0
 10
33.5883924007
 20
5.5706398759
 30
0.0
 10
33.5677620189
 20
5.5706398759
 30
0.0
  0
SPLINE
  5
2A2
100
AcDbEntity
  8
0
100
AcDbSpline
 62
7
  6
BYLAYER
 70
0
 71
3
 72
12
 73
8
 74
0
 42
0.0000001
 43
0.0000001
 44
0.0000000001
 40
0.0
 40
0.0
 40
0.0
 40
0.0
 40
0.2817317027
 40
0.5401167278
 40
0.7764536202
 40
0.8892412607
 40
1.0
 40
1.0
 40
1.0
 40
1.0
 10
34.628786209
 20
9.1705821023
 30
0.0
 10
34.613914894
 20
9.134204634
 30
0.0
 10
34.5781424167
 20
9.0670426801
 30
0.0
 10
34.5049262333
 20
8.9856130359
 30
0.0
 10
34.4308855244
 20
8.9410383272
 30
0.0
 10
34.3688460461
 20
8.9235694876
 30
0.0
 10
34.3375889405
 20
8.9206398759
 30
0.0
 10
34.3221387835
 20
8.9206398759
 30
0.0
  0
SPLINE
  5
2A3
100
AcDbEntity
  8
0
100
AcDbSpline
 62
7
  6
BYLAYER
 70
0
 71
3
 72
9
 73
5
 74
0
 42
0.0000001
 43
0.0000001
 44
0.0000000001
 40
0.0
 40
0.0
 40
0.0
 40
0.0
 40
0.243278941
 40
1.0
 40
1.0
 40
1.0
 40
1.0
 10
35.0302824772
 20
10.1527772127
 30
0.0
 10
35.0378516897
 20
10.1712953907
 30
0.0
 10
35.0650109007
 20
10.2489974968
 30
0.0
 10
35.0768840828
 20
10.3318288164
 30
0.0
 10
35.0776529883
 20
10.3940510094
 30
0.0
  0
LINE
  5
2A4
100
AcDbEntity
  8
0
100
AcDbLine
 62
7
  6
BYLAYER
 10
34.628786209
 20
9.1705821023
 11
35.0302824772
 21
10.1527772127
  0
LINE
  5
2A5
100
AcDbEntity
  8
0
100
AcDbLine
 62
7
  6
BYLAYER
 10
33.9167379775
 20
5.9836490297
 11
34.2835166468
 21
8.9206398759
  0
LINE
  5
2A6
100
AcDbEntity
  8
0
100
AcDbLine
 62
7
  6
BYLAYER
 10
34.9463557308
 20
5.983815787
 11
35.3148969722
 21
8.9206398759
  0
SPLINE
  5
2A7
100
AcDbEntity
  8
0
100
AcDbSpline
 62
7
  6
BYLAYER
 70
0
 71
3
 72
13
 73
9
 74
0
 42
0.0000001
 43
0.0000001
 44
0.0000000001
 40
0.0
 40
0.0
 40
0.0
 40
0.0
 40
0.2873512054
 40
0.5508418367
 40
0.6718641929
 40
0.7858732948
 40
0.8945137053
 40
1.0
 40
1.0
 40
1.0
 40
1.0
 10
34.9463557308
 20
5.983815787
 30
0.0
 10
34.9393346922
 20
5.927888639
 30
0.0
 10
34.9127466804
 20
5.8217787019
 30
0.0
 10
34.8456194365
 20
5.7056386885
 30
0.0
 10
34.7758241105
 20
5.6363962534
 30
0.0
 10
34.7191827008
 20
5.5989130926
 30
0.0
 10
34.6584923935
 20
5.5758825247
 30
0.0
 10
34.6163248459
 20
5.5706398759
 30
0.0
 10
34.595632904
 20
5.5706398759
 30
0.0
  0
SPLINE
  5
2A8
100
AcDbEntity
  8
0
100
AcDbSpline
 62
7
  6
BYLAYER
 70
0
 71
3
 72
13
 73
9
 74
0
 42
0.0000001
 43
0.0000001
 44
0.0000000001
 40
0.0
 40
0.0
 40
0.0
 40
0.0
 40
0.1054869723
 40
0.2141282166
 40
0.328136856
 40
0.4491581316
 40
0.7126468478
 40
1.0
 40
1.0
 40
1.0
 40
1.0
 10
21.841783088
 20
5.5706398759
 30
0.0
 10
21.8210910134
 20
5.5706398759
 30
0.0
 10
21.7789232312
 20
5.5758829339
 30
0.0
 10
21.7182326079
 20
5.5989132179
 30
0.0
 10
21.6615915083
 20
5.6363966355
 30
0.0
 10
21.5917965506
 20
5.7056384314
 30
0.0
 10
21.5246696509
 20
5.8217784107
 30
0.0
 10
21.4980813473
 20
5.9278882606
 30
0.0
 10
21.4910602611
 20
5.983815787
 30
0.0
  0
LINE
  5
2A9
100
AcDbEntity
  8
0
100
AcDbLine
 62
7
  6
BYLAYER
 10
21.1225190198
 20
8.9206398759
 11
21.4910602611
 21
5.983815787
  0
SPLINE
  5
2AA
100
AcDbEntity
  8
0
100
AcDbSpline
 62
7
  6
BYLAYER
 70
0
 71
3
 72
13
 73
9
 74
0
 42
0.0000001
 43
0.0000001
 44
0.0000000001
 40
0.0
 40
0.0
 40
0.0
 40
0.0
 40
0.1054162659
 40
0.2140069466
 40
0.3280324548
 40
0.4491240346
 40
0.712717878
 40
1.0
 40
1.0
 40
1.0
 40
1.0
 10
34.2748687639
 20
5.5706398759
 30
0.0
 10
34.295499153
 20
5.5706398759
 30
0.0
 10
34.3375487659
 20
5.5758740154
 30
0.0
 10
34.39804827
 20
5.5989490389
 30
0.0
 10
34.4544551474
 20
5.6365234801
 30
0.0
 10
34.5238534314
 20
5.7058990017
 30
0.0
 10
34.5904348511
 20
5.8219889272
 30
0.0
 10
34.6168770238
 20
5.9278601133
 30
0.0
 10
34.6238447491
 20
5.9836489531
 30
0.0
  0
LINE
  5
2AB
100
AcDbEntity
  8
0
100
AcDbLine
 62
7
  6
BYLAYER
 10
33.9006834098
 20
8.9206398759
 11
33.5321421685
 21
5.983815787
  0
SPLINE
  5
2AC
100
AcDbEntity
  8
0
100
AcDbSpline
 62
7
  6
BYLAYER
 70
0
 71
3
 72
13
 73
9
 74
0
 42
0.0000001
 43
0.0000001
 44
0.0000000001
 40
0.0
 40
0.0
 40
0.0
 40
0.0
 40
0.2872373424
 40
0.5508870705
 40
0.6719300102
 40
0.7860335432
 40
0.8947077323
 40
1.0
 40
1.0
 40
1.0
 40
1.0
 10
34.3465785193
 20
6.2685454226
 30
0.0
 10
34.342409001
 20
6.235104203
 30
0.0
 10
34.3266398569
 20
6.1716215771
 30
0.0
 10
34.2868247321
 20
6.1019648339
 30
0.0
 10
34.2452568954
 20
6.0603275603
 30
0.0
 10
34.2114754876
 20
6.0377236243
 30
0.0
 10
34.175221048
 20
6.0238453973
 30
0.0
 10
34.1500226727
 20
6.0206398759
 30
0.0
 10
34.1376692472
 20
6.0206398759
 30
0.0
  0
LINE
  5
2AD
100
AcDbEntity
  8
0
100
AcDbLine
 62
7
  6
BYLAYER
 10
22.9052738235
 20
5.983815787
 11
22.5367325821
 21
8.9206398759
  0
SPLINE
  5
2AE
100
AcDbEntity
  8
0
100
AcDbSpline
 62
7
  6
BYLAYER
 70
0
 71
3
 72
13
 73
9
 74
0
 42
0.0000001
 43
0.0000001
 44
0.0000000001
 40
0.0
 40
0.0
 40
0.0
 40
0.0
 40
0.2874033106
 40
0.5507991206
 40
0.6717795137
 40
0.7857828752
 40
0.8944573436
 40
1.0
 40
1.0
 40
1.0
 40
1.0
 10
24.4431432932
 20
8.5074639647
 30
0.0
 10
24.436071495
 20
8.5634898877
 30
0.0
 10
24.409271821
 20
8.6697467781
 30
0.0
 10
24.3417057438
 20
8.7858804858
 30
0.0
 10
24.2716172088
 20
8.8550171705
 30
0.0
 10
24.2147974821
 20
8.8924252399
 30
0.0
 10
24.1539596614
 20
8.9154061396
 30
0.0
 10
24.1117054569
 20
8.9206398759
 30
0.0
 10
24.0909678955
 20
8.9206398759
 30
0.0
  0
SPLINE
  5
2AF
100
AcDbEntity
  8
0
100
AcDbSpline
 62
7
  6
BYLAYER
 70
0
 71
3
 72
13
 73
9
 74
0
 42
0.0000001
 43
0.0000001
 44
0.0000000001
 40
0.0
 40
0.0
 40
0.0
 40
0.0
 40
0.1055954589
 40
0.2142795942
 40
0.3282449667
 40
0.449165842
 40
0.7124981279
 40
1.0
 40
1.0
 40
1.0
 40
1.0
 10
25.115609125
 20
5.5706398759
 30
0.0
 10
25.0948208696
 20
5.5706398759
 30
0.0
 10
25.0524740551
 20
5.5758294496
 30
0.0
 10
24.9914507452
 20
5.5986764676
 30
0.0
 10
24.9344059965
 20
5.6359497597
 30
0.0
 10
24.863978148
 20
5.7049730166
 30
0.0
 10
24.7960189679
 20
5.8211991066
 30
0.0
 10
24.7690846946
 20
5.9276634388
 30
0.0
 10
24.7619832704
 20
5.9838157871
 30
0.0
  0
SPLINE
  5
2B0
100
AcDbEntity
  8
0
100
AcDbSpline
 62
7
  6
BYLAYER
 70
0
 71
3
 72
13
 73
9
 74
0
 42
0.0000001
 43
0.0000001
 44
0.0000000001
 40
0.0
 40
0.0
 40
0.0
 40
0.0
 40
0.2873512054
 40
0.5508418367
 40
0.6718641929
 40
0.7858732948
 40
0.8945137053
 40
1.0
 40
1.0
 40
1.0
 40
1.0
 10
22.9052738235
 20
5.983815787
 30
0.0
 10
22.9122948622
 20
5.927888639
 30
0.0
 10
22.9388828739
 20
5.8217787019
 30
0.0
 10
23.0060101179
 20
5.7056386885
 30
0.0
 10
23.0758054438
 20
5.6363962534
 30
0.0
 10
23.1324468535
 20
5.5989130926
 30
0.0
 10
23.1931371608
 20
5.5758825247
 30
0.0
 10
23.2353047084
 20
5.5706398759
 30
0.0
 10
23.2559966503
 20
5.5706398759
 30
0.0
  0
SPLINE
  5
2B1
100
AcDbEntity
  8
0
100
AcDbSpline
 62
7
  6
BYLAYER
 70
0
 71
3
 72
13
 73
9
 74
0
 42
0.0000001
 43
0.0000001
 44
0.0000000001
 40
0.0
 40
0.0
 40
0.0
 40
0.0
 40
0.1054869723
 40
0.2141282166
 40
0.328136856
 40
0.4491581316
 40
0.7126468478
 40
1.0
 40
1.0
 40
1.0
 40
1.0
 10
33.1814193416
 20
5.5706398759
 30
0.0
 10
33.2021114162
 20
5.5706398759
 30
0.0
 10
33.2442791984
 20
5.5758829339
 30
0.0
 10
33.3049698217
 20
5.5989132179
 30
0.0
 10
33.3616109213
 20
5.6363966355
 30
0.0
 10
33.431405879
 20
5.7056384314
 30
0.0
 10
33.4985327787
 20
5.8217784107
 30
0.0
 10
33.5251210823
 20
5.9278882606
 30
0.0
 10
33.5321421685
 20
5.983815787
 30
0.0
  0
SPLINE
  5
2B2
100
AcDbEntity
  8
0
100
AcDbSpline
 62
7
  6
BYLAYER
 70
0
 71
3
 72
13
 73
9
 74
0
 42
0.0000001
 43
0.0000001
 44
0.0000000001
 40
0.0
 40
0.0
 40
0.0
 40
0.0
 40
0.2875002892
 40
0.5508344458
 40
0.6717563247
 40
0.7857220342
 40
0.894405236
 40
1.0
 40
1.0
 40
1.0
 40
1.0
 10
31.6754327215
 20
5.9838157871
 30
0.0
 10
31.6683313364
 20
5.9276637475
 30
0.0
 10
31.6413972888
 20
5.8211992868
 30
0.0
 10
31.573437767
 20
5.704973086
 30
0.0
 10
31.5030094775
 20
5.635949333
 30
0.0
 10
31.4459644989
 20
5.5986762976
 30
0.0
 10
31.3849415418
 20
5.5758290164
 30
0.0
 10
31.3425949857
 20
5.5706398759
 30
0.0
 10
31.321806867
 20
5.5706398759
 30
0.0
  0
SPLINE
  5
2B3
100
AcDbEntity
  8
0
100
AcDbSpline
 62
7
  6
BYLAYER
 70
0
 71
3
 72
13
 73
9
 74
0
 42
0.0000001
 43
0.0000001
 44
0.0000000001
 40
0.0
 40
0.0
 40
0.0
 40
0.0
 40
0.1055432913
 40
0.2142184192
 40
0.3282210968
 40
0.4492002238
 40
0.7125938762
 40
1.0
 40
1.0
 40
1.0
 40
1.0
 10
32.3464480964
 20
8.9206398759
 30
0.0
 10
32.3257104089
 20
8.9206398759
 30
0.0
 10
32.2834560035
 20
8.9154057635
 30
0.0
 10
32.2226179521
 20
8.8924251505
 30
0.0
 10
32.1657986109
 20
8.855016914
 30
0.0
 10
32.0957104748
 20
8.7858810291
 30
0.0
 10
32.0281442921
 20
8.6697474744
 30
0.0
 10
32.0013445666
 20
8.5634904401
 30
0.0
 10
31.9942726987
 20
8.5074639647
 30
0.0
  0
LINE
  5
2B4
100
AcDbEntity
  8
0
100
AcDbLine
 62
7
  6
BYLAYER
 10
24.4431432932
 20
8.5074639647
 11
24.7619832704
 21
5.9838157871
  0
LINE
  5
2B5
100
AcDbEntity
  8
0
100
AcDbLine
 62
7
  6
BYLAYER
 10
31.6754327215
 20
5.9838157871
 11
31.9942726987
 21
8.5074639647
  0
SPLINE
  5
2B6
100
AcDbEntity
  8
0
100
AcDbSpline
 62
7
  6
BYLAYER
 70
0
 71
3
 72
10
 73
6
 74
0
 42
0.0000001
 43
0.0000001
 44
0.0000000001
 40
0.0
 40
0.0
 40
0.0
 40
0.0
 40
0.4714125728
 40
0.730729701
 40
1.0
 40
1.0
 40
1.0
 40
1.0
 10
34.795418242
 20
9.2156833979
 30
0.0
 10
34.7646830888
 20
9.187945838
 30
0.0
 10
34.7272148102
 20
9.1331833395
 30
0.0
 10
34.6969186322
 20
9.0506514524
 30
0.0
 10
34.6877505838
 20
9.0048830995
 30
0.0
 10
34.6848247509
 20
8.9814167381
 30
0.0
  0
SPLINE
  5
2B7
100
AcDbEntity
  8
0
100
AcDbSpline
 62
7
  6
BYLAYER
 70
0
 71
3
 72
12
 73
8
 74
0
 42
0.0000001
 43
0.0000001
 44
0.0000000001
 40
0.0
 40
0.0
 40
0.0
 40
0.0
 40
0.2675871925
 40
0.3977234544
 40
0.5248917893
 40
0.7693284568
 40
1.0
 40
1.0
 40
1.0
 40
1.0
 10
35.4190643457
 20
10.3448417667
 30
0.0
 10
35.3921545918
 20
10.2312977429
 30
0.0
 10
35.3415950836
 20
10.0647099697
 30
0.0
 10
35.2530987574
 20
9.8534592255
 30
0.0
 10
35.1544892627
 20
9.6579606161
 30
0.0
 10
35.0108072686
 20
9.4368569374
 30
0.0
 10
34.8700952202
 20
9.2830771451
 30
0.0
 10
34.795418242
 20
9.2156833979
 30
0.0
  0
SPLINE
  5
2B8
100
AcDbEntity
  8
0
100
AcDbSpline
 62
7
  6
BYLAYER
 70
0
 71
3
 72
9
 73
5
 74
0
 42
0.0000001
 43
0.0000001
 44
0.0000000001
 40
0.0
 40
0.0
 40
0.0
 40
0.0
 40
0.2522497709
 40
1.0
 40
1.0
 40
1.0
 40
1.0
 10
35.4808309613
 20
10.8524149233
 30
0.0
 10
35.4802997562
 20
10.809376559
 30
0.0
 10
35.4735882607
 20
10.6388545337
 30
0.0
 10
35.4484877893
 20
10.4689921473
 30
0.0
 10
35.4190643457
 20
10.3448417667
 30
0.0
  0
SPLINE
  5
2B9
100
AcDbEntity
  8
0
100
AcDbSpline
 62
7
  6
BYLAYER
 70
0
 71
3
 72
9
 73
5
 74
0
 42
0.0000001
 43
0.0000001
 44
0.0000000001
 40
0.0
 40
0.0
 40
0.0
 40
0.0
 40
0.2559025221
 40
1.0
 40
1.0
 40
1.0
 40
1.0
 10
35.7847597695
 20
10.3940510094
 30
0.0
 10
35.7844997751
 20
10.3730114675
 30
0.0
 10
35.7798213775
 20
10.2909098618
 30
0.0
 10
35.7605380451
 20
10.2094110242
 30
0.0
 10
35.7373892584
 20
10.1527772127
 30
0.0
  0
SPLINE
  5
2BA
100
AcDbEntity
  8
0
100
AcDbSpline
 62
7
  6
BYLAYER
 70
0
 71
3
 72
11
 73
7
 74
0
 42
0.0000001
 43
0.0000001
 44
0.0000000001
 40
0.0
 40
0.0
 40
0.0
 40
0.0
 40
0.2309312181
 40
0.5015547093
 40
0.7713682594
 40
1.0
 40
1.0
 40
1.0
 40
1.0
 10
34.3465785193
 20
6.2685454226
 30
0.0
 10
34.3307078724
 20
6.2725029907
 30
0.0
 10
34.2958304664
 20
6.2794336485
 30
0.0
 10
34.2417629824
 20
6.2873946745
 30
0.0
 10
34.1875485668
 20
6.2928380668
 30
0.0
 10
34.1522516394
 20
6.2945926492
 30
0.0
 10
34.1360578661
 20
6.2945926492
 30
0.0
  0
SPLINE
  5
2BB
100
AcDbEntity
  8
0
100
AcDbSpline
 62
7
  6
BYLAYER
 70
0
 71
3
 72
13
 73
9
 74
0
 42
0.0000001
 43
0.0000001
 44
0.0000000001
 40
0.0
 40
0.0
 40
0.0
 40
0.0
 40
0.1032552214
 40
0.2106492466
 40
0.3245468651
 40
0.4464150668
 40
0.7129424449
 40
1.0
 40
1.0
 40
1.0
 40
1.0
 10
34.03160323
 20
6.1706398759
 30
0.0
 10
34.0385535789
 20
6.1706398759
 30
0.0
 10
34.0527976662
 20
6.1685870591
 30
0.0
 10
34.0730449233
 20
6.1597919495
 30
0.0
 10
34.0915151797
 20
6.1455780807
 30
0.0
 10
34.11354337
 20
6.119660182
 30
0.0
 10
34.1326364421
 20
6.0774136143
 30
0.0
 10
34.1376692472
 20
6.0399623869
 30
0.0
 10
34.1376692472
 20
6.0206398759
 30
0.0
  0
SPLINE
  5
2BC
100
AcDbEntity
  8
0
100
AcDbSpline
 62
7
  6
BYLAYER
 70
0
 71
3
 72
12
 73
8
 74
0
 42
0.0000001
 43
0.0000001
 44
0.0000000001
 40
0.0
 40
0.0
 40
0.0
 40
0.0
 40
0.2875508071
 40
0.5515187942
 40
0.7858023867
 40
0.8945922416
 40
1.0
 40
1.0
 40
1.0
 40
1.0
 10
34.1360578661
 20
6.2945926492
 30
0.0
 10
34.1339731975
 20
6.277872766
 30
0.0
 10
34.1260511143
 20
6.2461014517
 30
0.0
 10
34.1029535277
 20
6.2055350622
 30
0.0
 10
34.0751273339
 20
6.1817090638
 30
0.0
 10
34.0503790096
 20
6.1722425383
 30
0.0
 10
34.0377797086
 20
6.1706398759
 30
0.0
 10
34.03160323
 20
6.1706398759
 30
0.0
  0
SPLINE
  5
2BD
100
AcDbEntity
  8
0
100
AcDbSpline
 62
7
  6
BYLAYER
 70
0
 71
3
 72
10
 73
6
 74
0
 42
0.0000001
 43
0.0000001
 44
0.0000000001
 40
0.0
 40
0.0
 40
0.0
 40
0.0
 40
0.2472548451
 40
0.504853442
 40
1.0
 40
1.0
 40
1.0
 40
1.0
 10
34.795418242
 20
9.2156833979
 30
0.0
 10
34.7901306688
 20
9.2274013986
 30
0.0
 10
34.776998891
 20
9.2503344516
 30
0.0
 10
34.7442017966
 20
9.2907796014
 30
0.0
 10
34.7125258521
 20
9.3154832779
 30
0.0
 10
34.689487433
 20
9.3269730563
 30
0.0
  0
SPLINE
  5
2BE
100
AcDbEntity
  8
0
100
AcDbSpline
 62
7
  6
BYLAYER
 70
0
 71
3
 72
11
 73
7
 74
0
 42
0.0000001
 43
0.0000001
 44
0.0000000001
 40
0.0
 40
0.0
 40
0.0
 40
0.0
 40
0.2523485872
 40
0.5211815908
 40
0.7794263195
 40
1.0
 40
1.0
 40
1.0
 40
1.0
 10
34.5063487056
 20
9.0065195783
 30
0.0
 10
34.5215051649
 20
9.0057126611
 30
0.0
 10
34.5527637574
 20
9.0031908958
 30
0.0
 10
34.5993186968
 20
8.9975860783
 30
0.0
 10
34.6437297359
 20
8.9904666678
 30
0.0
 10
34.6719521699
 20
8.9846266964
 30
0.0
 10
34.6848247509
 20
8.9814167381
 30
0.0
  0
SPLINE
  5
2BF
100
AcDbEntity
  8
0
100
AcDbSpline
 62
7
  6
BYLAYER
 70
0
 71
3
 72
11
 73
7
 74
0
 42
0.0000001
 43
0.0000001
 44
0.0000000001
 40
0.0
 40
0.0
 40
0.0
 40
0.0
 40
0.2344725031
 40
0.5051587988
 40
0.7731434148
 40
1.0
 40
1.0
 40
1.0
 40
1.0
 10
35.4190643457
 20
10.3448417667
 30
0.0
 10
35.4040022274
 20
10.351981163
 30
0.0
 10
35.3702914695
 20
10.3646679434
 30
0.0
 10
35.3172542218
 20
10.3792922571
 30
0.0
 10
35.2637117285
 20
10.3892999114
 30
0.0
 10
35.2285577843
 20
10.3925104995
 30
0.0
 10
35.2124307097
 20
10.3925104995
 30
0.0
  0
SPLINE
  5
2C0
100
AcDbEntity
  8
0
100
AcDbSpline
 62
7
  6
BYLAYER
 70
0
 71
3
 72
9
 73
5
 74
0
 42
0.0000001
 43
0.0000001
 44
0.0000000001
 40
0.0
 40
0.0
 40
0.0
 40
0.0
 40
0.5157394799
 40
1.0
 40
1.0
 40
1.0
 40
1.0
 10
35.1304152904
 20
10.1168958447
 30
0.0
 10
35.0870351951
 20
9.996993755
 30
0.0
 10
34.9843321726
 20
9.7706611535
 30
0.0
 10
34.8419643959
 20
9.5662948563
 30
0.0
 10
34.7633756047
 20
9.475973159
 30
0.0
  0
SPLINE
  5
2C1
100
AcDbEntity
  8
0
100
AcDbSpline
 62
7
  6
BYLAYER
 70
0
 71
3
 72
9
 73
5
 74
0
 42
0.0000001
 43
0.0000001
 44
0.0000000001
 40
0.0
 40
0.0
 40
0.0
 40
0.0
 40
0.5000157701
 40
1.0
 40
1.0
 40
1.0
 40
1.0
 10
35.4808309613
 20
10.8524149233
 30
0.0
 10
35.4454848129
 20
10.8532874496
 30
0.0
 10
35.3747799043
 20
10.854371889
 30
0.0
 10
35.3040697671
 20
10.8550327842
 30
0.0
 10
35.2687150813
 20
10.8550327842
 30
0.0
  0
SPLINE
  5
2C2
100
AcDbEntity
  8
0
100
AcDbSpline
 62
7
  6
BYLAYER
 70
0
 71
3
 72
9
 73
5
 74
0
 42
0.0000001
 43
0.0000001
 44
0.0000000001
 40
0.0
 40
0.0
 40
0.0
 40
0.0
 40
0.2522497865
 40
1.0
 40
1.0
 40
1.0
 40
1.0
 10
35.2687150813
 20
10.8550327842
 30
0.0
 10
35.2682310246
 20
10.8158143902
 30
0.0
 10
35.2621153606
 20
10.6604274477
 30
0.0
 10
35.2392426048
 20
10.5056416146
 30
0.0
 10
35.2124307097
 20
10.3925104995
 30
0.0
  0
LINE
  5
2C3
100
AcDbEntity
  8
0
100
AcDbLine
 62
7
  6
BYLAYER
 10
34.990623428
 20
8.9206398759
 11
34.6238447491
 21
5.9836489531
  0
LINE
  5
2C4
100
AcDbEntity
  8
0
100
AcDbLine
 62
7
  6
BYLAYER
 10
35.7373892584
 20
10.1527772127
 11
35.3358929902
 21
9.1705821024
  0
SPLINE
  5
2C5
100
AcDbEntity
  8
0
100
AcDbSpline
 62
7
  6
BYLAYER
 70
0
 71
3
 72
12
 73
8
 74
0
 42
0.0000001
 43
0.0000001
 44
0.0000000001
 40
0.0
 40
0.0
 40
0.0
 40
0.0
 40
0.1107587393
 40
0.2235463798
 40
0.4598832722
 40
0.7182682973
 40
1.0
 40
1.0
 40
1.0
 40
1.0
 10
35.0292455647
 20
8.9206398759
 30
0.0
 10
35.0446957217
 20
8.9206398759
 30
0.0
 10
35.0759528273
 20
8.9235694876
 30
0.0
 10
35.1379923056
 20
8.9410383272
 30
0.0
 10
35.2120330145
 20
8.9856130359
 30
0.0
 10
35.2852491979
 20
9.0670426801
 30
0.0
 10
35.3210216752
 20
9.134204634
 30
0.0
 10
35.3358929902
 20
9.1705821024
 30
0.0
  0
ENDSEC
  0
SECTION
  2
OBJECTS
  0
DICTIONARY
  5
C
100
AcDbDictionary
280
0
281
1
  3
ACAD_GROUP
350
D
  3
ACAD_MLINESTYLE
350
17
  3
ACAD_LAYOUT
350
1A
  3
ACAD_PLOTSETTINGS
350
19
  3
ACAD_PLOTSTYLENAME
350
E
  0
DICTIONARY
  5
D
102
{ACAD_REACTORS
330
C
102
}
100
AcDbDictionary
280
0
281
1
  0
ACDBDICTIONARYWDFLT
  5
E
102
{ACAD_REACTORS
330
C
102
}
100
AcDbDictionary
281
1
  3
Normal
350
F
100
AcDbDictionaryWithDefault
340
F
  0
DICTIONARY
  5
17
102
{ACAD_REACTORS
330
C
102
}
100
AcDbDictionary
280
0
281
1
  3
Standard
350
18
  0
DICTIONARY
  5
19
102
{ACAD_REACTORS
330
C
102
}
100
AcDbDictionary
281
1
  0
DICTIONARY
  5
1A
102
{ACAD_REACTORS
330
C
102
}
100
AcDbDictionary
281
1
  3
Model
350
2C6
  3
Layout1
350
2C7
  0
ACDBPLACEHOLDER
  5
F
102
{ACAD_REACTORS
330
E
102
}
  0
MLINESTYLE
  5
18
102
{ACAD_REACTORS
330
17
102
}
100
AcDbMlineStyle
  2
STANDARD
 70
0
  3

 62
256
 51
90.0
 52
90.0
 71
2
 49
0.5
 62
256
  6
BYLAYER
 49
-0.5
 62
256
  6
BYLAYER
  0
LAYOUT
  5
2C6
102
{ACAD_REACTORS
330
1A
102
}
100
AcDbPlotSettings
  1

  2
none_device
  4

  6

 40
0.0
 41
0.0
 42
0.0
 43
0.0
 44
210.0
 45
297.0
 46
0.0
 47
0.0
 48
0.0
 49
0.0
140
0.0
141
0.0
142
1.0
143
1.0
 70
1024
 72
1
 73
0
 74
0
  7

 75
0
147
1.0
148
0.0
149
0.0
100
AcDbLayout
  1
Model
 70
0
 71
0
 10
0.0
 20
0.0
 11
210.0
 21
297.0
 12
0.0
 22
0.0
 32
0.0
 14
0.0
 24
0.0
 34
0.0
 15
0.0
 25
0.0
 35
0.0
146
0.0
 13
0.0
 23
0.0
 33
0.0
 16
1.0
 26
0.0
 36
0.0
 17
0.0
 27
1.0
 37
0.0
 76
0
330
210
345
0
346
0
  0
LAYOUT
  5
2C7
102
{ACAD_REACTORS
330
1A
102
}
100
AcDbPlotSettings
  1

  2
none_device
  4

  6

 40
0.0
 41
0.0
 42
0.0
 43
0.0
 44
210.0
 45
297.0
 46
0.0
 47
0.0
 48
0.0
 49
0.0
140
0.0
141
0.0
142
1.0
143
1.0
 70
0
 72
1
 73
0
 74
0
  7

 75
0
147
1.0
148
0.0
149
0.0
100
AcDbLayout
  1
Layout1
 70
0
 71
1
 10
0.0
 20
0.0
 11
210.0
 21
297.0
 12
0.0
 22
0.0
 32
0.0
 14
0.0
 24
0.0
 34
0.0
 15
0.0
 25
0.0
 35
0.0
146
0.0
 13
0.0
 23
0.0
 33
0.0
 16
1.0
 26
0.0
 36
0.0
 17
0.0
 27
1.0
 37
0.0
 76
0
330
211
345
0
346
0
  0
ENDSEC
  0
EOF
