999
DXF file: C:\Users\sesa63760\Dev\_Creo\CAD\MCADID0004747_3D-CAD\drw0001_7.dxf
999
Pro/ENGINEER 2019471 by Parametric Technology Corporation
  0
SECTION
  2
HEADER
  9
$ACADVER
  1
AC1024
  9
$DWGCODEPAGE
  3
ANSI_1252
  9
$EXTMAX
 10
44.6080245686
 20
63.0884918899
 30
0.0
  9
$EXTMIN
 10
0.0
 20
0.0
 30
0.0
  9
$LIMMIN
 10
0.0
 20
0.0
  9
$LIMMAX
 10
44.6080245686
 20
63.0884918899
  9
$VIEWCTR
 10
22.3040122843
 20
31.544245945
  9
$VIEWSIZE
 40
63.0884918899
  9
$CLAYER
  8
0
  9
$LTSCALE
 40
4.1124350269
  9
$CELTYPE
  6
BYLAYER
  9
$DIMSCALE
 40
1.0
  9
$DIMASZ
 40
0.5310479115
  9
$DIMEXO
 40
1.0
  9
$DIMDLI
 40
2.8413187459
  9
$DIMEXE
 40
1.0
  9
$DIMCEN
 40
0.6729439135
  9
$DIMLFAC
 40
1.0
  9
$DIMBLK
  1
_FILLED
  9
$DIMALT
 70
0
  9
$DIMALTF
 40
0.0393700787
  9
$DIMTXT
 40
0.7434670761
  9
$DIMTOL
 70
1
  9
$DIMLIM
 70
0
  9
$DIMTFAC
 40
1.0
  9
$DIMTP
 40
0.01
  9
$DIMTM
 40
0.01
  9
$DIMGAP
 40
0.625
  9
$DIMDSEP
 70
46
  9
$AUNITS
 70
0
  9
$PDMODE
 70
3
  9
$PDSIZE
 40
0.3125
  9
$HANDSEED
  5
2BF
  9
$TILEMODE
 70
1
  9
$MEASUREMENT
 70
1
  9
$INSUNITS
 70
4
  0
ENDSEC
  0
SECTION
  2
CLASSES
  0
CLASS
  1
ACDBDICTIONARYWDFLT
  2
AcDbDictionaryWithDefault
  3
AutoCAD 2000
 90
0
 91
1
280
0
281
0
  0
CLASS
  1
ACDBPLACEHOLDER
  2
AcDbPlaceHolder
  3
AutoCAD 2000
 90
0
 91
1
280
0
281
0
  0
CLASS
  1
LAYOUT
  2
AcDbLayout
  3
AutoCAD 2000
 90
0
 91
0
280
0
281
0
  0
ENDSEC
  0
SECTION
  2
TABLES
  0
TABLE
  2
VPORT
  5
8
100
AcDbSymbolTable
 70
2
  0
VPORT
  5
1F4
100
AcDbSymbolTableRecord
100
AcDbViewportTableRecord
  2
*ACTIVE
 70
0
 10
0.0
 20
0.0
 11
1.0
 21
1.0
 12
22.3040122843
 22
31.544245945
 13
0.0
 23
0.0
 14
1.0
 24
1.0
 15
0.0
 25
0.0
 16
0.0
 26
0.0
 36
1.0
 17
0.0
 27
0.0
 37
0.0
 40
63.0884918899
 41
0.7070707071
 42
50.0
 43
0.0
 44
0.0
 50
0.0
 51
0.0
 71
0
 72
100
 73
1
 74
1
 75
0
 76
0
 77
0
 78
0
  0
ENDTAB
  0
TABLE
  2
LTYPE
  5
5
100
AcDbSymbolTable
 70
6
  0
LTYPE
  5
14
100
AcDbSymbolTableRecord
100
AcDbLinetypeTableRecord
  2
BYBLOCK
 70
0
  3

 72
65
 73
0
 40
0.0
  0
LTYPE
  5
15
100
AcDbSymbolTableRecord
100
AcDbLinetypeTableRecord
  2
BYLAYER
 70
0
  3

 72
65
 73
0
 40
0.0
  0
LTYPE
  5
16
100
AcDbSymbolTableRecord
100
AcDbLinetypeTableRecord
  2
CONTINUOUS
 70
64
  3
Solid line
 72
65
 73
0
 40
0.0
  0
LTYPE
  5
1F5
100
AcDbSymbolTableRecord
100
AcDbLinetypeTableRecord
  2
CENTER
 70
64
  3
____ _ ____ _ ____ _ ____ _ ____ _ ____ _ ____
 72
65
 73
4
 40
0.6
 49
0.375
 74
0
 49
-0.075
 74
0
 49
0.075
 74
0
 49
-0.075
 74
0
  0
LTYPE
  5
1F6
100
AcDbSymbolTableRecord
100
AcDbLinetypeTableRecord
  2
HIDDEN
 70
64
  3
- - - - - - - - - - - - - - - - - - - -
 72
65
 73
2
 40
0.2
 49
0.1
 74
0
 49
-0.1
 74
0
  0
LTYPE
  5
1F7
100
AcDbSymbolTableRecord
100
AcDbLinetypeTableRecord
  2
PHANTOM
 70
64
  3
_____ _ _ _____ _ _ _____ _ _ _____
 72
65
 73
6
 40
0.8
 49
0.45
 74
0
 49
-0.05
 74
0
 49
0.1
 74
0
 49
-0.05
 74
0
 49
0.1
 74
0
 49
-0.05
 74
0
  0
LTYPE
  5
1F8
100
AcDbSymbolTableRecord
100
AcDbLinetypeTableRecord
  2
DOT
 70
64
  3
. . . . . . . . . . . . . . . . . . . .
 72
65
 73
2
 40
0.2
 49
0.1
 74
0
 49
-0.1
 74
0
  0
LTYPE
  5
1F9
100
AcDbSymbolTableRecord
100
AcDbLinetypeTableRecord
  2
DASHED
 70
64
  3
- - - - - - - - - - - - - - - - - - - -
 72
65
 73
2
 40
0.2
 49
0.1
 74
0
 49
-0.1
 74
0
  0
ENDTAB
  0
TABLE
  2
LAYER
  5
2
100
AcDbSymbolTable
 70
36
  0
LAYER
  5
10
100
AcDbSymbolTableRecord
100
AcDbLayerTableRecord
  2
0
 70
0
 62
7
  6
CONTINUOUS
370
-3
390
F
  0
LAYER
  5
1FA
100
AcDbSymbolTableRecord
100
AcDbLayerTableRecord
  2
DEFAULT_1
 70
0
 62
7
  6
CENTER
370
-3
390
F
  0
LAYER
  5
1FB
100
AcDbSymbolTableRecord
100
AcDbLayerTableRecord
  2
DEFAULT_2
 70
0
 62
7
  6
HIDDEN
370
-3
390
F
  0
LAYER
  5
1FC
100
AcDbSymbolTableRecord
100
AcDbLayerTableRecord
  2
DEFAULT_3
 70
0
 62
7
  6
PHANTOM
370
-3
390
F
  0
LAYER
  5
1FD
100
AcDbSymbolTableRecord
100
AcDbLayerTableRecord
  2
00_COMPONENTS
 70
0
 62
7
  6
CONTINUOUS
370
-3
390
F
  0
LAYER
  5
1FE
100
AcDbSymbolTableRecord
100
AcDbLayerTableRecord
  2
01_1_DEFAULT_DATUMS
 70
0
 62
7
  6
CONTINUOUS
370
-3
390
F
  0
LAYER
  5
1FF
100
AcDbSymbolTableRecord
100
AcDbLayerTableRecord
  2
01_PLANES
 70
0
 62
7
  6
CONTINUOUS
370
-3
390
F
  0
LAYER
  5
200
100
AcDbSymbolTableRecord
100
AcDbLayerTableRecord
  2
02_COORD_SYS
 70
0
 62
7
  6
CONTINUOUS
370
-3
390
F
  0
LAYER
  5
201
100
AcDbSymbolTableRecord
100
AcDbLayerTableRecord
  2
03_AXES
 70
0
 62
7
  6
CONTINUOUS
370
-3
390
F
  0
LAYER
  5
202
100
AcDbSymbolTableRecord
100
AcDbLayerTableRecord
  2
04_POINTS
 70
0
 62
7
  6
CONTINUOUS
370
-3
390
F
  0
LAYER
  5
203
100
AcDbSymbolTableRecord
100
AcDbLayerTableRecord
  2
05_CURVES
 70
0
 62
7
  6
CONTINUOUS
370
-3
390
F
  0
LAYER
  5
204
100
AcDbSymbolTableRecord
100
AcDbLayerTableRecord
  2
06_SURFS
 70
0
 62
7
  6
CONTINUOUS
370
-3
390
F
  0
LAYER
  5
205
100
AcDbSymbolTableRecord
100
AcDbLayerTableRecord
  2
07_COSMETICS
 70
0
 62
7
  6
CONTINUOUS
370
-3
390
F
  0
LAYER
  5
206
100
AcDbSymbolTableRecord
100
AcDbLayerTableRecord
  2
10_NOTES
 70
0
 62
7
  6
CONTINUOUS
370
-3
390
F
  0
LAYER
  5
207
100
AcDbSymbolTableRecord
100
AcDbLayerTableRecord
  2
11_NOTES_PUB
 70
0
 62
7
  6
CONTINUOUS
370
-3
390
F
  0
LAYER
  5
208
100
AcDbSymbolTableRecord
100
AcDbLayerTableRecord
  2
13_REF_GTOL
 70
0
 62
7
  6
CONTINUOUS
370
-3
390
F
  0
LAYER
  5
209
100
AcDbSymbolTableRecord
100
AcDbLayerTableRecord
  2
16_MISC
 70
0
 62
7
  6
CONTINUOUS
370
-3
390
F
  0
LAYER
  5
20A
100
AcDbSymbolTableRecord
100
AcDbLayerTableRecord
  2
17_NO_PRINT
 70
0
 62
7
  6
CONTINUOUS
370
-3
390
F
  0
LAYER
  5
20B
100
AcDbSymbolTableRecord
100
AcDbLayerTableRecord
  2
18_DATUM_CAMS_JOINTS
 70
0
 62
7
  6
CONTINUOUS
370
-3
390
F
  0
LAYER
  5
20C
100
AcDbSymbolTableRecord
100
AcDbLayerTableRecord
  2
19_DATUM_FUNCTIONAL
 70
0
 62
7
  6
CONTINUOUS
370
-3
390
F
  0
LAYER
  5
20D
100
AcDbSymbolTableRecord
100
AcDbLayerTableRecord
  2
20_DATUM_KINEMATIC_SCHEME
 70
0
 62
7
  6
CONTINUOUS
370
-3
390
F
  0
ENDTAB
  0
TABLE
  2
STYLE
  5
3
100
AcDbSymbolTable
 70
1
  0
STYLE
  5
11
100
AcDbSymbolTableRecord
100
AcDbTextStyleTableRecord
  2
STANDARD
 70
0
 40
0.0
 41
1.0
 50
0.0
 71
0
 42
0.2
  3
ARIAL.TTF
  4

  0
STYLE
  5
20E
100
AcDbSymbolTableRecord
100
AcDbTextStyleTableRecord
  2
TEXTSTYLE_1
 70
0
 40
0.0
 41
0.8
 50
0.0
 71
0
 42
0.2
  3
gdt
  4

  0
ENDTAB
  0
TABLE
  2
VIEW
  5
6
100
AcDbSymbolTable
 70
0
  0
ENDTAB
  0
TABLE
  2
UCS
  5
7
100
AcDbSymbolTable
 70
0
  0
ENDTAB
  0
TABLE
  2
APPID
  5
9
100
AcDbSymbolTable
 70
1
  0
APPID
  5
20F
100
AcDbSymbolTableRecord
100
AcDbRegAppTableRecord
  2
ACAD
 70
0
  0
ENDTAB
  0
TABLE
  2
BLOCK_RECORD
  5
1
100
AcDbSymbolTable
 70
0
  0
BLOCK_RECORD
  5
210
100
AcDbSymbolTableRecord
100
AcDbBlockTableRecord
  2
*Model_Space
  0
BLOCK_RECORD
  5
211
100
AcDbSymbolTableRecord
100
AcDbBlockTableRecord
  2
*Paper_Space
  0
BLOCK_RECORD
  5
212
100
AcDbSymbolTableRecord
100
AcDbBlockTableRecord
  2
_FILLED
  0
ENDTAB
  0
TABLE
  2
DIMSTYLE
  5
A
100
AcDbSymbolTable
 70
1
100
AcDbDimStyleTable
 71
0
  0
DIMSTYLE
105
213
100
AcDbSymbolTableRecord
100
AcDbDimStyleTableRecord
  2
STANDARD
 70
0
  3

  4

 40
1.0
 41
0.5310479115
 42
1.0
 43
0.38
 44
1.0
 45
0.0
 46
0.0
 47
0.01
 48
0.01
140
0.7434670761
141
0.09
142
0.0
143
25.4
144
1.0
145
0.0
146
1.0
147
0.625
 71
1
 72
0
 73
0
 74
0
 75
0
 76
0
 77
1
 78
8
 79
2
170
0
171
1
172
0
173
0
174
0
175
0
176
0
177
0
178
0
270
2
179
2
271
2
272
2
273
2
274
2
275
0
280
0
281
0
282
0
283
1
284
8
285
0
286
0
287
3
288
0
340
11
278
46
341
212
342
212
343
212
344
212
  0
ENDTAB
  0
ENDSEC
  0
SECTION
  2
BLOCKS
  0
BLOCK
  5
20
100
AcDbEntity
  8
0
100
AcDbBlockBegin
  2
*Model_Space
 70
0
 10
0.0
 20
0.0
 30
0.0
  3
*Model_Space
  1

  0
ENDBLK
  5
21
100
AcDbEntity
  8
0
100
AcDbBlockEnd
  0
BLOCK
  5
1C
100
AcDbEntity
  8
0
100
AcDbBlockBegin
  2
*Paper_Space
 70
0
 10
0.0
 20
0.0
 30
0.0
  3
*Paper_Space
  1

  0
ENDBLK
  5
1D
100
AcDbEntity
  8
0
100
AcDbBlockEnd
  0
BLOCK
  5
214
100
AcDbEntity
  8
0
100
AcDbBlockBegin
  2
_FILLED
 70
64
 10
0.0
 20
0.0
  3
_FILLED
  1

  0
SOLID
  5
215
100
AcDbEntity
  8
0
  6
BYBLOCK
 62
0
100
AcDbTrace
 10
0.0
 20
0.0
 11
-1.0
 21
0.25
 12
-1.0
 22
-0.25
 13
-1.0
 23
-0.25
  0
ENDBLK
  5
216
100
AcDbEntity
  8
0
  6
BYBLOCK
 62
0
100
AcDbBlockEnd
  0
ENDSEC
  0
SECTION
  2
ENTITIES
  0
LINE
  5
217
100
AcDbEntity
  8
0
100
AcDbLine
 62
7
  6
BYLAYER
 10
4.73578064
 20
25.0986853376
 11
4.73578064
 21
26.5986853376
  0
LINE
  5
218
100
AcDbEntity
  8
0
100
AcDbLine
 62
7
  6
BYLAYER
 10
4.73578064
 20
36.4986853376
 11
4.73578064
 21
37.9986853376
  0
LINE
  5
219
100
AcDbEntity
  8
0
100
AcDbLine
 62
7
  6
BYLAYER
 10
4.7696174378
 20
25.0986853376
 11
4.7696174378
 21
26.5986853376
  0
LINE
  5
21A
100
AcDbEntity
  8
0
100
AcDbLine
 62
7
  6
BYLAYER
 10
4.7696174378
 20
36.4986853376
 11
4.7696174378
 21
37.9986853376
  0
LINE
  5
21B
100
AcDbEntity
  8
0
100
AcDbLine
 62
7
  6
BYLAYER
 10
5.1312352963
 20
37.9986853376
 11
5.1312352963
 21
36.4986853376
  0
LINE
  5
21C
100
AcDbEntity
  8
0
100
AcDbLine
 62
7
  6
BYLAYER
 10
5.1312352963
 20
26.5986853376
 11
5.1312352963
 21
25.0986853376
  0
LINE
  5
21D
100
AcDbEntity
  8
0
100
AcDbLine
 62
7
  6
BYLAYER
 10
5.7782074278
 20
25.0986853376
 11
5.7782074278
 21
26.5986853376
  0
LINE
  5
21E
100
AcDbEntity
  8
0
100
AcDbLine
 62
7
  6
BYLAYER
 10
5.7782074278
 20
36.4986853376
 11
5.7782074278
 21
37.9986853376
  0
LINE
  5
21F
100
AcDbEntity
  8
0
100
AcDbLine
 62
7
  6
BYLAYER
 10
5.8248237481
 20
37.9986853376
 11
5.8248237481
 21
25.0986853376
  0
LINE
  5
220
100
AcDbEntity
  8
0
100
AcDbLine
 62
7
  6
BYLAYER
 10
9.5889829414
 20
23.5486853376
 11
9.3889829414
 21
23.7486853376
  0
LINE
  5
221
100
AcDbEntity
  8
0
100
AcDbLine
 62
7
  6
BYLAYER
 10
8.7177666166
 20
37.9986853376
 11
8.7177666166
 21
25.0986853376
  0
LINE
  5
222
100
AcDbEntity
  8
0
100
AcDbLine
 62
7
  6
BYLAYER
 10
9.3889829414
 20
23.7486853376
 11
9.3889829414
 21
23.8486853376
  0
LINE
  5
223
100
AcDbEntity
  8
0
100
AcDbLine
 62
7
  6
BYLAYER
 10
9.6389829414
 20
39.8486853376
 11
9.6389829414
 21
39.2486853376
  0
LINE
  5
224
100
AcDbEntity
  8
0
100
AcDbLine
 62
7
  6
BYLAYER
 10
9.650093021
 20
25.0986853376
 11
9.650093021
 21
37.9986853376
  0
LINE
  5
225
100
AcDbEntity
  8
0
100
AcDbLine
 62
7
  6
BYLAYER
 10
10.1162562232
 20
39.2486853376
 11
10.1162562232
 21
38.2486853376
  0
LINE
  5
226
100
AcDbEntity
  8
0
100
AcDbLine
 62
7
  6
BYLAYER
 10
10.1162562232
 20
24.8486853376
 11
10.1162562232
 21
23.8486853376
  0
LINE
  5
227
100
AcDbEntity
  8
0
100
AcDbLine
 62
7
  6
BYLAYER
 10
10.5688017088
 20
37.5486853376
 11
10.5688017088
 21
25.5486853376
  0
LINE
  5
228
100
AcDbEntity
  8
0
100
AcDbLine
 62
7
  6
BYLAYER
 10
14.0188017088
 20
23.5486853376
 11
13.8188017088
 21
23.7486853376
  0
LINE
  5
229
100
AcDbEntity
  8
0
100
AcDbLine
 62
7
  6
BYLAYER
 10
11.6389829414
 20
39.8486853376
 11
11.6389829414
 21
39.2486853376
  0
LINE
  5
22A
100
AcDbEntity
  8
0
100
AcDbLine
 62
7
  6
BYLAYER
 10
11.8889829414
 20
23.7486853376
 11
11.8889829414
 21
23.8486853376
  0
LINE
  5
22B
100
AcDbEntity
  8
0
100
AcDbLine
 62
7
  6
BYLAYER
 10
11.8889829414
 20
24.8486853376
 11
11.8889829414
 21
25.0986853376
  0
LINE
  5
22C
100
AcDbEntity
  8
0
100
AcDbLine
 62
7
  6
BYLAYER
 10
11.8889829414
 20
37.9986853376
 11
11.8889829414
 21
38.2486853376
  0
LINE
  5
22D
100
AcDbEntity
  8
0
100
AcDbLine
 62
7
  6
BYLAYER
 10
12.5688017088
 20
38.0486853376
 11
12.5688017088
 21
37.5486853376
  0
LINE
  5
22E
100
AcDbEntity
  8
0
100
AcDbLine
 62
7
  6
BYLAYER
 10
12.5688017088
 20
25.0486853376
 11
12.5688017088
 21
25.5486853376
  0
LINE
  5
22F
100
AcDbEntity
  8
0
100
AcDbLine
 62
7
  6
BYLAYER
 10
12.7379856978
 20
39.2486853376
 11
12.7379856978
 21
38.2486853376
  0
LINE
  5
230
100
AcDbEntity
  8
0
100
AcDbLine
 62
7
  6
BYLAYER
 10
12.7379856978
 20
24.8486853376
 11
12.7379856978
 21
23.8486853376
  0
LINE
  5
231
100
AcDbEntity
  8
0
100
AcDbLine
 62
7
  6
BYLAYER
 10
13.8188017088
 20
23.7486853376
 11
13.8188017088
 21
23.8486853376
  0
LINE
  5
232
100
AcDbEntity
  8
0
100
AcDbLine
 62
7
  6
BYLAYER
 10
13.8188017088
 20
24.8486853376
 11
13.8188017088
 21
25.0486853376
  0
LINE
  5
233
100
AcDbEntity
  8
0
100
AcDbLine
 62
7
  6
BYLAYER
 10
13.8188017088
 20
38.0486853376
 11
13.8188017088
 21
38.2486853376
  0
LINE
  5
234
100
AcDbEntity
  8
0
100
AcDbLine
 62
7
  6
BYLAYER
 10
14.0688017088
 20
39.8486853376
 11
14.0688017088
 21
39.2486853376
  0
LINE
  5
235
100
AcDbEntity
  8
0
100
AcDbLine
 62
7
  6
BYLAYER
 10
16.1187685085
 20
23.5486853376
 11
14.0188349091
 21
23.5486853376
  0
LINE
  5
236
100
AcDbEntity
  8
0
100
AcDbLine
 62
7
  6
BYLAYER
 10
11.6889497411
 20
23.5486853376
 11
9.5890161417
 21
23.5486853376
  0
LINE
  5
237
100
AcDbEntity
  8
0
100
AcDbLine
 62
7
  6
BYLAYER
 10
16.3188017088
 20
23.7486853376
 11
13.8188017088
 21
23.7486853376
  0
LINE
  5
238
100
AcDbEntity
  8
0
100
AcDbLine
 62
7
  6
BYLAYER
 10
11.8889829414
 20
23.7486853376
 11
9.3889829414
 21
23.7486853376
  0
LINE
  5
239
100
AcDbEntity
  8
0
100
AcDbLine
 62
7
  6
BYLAYER
 10
6.9902317536
 20
23.8486853376
 11
17.5688011382
 21
23.8486853376
  0
LINE
  5
23A
100
AcDbEntity
  8
0
100
AcDbLine
 62
7
  6
BYLAYER
 10
16.0688017088
 20
39.8486853376
 11
16.0688017088
 21
39.2486853376
  0
LINE
  5
23B
100
AcDbEntity
  8
0
100
AcDbLine
 62
7
  6
BYLAYER
 10
40.0259325888
 20
24.7986853376
 11
38.0259325888
 21
24.7986853376
  0
LINE
  5
23C
100
AcDbEntity
  8
0
100
AcDbLine
 62
7
  6
BYLAYER
 10
36.375923852
 20
24.7986853376
 11
34.2759413255
 21
24.7986853376
  0
LINE
  5
23D
100
AcDbEntity
  8
0
100
AcDbLine
 62
7
  6
BYLAYER
 10
9.8831746221
 20
24.8486853376
 11
17.5688000124
 21
24.8486853376
  0
LINE
  5
23E
100
AcDbEntity
  8
0
100
AcDbLine
 62
7
  6
BYLAYER
 10
36.5759325888
 20
24.9986853376
 11
34.0759325888
 21
24.9986853376
  0
LINE
  5
23F
100
AcDbEntity
  8
0
100
AcDbLine
 62
7
  6
BYLAYER
 10
17.5687652936
 20
25.0486853376
 11
12.568838124
 21
25.0486853376
  0
LINE
  5
240
100
AcDbEntity
  8
0
100
AcDbLine
 62
7
  6
BYLAYER
 10
12.5688017088
 20
25.0986853376
 11
9.650093021
 21
25.0986853376
  0
LINE
  5
241
100
AcDbEntity
  8
0
100
AcDbLine
 62
7
  6
BYLAYER
 10
4.7358059029
 20
25.0986853376
 11
8.7177666166
 21
25.0986853376
  0
LINE
  5
242
100
AcDbEntity
  8
0
100
AcDbLine
 62
7
  6
BYLAYER
 10
17.5688017088
 20
25.0986853376
 11
38.0259325888
 21
25.0986853376
  0
LINE
  5
243
100
AcDbEntity
  8
0
100
AcDbLine
 62
7
  6
BYLAYER
 10
16.3188017088
 20
23.7486853376
 11
16.3188017088
 21
23.8486853376
  0
LINE
  5
244
100
AcDbEntity
  8
0
100
AcDbLine
 62
7
  6
BYLAYER
 10
16.3188017088
 20
24.8486853376
 11
16.3188017088
 21
25.0486853376
  0
LINE
  5
245
100
AcDbEntity
  8
0
100
AcDbLine
 62
7
  6
BYLAYER
 10
16.3188017088
 20
38.0486853376
 11
16.3188017088
 21
38.2486853376
  0
LINE
  5
246
100
AcDbEntity
  8
0
100
AcDbLine
 62
7
  6
BYLAYER
 10
19.5687350381
 20
25.5486853376
 11
10.5688683795
 21
25.5486853376
  0
LINE
  5
247
100
AcDbEntity
  8
0
100
AcDbLine
 62
7
  6
BYLAYER
 10
32.4497644531
 20
26.5986853376
 11
23.8222101139
 21
26.5986853376
  0
LINE
  5
248
100
AcDbEntity
  8
0
100
AcDbLine
 62
7
  6
BYLAYER
 10
4.7358060714
 20
26.5986853376
 11
5.8248237481
 21
26.5986853376
  0
LINE
  5
249
100
AcDbEntity
  8
0
100
AcDbLine
 62
7
  6
BYLAYER
 10
9.650093021
 20
26.5986853376
 11
10.5688017088
 21
26.5986853376
  0
LINE
  5
24A
100
AcDbEntity
  8
0
100
AcDbLine
 62
7
  6
BYLAYER
 10
17.5688017088
 20
39.2486853376
 11
17.5688017088
 21
38.2486853376
  0
LINE
  5
24B
100
AcDbEntity
  8
0
100
AcDbLine
 62
7
  6
BYLAYER
 10
17.5688017088
 20
38.0486853376
 11
17.5688017088
 21
37.5486853376
  0
LINE
  5
24C
100
AcDbEntity
  8
0
100
AcDbLine
 62
7
  6
BYLAYER
 10
17.5688017088
 20
24.8486853376
 11
17.5688017088
 21
23.8486853376
  0
LINE
  5
24D
100
AcDbEntity
  8
0
100
AcDbLine
 62
7
  6
BYLAYER
 10
17.5688017088
 20
25.0486853376
 11
17.5688017088
 21
25.5486853376
  0
LINE
  5
24E
100
AcDbEntity
  8
0
100
AcDbLine
 62
7
  6
BYLAYER
 10
29.9496238008
 20
26.7986853376
 11
32.5938521101
 21
26.7986853376
  0
LINE
  5
24F
100
AcDbEntity
  8
0
100
AcDbLine
 62
7
  6
BYLAYER
 10
38.6737259563
 20
27.0986853376
 11
33.1730001702
 21
27.0986853376
  0
LINE
  5
250
100
AcDbEntity
  8
0
100
AcDbLine
 62
7
  6
BYLAYER
 10
23.8497361261
 20
27.0986853376
 11
19.5688017088
 21
27.0986853376
  0
LINE
  5
251
100
AcDbEntity
  8
0
100
AcDbLine
 62
7
  6
BYLAYER
 10
32.6305733824
 20
27.2986853376
 11
30.0889204728
 21
27.2986853376
  0
LINE
  5
252
100
AcDbEntity
  8
0
100
AcDbLine
 62
7
  6
BYLAYER
 10
29.2055361359
 20
27.2986853376
 11
29.5007487752
 21
27.2986853376
  0
LINE
  5
253
100
AcDbEntity
  8
0
100
AcDbLine
 62
7
  6
BYLAYER
 10
19.5688017088
 20
37.5486853376
 11
19.5688017088
 21
25.5486853376
  0
LINE
  5
254
100
AcDbEntity
  8
0
100
AcDbLine
 62
7
  6
BYLAYER
 10
30.5134325888
 20
27.9986853376
 11
32.6305733824
 21
27.9986853376
  0
LINE
  5
255
100
AcDbEntity
  8
0
100
AcDbLine
 62
7
  6
BYLAYER
 10
32.6305733824
 20
28.4986853376
 11
29.5007487752
 21
28.4986853376
  0
LINE
  5
256
100
AcDbEntity
  8
0
100
AcDbLine
 62
7
  6
BYLAYER
 10
11.6889829414
 20
23.5486853376
 11
11.8889829414
 21
23.7486853376
  0
LINE
  5
257
100
AcDbEntity
  8
0
100
AcDbLine
 62
7
  6
BYLAYER
 10
23.8497361261
 20
29.2986853376
 11
27.2345959836
 21
29.2986853376
  0
LINE
  5
258
100
AcDbEntity
  8
0
100
AcDbLine
 62
7
  6
BYLAYER
 10
23.0259325888
 20
25.0986853376
 11
23.0259325888
 21
24.0486853376
  0
LINE
  5
259
100
AcDbEntity
  8
0
100
AcDbLine
 62
7
  6
BYLAYER
 10
23.0259325888
 20
37.9986853376
 11
23.0259325888
 21
39.0485418665
  0
LINE
  5
25A
100
AcDbEntity
  8
0
100
AcDbLine
 62
7
  6
BYLAYER
 10
23.8497361261
 20
35.9986853376
 11
23.8497361261
 21
33.7986853376
  0
LINE
  5
25B
100
AcDbEntity
  8
0
100
AcDbLine
 62
7
  6
BYLAYER
 10
23.8497361261
 20
29.2986853376
 11
23.8497361261
 21
27.0986853376
  0
LINE
  5
25C
100
AcDbEntity
  8
0
100
AcDbLine
 62
7
  6
BYLAYER
 10
16.1188017088
 20
23.5486853376
 11
16.3188017088
 21
23.7486853376
  0
LINE
  5
25D
100
AcDbEntity
  8
0
100
AcDbLine
 62
7
  6
BYLAYER
 10
24.2414025049
 20
33.7986853376
 11
24.2414025049
 21
29.2986853376
  0
LINE
  5
25E
100
AcDbEntity
  8
0
100
AcDbLine
 62
7
  6
BYLAYER
 10
23.8497361261
 20
33.7986853376
 11
27.2345959836
 21
33.7986853376
  0
LINE
  5
25F
100
AcDbEntity
  8
0
100
AcDbLine
 62
7
  6
BYLAYER
 10
25.5181667878
 20
29.2986853376
 11
25.5181667878
 21
33.7986853376
  0
LINE
  5
260
100
AcDbEntity
  8
0
100
AcDbLine
 62
7
  6
BYLAYER
 10
25.5490529097
 20
29.2986853376
 11
25.5490529097
 21
33.7986853376
  0
LINE
  5
261
100
AcDbEntity
  8
0
100
AcDbLine
 62
7
  6
BYLAYER
 10
29.5007487752
 20
34.5986853376
 11
32.6305733824
 21
34.5986853376
  0
LINE
  5
262
100
AcDbEntity
  8
0
100
AcDbLine
 62
7
  6
BYLAYER
 10
32.6305733824
 20
35.0986853376
 11
30.5134325888
 21
35.0986853376
  0
LINE
  5
263
100
AcDbEntity
  8
0
100
AcDbLine
 62
7
  6
BYLAYER
 10
34.2759325888
 20
24.7986853376
 11
34.0759325888
 21
24.9986853376
  0
LINE
  5
264
100
AcDbEntity
  8
0
100
AcDbLine
 62
7
  6
BYLAYER
 10
27.7344864007
 20
33.2986853376
 11
27.7344864007
 21
29.7986853376
  0
LINE
  5
265
100
AcDbEntity
  8
0
100
AcDbLine
 62
7
  6
BYLAYER
 10
29.2055456384
 20
35.7986853376
 11
29.5007487752
 21
35.7986853376
  0
LINE
  5
266
100
AcDbEntity
  8
0
100
AcDbLine
 62
7
  6
BYLAYER
 10
30.0889204728
 20
35.7986853376
 11
32.6305733824
 21
35.7986853376
  0
LINE
  5
267
100
AcDbEntity
  8
0
100
AcDbLine
 62
7
  6
BYLAYER
 10
19.5688017088
 20
35.9986853376
 11
23.8497361261
 21
35.9986853376
  0
LINE
  5
268
100
AcDbEntity
  8
0
100
AcDbLine
 62
7
  6
BYLAYER
 10
33.1730001702
 20
35.9986853376
 11
38.6737259563
 21
35.9986853376
  0
LINE
  5
269
100
AcDbEntity
  8
0
100
AcDbLine
 62
7
  6
BYLAYER
 10
29.9496238008
 20
36.2986853376
 11
32.5938500366
 21
36.2986853376
  0
LINE
  5
26A
100
AcDbEntity
  8
0
100
AcDbLine
 62
7
  6
BYLAYER
 10
10.5688017088
 20
36.4986853376
 11
9.650093021
 21
36.4986853376
  0
LINE
  5
26B
100
AcDbEntity
  8
0
100
AcDbLine
 62
7
  6
BYLAYER
 10
4.7358059029
 20
36.4986853376
 11
5.8248237481
 21
36.4986853376
  0
LINE
  5
26C
100
AcDbEntity
  8
0
100
AcDbLine
 62
7
  6
BYLAYER
 10
23.8222101139
 20
36.4986853376
 11
32.4497644531
 21
36.4986853376
  0
LINE
  5
26D
100
AcDbEntity
  8
0
100
AcDbLine
 62
7
  6
BYLAYER
 10
29.9885244956
 20
36.2986853376
 11
29.8099929471
 21
35.7496680094
  0
LINE
  5
26E
100
AcDbEntity
  8
0
100
AcDbLine
 62
7
  6
BYLAYER
 10
10.5688761519
 20
37.5486853376
 11
19.5687272657
 21
37.5486853376
  0
LINE
  5
26F
100
AcDbEntity
  8
0
100
AcDbLine
 62
7
  6
BYLAYER
 10
4.7358060714
 20
37.9986853376
 11
8.7177666166
 21
37.9986853376
  0
LINE
  5
270
100
AcDbEntity
  8
0
100
AcDbLine
 62
7
  6
BYLAYER
 10
9.650093021
 20
37.9986853376
 11
12.5688017088
 21
37.9986853376
  0
LINE
  5
271
100
AcDbEntity
  8
0
100
AcDbLine
 62
7
  6
BYLAYER
 10
17.5688017088
 20
37.9986853376
 11
38.0259325888
 21
37.9986853376
  0
LINE
  5
272
100
AcDbEntity
  8
0
100
AcDbLine
 62
7
  6
BYLAYER
 10
12.568825634
 20
38.0486853376
 11
17.5687777836
 21
38.0486853376
  0
LINE
  5
273
100
AcDbEntity
  8
0
100
AcDbLine
 62
7
  6
BYLAYER
 10
9.8831746221
 20
38.2486853376
 11
17.5688011382
 21
38.2486853376
  0
LINE
  5
274
100
AcDbEntity
  8
0
100
AcDbLine
 62
7
  6
BYLAYER
 10
38.0259325888
 20
38.2986853376
 11
40.0259325888
 21
38.2986853376
  0
LINE
  5
275
100
AcDbEntity
  8
0
100
AcDbLine
 62
7
  6
BYLAYER
 10
29.9885244956
 20
26.7986853376
 11
29.8099929471
 21
27.3477026657
  0
LINE
  5
276
100
AcDbEntity
  8
0
100
AcDbLine
 62
7
  6
BYLAYER
 10
29.5007487752
 20
35.7986853376
 11
29.5007487752
 21
34.5986853376
  0
LINE
  5
277
100
AcDbEntity
  8
0
100
AcDbLine
 62
7
  6
BYLAYER
 10
29.5007487752
 20
28.4986853376
 11
29.5007487752
 21
27.2986853376
  0
LINE
  5
278
100
AcDbEntity
  8
0
100
AcDbLine
 62
7
  6
BYLAYER
 10
30.0889204728
 20
27.2986853376
 11
30.0889204728
 21
28.1053889732
  0
LINE
  5
279
100
AcDbEntity
  8
0
100
AcDbLine
 62
7
  6
BYLAYER
 10
30.0889204728
 20
34.991981702
 11
30.0889204728
 21
35.7986853376
  0
LINE
  5
27A
100
AcDbEntity
  8
0
100
AcDbLine
 62
7
  6
BYLAYER
 10
34.3259448204
 20
38.5986853376
 11
36.3259203571
 21
38.5986853376
  0
LINE
  5
27B
100
AcDbEntity
  8
0
100
AcDbLine
 62
7
  6
BYLAYER
 10
6.9902317536
 20
39.2486853376
 11
17.5688000124
 21
39.2486853376
  0
LINE
  5
27C
100
AcDbEntity
  8
0
100
AcDbLine
 62
7
  6
BYLAYER
 10
9.6390205735
 20
39.8486853376
 11
11.6389453093
 21
39.8486853376
  0
LINE
  5
27D
100
AcDbEntity
  8
0
100
AcDbLine
 62
7
  6
BYLAYER
 10
14.0688393408
 20
39.8486853376
 11
16.0687640767
 21
39.8486853376
  0
LINE
  5
27E
100
AcDbEntity
  8
0
100
AcDbLine
 62
7
  6
BYLAYER
 10
32.4497644531
 20
26.5986853376
 11
32.4497644531
 21
25.0986853376
  0
LINE
  5
27F
100
AcDbEntity
  8
0
100
AcDbLine
 62
7
  6
BYLAYER
 10
32.4497644531
 20
36.4986853376
 11
32.4497644531
 21
37.9986853376
  0
LINE
  5
280
100
AcDbEntity
  8
0
100
AcDbLine
 62
7
  6
BYLAYER
 10
32.6305733824
 20
35.9986853376
 11
32.6305733824
 21
27.0986853376
  0
LINE
  5
281
100
AcDbEntity
  8
0
100
AcDbLine
 62
7
  6
BYLAYER
 10
33.1730001702
 20
27.0986853376
 11
33.1730001702
 21
35.9986853376
  0
LINE
  5
282
100
AcDbEntity
  8
0
100
AcDbLine
 62
7
  6
BYLAYER
 10
34.0759325888
 20
24.9986853376
 11
34.0759325888
 21
25.0986853376
  0
LINE
  5
283
100
AcDbEntity
  8
0
100
AcDbLine
 62
7
  6
BYLAYER
 10
34.3259325888
 20
38.5986853376
 11
34.3259325888
 21
37.9986853376
  0
LINE
  5
284
100
AcDbEntity
  8
0
100
AcDbLine
 62
7
  6
BYLAYER
 10
36.3259325888
 20
38.5986853376
 11
36.3259325888
 21
37.9986853376
  0
LINE
  5
285
100
AcDbEntity
  8
0
100
AcDbLine
 62
7
  6
BYLAYER
 10
36.5759325888
 20
24.9986853376
 11
36.5759325888
 21
25.0986853376
  0
LINE
  5
286
100
AcDbEntity
  8
0
100
AcDbLine
 62
7
  6
BYLAYER
 10
38.0259325888
 20
24.7986853376
 11
38.0259325888
 21
25.0986853376
  0
LINE
  5
287
100
AcDbEntity
  8
0
100
AcDbLine
 62
7
  6
BYLAYER
 10
38.0259325888
 20
37.9986853376
 11
38.0259325888
 21
38.2986853376
  0
LINE
  5
288
100
AcDbEntity
  8
0
100
AcDbLine
 62
7
  6
BYLAYER
 10
36.3759325888
 20
24.7986853376
 11
36.5759325888
 21
24.9986853376
  0
LINE
  5
289
100
AcDbEntity
  8
0
100
AcDbLine
 62
7
  6
BYLAYER
 10
38.6737259563
 20
35.9986853376
 11
38.6737259563
 21
27.0986853376
  0
LINE
  5
28A
100
AcDbEntity
  8
0
100
AcDbLine
 62
7
  6
BYLAYER
 10
39.5259325888
 20
38.2986853376
 11
39.5259325888
 21
24.7986853376
  0
LINE
  5
28B
100
AcDbEntity
  8
0
100
AcDbLine
 62
7
  6
BYLAYER
 10
40.0259325888
 20
24.7986853376
 11
40.0259325888
 21
38.2986853376
  0
ARC
  5
28C
100
AcDbEntity
  8
0
100
AcDbCircle
 62
7
  6
BYLAYER
 10
-1.2600063611
 20
51.8104235153
 40
34.4169379536
100
AcDbArc
 50
332.2749930371
 51
333.3979147221
  0
ARC
  5
28D
100
AcDbEntity
  8
0
100
AcDbCircle
 62
7
  6
BYLAYER
 10
-0.7837707724
 20
11.5313125726
 40
33.8816827039
100
AcDbArc
 50
26.593222239
 51
27.7338916635
  0
ARC
  5
28E
100
AcDbEntity
  8
0
100
AcDbCircle
 62
7
  6
BYLAYER
 10
23.0259325888
 20
31.5486853376
 40
8.0
100
AcDbArc
 50
54.1075587672
 51
125.660460199
  0
ARC
  5
28F
100
AcDbEntity
  8
0
100
AcDbCircle
 62
7
  6
BYLAYER
 10
23.0259325888
 20
31.5486853376
 40
8.0
100
AcDbArc
 50
234.3395447188
 51
305.8924406923
  0
ARC
  5
290
100
AcDbEntity
  8
0
100
AcDbCircle
 62
7
  6
BYLAYER
 10
23.0259325888
 20
31.5486853376
 40
8.0
100
AcDbArc
 50
357.1340160174
 51
2.8659839826
  0
ARC
  5
291
100
AcDbEntity
  8
0
100
AcDbCircle
 62
7
  6
BYLAYER
 10
23.0259325888
 20
31.5486853376
 40
7.5
100
AcDbArc
 50
270.0
 51
301.6980882431
  0
ARC
  5
292
100
AcDbEntity
  8
0
100
AcDbCircle
 62
7
  6
BYLAYER
 10
23.0259325888
 20
31.5486853376
 40
7.5
100
AcDbArc
 50
315.9129051659
 51
325.4818921589
  0
ARC
  5
293
100
AcDbEntity
  8
0
100
AcDbCircle
 62
7
  6
BYLAYER
 10
23.0259325888
 20
31.5486853376
 40
7.5
100
AcDbArc
 50
34.5181078411
 51
44.0870948341
  0
ARC
  5
294
100
AcDbEntity
  8
0
100
AcDbCircle
 62
7
  6
BYLAYER
 10
23.0259325888
 20
31.5486853376
 40
7.5
100
AcDbArc
 50
58.3019117569
 51
90.0
  0
ARC
  5
295
100
AcDbEntity
  8
0
100
AcDbCircle
 62
7
  6
BYLAYER
 10
23.0212467048
 20
31.5607369063
 40
7.4878300653
100
AcDbArc
 50
89.9641441863
 51
119.9513968903
  0
ARC
  5
296
100
AcDbEntity
  8
0
100
AcDbCircle
 62
7
  6
BYLAYER
 10
23.0212464856
 20
31.5366333041
 40
7.4878297535
100
AcDbArc
 50
240.0486001732
 51
270.0358574921
  0
ARC
  5
297
100
AcDbEntity
  8
0
100
AcDbCircle
 62
7
  6
BYLAYER
 10
23.0259325888
 20
31.5486853376
 40
3.565
100
AcDbArc
 50
37.3073374284
 51
72.1616980353
  0
ARC
  5
298
100
AcDbEntity
  8
0
100
AcDbCircle
 62
7
  6
BYLAYER
 10
23.0259325888
 20
31.5486853376
 40
3.565
100
AcDbArc
 50
287.8420359989
 51
322.7173416729
  0
ARC
  5
299
100
AcDbEntity
  8
0
100
AcDbCircle
 62
7
  6
BYLAYER
 10
23.0259325888
 20
31.5486853376
 40
3.5
100
AcDbArc
 50
283.7025850965
 51
319.5565120075
  0
ARC
  5
29A
100
AcDbEntity
  8
0
100
AcDbCircle
 62
7
  6
BYLAYER
 10
23.0259325888
 20
31.5486853376
 40
3.5
100
AcDbArc
 50
40.4864090102
 51
76.2850882357
  0
ARC
  5
29B
100
AcDbEntity
  8
0
100
AcDbCircle
 62
7
  6
BYLAYER
 10
23.0259325888
 20
31.5486853376
 40
3.3333157626
100
AcDbArc
 50
284.3544823503
 51
317.3870735649
  0
ARC
  5
29C
100
AcDbEntity
  8
0
100
AcDbCircle
 62
7
  6
BYLAYER
 10
23.0259325888
 20
31.5486853376
 40
3.3333157626
100
AcDbArc
 50
42.5581969502
 51
75.6431649406
  0
ARC
  5
29D
100
AcDbEntity
  8
0
100
AcDbCircle
 62
7
  6
BYLAYER
 10
33.0134247665
 20
32.0486853376
 40
2.0
100
AcDbArc
 50
101.2871408444
 51
182.8659839826
  0
ARC
  5
29E
100
AcDbEntity
  8
0
100
AcDbCircle
 62
7
  6
BYLAYER
 10
33.0134247665
 20
31.0486853376
 40
2.0
100
AcDbArc
 50
177.1340160174
 51
258.7127722164
  0
ARC
  5
29F
100
AcDbEntity
  8
0
100
AcDbCircle
 62
7
  6
BYLAYER
 10
29.9496238008
 20
37.2986853376
 40
1.0
100
AcDbArc
 50
233.2567153278
 51
270.0
  0
ARC
  5
2A0
100
AcDbEntity
  8
0
100
AcDbCircle
 62
7
  6
BYLAYER
 10
29.9496238008
 20
25.7986853376
 40
1.0
100
AcDbArc
 50
90.0
 51
126.7459247867
  0
ARC
  5
2A1
100
AcDbEntity
  8
0
100
AcDbCircle
 62
7
  6
BYLAYER
 10
27.2345269317
 20
29.7986321736
 40
0.4999452574
100
AcDbArc
 50
270.0079136018
 51
0.0060926405
  0
ARC
  5
2A2
100
AcDbEntity
  8
0
100
AcDbCircle
 62
7
  6
BYLAYER
 10
27.234527043
 20
33.2987384695
 40
0.4999452127
100
AcDbArc
 50
359.9939110342
 51
89.9920991434
  0
SPLINE
  5
2A3
100
AcDbEntity
  8
0
100
AcDbSpline
 62
7
  6
BYLAYER
 70
0
 71
3
 72
18
 73
14
 74
0
 42
0.0000001
 43
0.0000001
 44
0.0000000001
 40
0.0
 40
0.0
 40
0.0
 40
0.0
 40
0.1291892542
 40
0.1936826148
 40
0.2579126552
 40
0.3852898007
 40
0.511121528
 40
0.5734721945
 40
0.6354006599
 40
0.6969266909
 40
0.7580795975
 40
0.8793905759
 40
1.0
 40
1.0
 40
1.0
 40
1.0
 10
5.8248237481
 20
37.9986853376
 30
0.0
 10
5.8248237481
 20
38.0803086527
 30
0.0
 10
5.836080955
 20
38.2030668256
 30
0.0
 10
5.8731564705
 20
38.3619168537
 30
0.0
 10
5.9243925004
 20
38.5156192113
 30
0.0
 10
6.0142037499
 20
38.6963450207
 30
0.0
 10
6.1359864293
 20
38.8558854103
 30
0.0
 10
6.2494082219
 20
38.9662315183
 30
0.0
 10
6.3414230249
 20
39.0394560185
 30
0.0
 10
6.4396833619
 20
39.1026785114
 30
0.0
 10
6.577333148
 20
39.1725849991
 30
0.0
 10
6.7607272849
 20
39.2324648809
 30
0.0
 10
6.9140292776
 20
39.2486853376
 30
0.0
 10
6.9902317536
 20
39.2486853376
 30
0.0
  0
SPLINE
  5
2A4
100
AcDbEntity
  8
0
100
AcDbSpline
 62
7
  6
BYLAYER
 70
0
 71
3
 72
18
 73
14
 74
0
 42
0.0000001
 43
0.0000001
 44
0.0000000001
 40
0.0
 40
0.0
 40
0.0
 40
0.0
 40
0.1206094241
 40
0.2419204025
 40
0.3030733091
 40
0.3645993401
 40
0.4265278055
 40
0.488878472
 40
0.6147101993
 40
0.7420873448
 40
0.8063173852
 40
0.8708107458
 40
1.0
 40
1.0
 40
1.0
 40
1.0
 10
6.9902317536
 20
23.8486853376
 30
0.0
 10
6.9140292776
 20
23.8486853376
 30
0.0
 10
6.7607272849
 20
23.8649057943
 30
0.0
 10
6.577333148
 20
23.924785676
 30
0.0
 10
6.4396833619
 20
23.9946921638
 30
0.0
 10
6.3414230249
 20
24.0579146566
 30
0.0
 10
6.2494082219
 20
24.1311391568
 30
0.0
 10
6.1359864293
 20
24.2414852649
 30
0.0
 10
6.0142037499
 20
24.4010256544
 30
0.0
 10
5.9243925004
 20
24.5817514639
 30
0.0
 10
5.8731564705
 20
24.7354538214
 30
0.0
 10
5.836080955
 20
24.8943038496
 30
0.0
 10
5.8248237481
 20
25.0170620224
 30
0.0
 10
5.8248237481
 20
25.0986853376
 30
0.0
  0
SPLINE
  5
2A5
100
AcDbEntity
  8
0
100
AcDbSpline
 62
7
  6
BYLAYER
 70
0
 71
3
 72
14
 73
10
 74
0
 42
0.0000001
 43
0.0000001
 44
0.0000000001
 40
0.0
 40
0.0
 40
0.0
 40
0.0
 40
0.257107756
 40
0.3846700892
 40
0.5106817714
 40
0.6349898559
 40
0.7576878596
 40
0.8792914482
 40
1.0
 40
1.0
 40
1.0
 40
1.0
 10
9.650093021
 20
37.9986853376
 30
0.0
 10
9.650093021
 20
38.0311236762
 30
0.0
 10
9.6591286024
 20
38.0802834952
 30
0.0
 10
9.6879678339
 20
38.1382055607
 30
0.0
 10
9.7170915456
 20
38.1763505136
 30
0.0
 10
9.7525878266
 20
38.2077107265
 30
0.0
 10
9.793190282
 20
38.2310617753
 30
0.0
 10
9.8372812843
 20
38.2454162519
 30
0.0
 10
9.8679452687
 20
38.2486853376
 30
0.0
 10
9.8831746221
 20
38.2486853376
 30
0.0
  0
SPLINE
  5
2A6
100
AcDbEntity
  8
0
100
AcDbSpline
 62
7
  6
BYLAYER
 70
0
 71
3
 72
14
 73
10
 74
0
 42
0.0000001
 43
0.0000001
 44
0.0000000001
 40
0.0
 40
0.0
 40
0.0
 40
0.0
 40
0.1207086252
 40
0.2423123719
 40
0.3650104511
 40
0.4893185381
 40
0.6153302267
 40
0.7428924889
 40
1.0
 40
1.0
 40
1.0
 40
1.0
 10
9.8831746221
 20
24.8486853376
 30
0.0
 10
9.8679452595
 20
24.8486853376
 30
0.0
 10
9.8372812486
 20
24.8519544468
 30
0.0
 10
9.793190206
 20
24.8663089244
 30
0.0
 10
9.7525877379
 20
24.889660015
 30
0.0
 10
9.7170914633
 20
24.9210202495
 30
0.0
 10
9.6879677738
 20
24.95916521
 30
0.0
 10
9.6591285868
 20
25.0170872531
 30
0.0
 10
9.650093021
 20
25.06624703
 30
0.0
 10
9.650093021
 20
25.0986853376
 30
0.0
  0
SPLINE
  5
2A7
100
AcDbEntity
  8
0
100
AcDbSpline
 62
7
  6
BYLAYER
 70
0
 71
3
 72
18
 73
14
 74
0
 42
0.0000001
 43
0.0000001
 44
0.0000000001
 40
0.0
 40
0.0
 40
0.0
 40
0.0
 40
0.1291892542
 40
0.1936826148
 40
0.2579126552
 40
0.3852898007
 40
0.511121528
 40
0.5734721945
 40
0.6354006599
 40
0.6969266909
 40
0.7580795975
 40
0.8793905759
 40
1.0
 40
1.0
 40
1.0
 40
1.0
 10
8.7177666166
 20
25.0986853376
 30
0.0
 10
8.7177666166
 20
25.0170620224
 30
0.0
 10
8.7290238236
 20
24.8943038496
 30
0.0
 10
8.766099339
 20
24.7354538214
 30
0.0
 10
8.8173353689
 20
24.5817514639
 30
0.0
 10
8.9071466184
 20
24.4010256544
 30
0.0
 10
9.0289292978
 20
24.2414852649
 30
0.0
 10
9.1423510904
 20
24.1311391568
 30
0.0
 10
9.2343658934
 20
24.0579146566
 30
0.0
 10
9.3326262304
 20
23.9946921638
 30
0.0
 10
9.4702760165
 20
23.924785676
 30
0.0
 10
9.6536701534
 20
23.8649057943
 30
0.0
 10
9.8069721461
 20
23.8486853376
 30
0.0
 10
9.8831746221
 20
23.8486853376
 30
0.0
  0
SPLINE
  5
2A8
100
AcDbEntity
  8
0
100
AcDbSpline
 62
7
  6
BYLAYER
 70
0
 71
3
 72
18
 73
14
 74
0
 42
0.0000001
 43
0.0000001
 44
0.0000000001
 40
0.0
 40
0.0
 40
0.0
 40
0.0
 40
0.1206094241
 40
0.2419204025
 40
0.3030733091
 40
0.3645993401
 40
0.4265278055
 40
0.488878472
 40
0.6147101993
 40
0.7420873448
 40
0.8063173852
 40
0.8708107458
 40
1.0
 40
1.0
 40
1.0
 40
1.0
 10
9.8831746221
 20
39.2486853376
 30
0.0
 10
9.8069721461
 20
39.2486853376
 30
0.0
 10
9.6536701534
 20
39.2324648809
 30
0.0
 10
9.4702760165
 20
39.1725849991
 30
0.0
 10
9.3326262304
 20
39.1026785114
 30
0.0
 10
9.2343658934
 20
39.0394560185
 30
0.0
 10
9.1423510904
 20
38.9662315183
 30
0.0
 10
9.0289292978
 20
38.8558854103
 30
0.0
 10
8.9071466184
 20
38.6963450207
 30
0.0
 10
8.8173353689
 20
38.5156192113
 30
0.0
 10
8.766099339
 20
38.3619168537
 30
0.0
 10
8.7290238236
 20
38.2030668256
 30
0.0
 10
8.7177666166
 20
38.0803086527
 30
0.0
 10
8.7177666166
 20
37.9986853376
 30
0.0
  0
SPLINE
  5
2A9
100
AcDbEntity
  8
0
100
AcDbSpline
 62
7
  6
BYLAYER
 70
0
 71
3
 72
8
 73
4
 74
0
 42
0.0000001
 43
0.0000001
 44
0.0000000001
 40
0.0
 40
0.0
 40
0.0
 40
0.0
 40
1.0
 40
1.0
 40
1.0
 40
1.0
 10
23.052201462
 20
23.5487284661
 30
0.0
 10
23.0434503472
 20
23.7153810719
 30
0.0
 10
23.0358811634
 20
23.8821000755
 30
0.0
 10
23.0259301071
 20
24.0486853376
 30
0.0
  0
SPLINE
  5
2AA
100
AcDbEntity
  8
0
100
AcDbSpline
 62
7
  6
BYLAYER
 70
0
 71
3
 72
10
 73
6
 74
0
 42
0.0000001
 43
0.0000001
 44
0.0000000001
 40
0.0
 40
0.0
 40
0.0
 40
0.0
 40
0.3749742251
 40
0.7499656203
 40
1.0
 40
1.0
 40
1.0
 40
1.0
 10
23.052201462
 20
39.5486422091
 30
0.0
 10
23.048953612
 20
39.4861498534
 30
0.0
 10
23.0426655727
 20
39.3611516939
 30
0.0
 10
23.0342738995
 20
39.1944796859
 30
0.0
 10
23.0283958724
 20
39.0903388214
 30
0.0
 10
23.0259301061
 20
39.0486853376
 30
0.0
  0
SPLINE
  5
2AB
100
AcDbEntity
  8
0
100
AcDbSpline
 62
7
  6
BYLAYER
 70
0
 71
3
 72
11
 73
7
 74
0
 42
0.0000001
 43
0.0000001
 44
0.0000000001
 40
0.0
 40
0.0
 40
0.0
 40
0.0
 40
0.2615900699
 40
0.5190996321
 40
0.7674445427
 40
1.0
 40
1.0
 40
1.0
 40
1.0
 10
29.5007487752
 20
28.4986853376
 30
0.0
 10
29.5511393389
 20
28.4630538283
 30
0.0
 10
29.6511353333
 20
28.3923489428
 30
0.0
 10
29.7998221423
 20
28.2890172942
 30
0.0
 10
29.9447325308
 20
28.1923104007
 30
0.0
 10
30.0412730745
 20
28.1325911684
 30
0.0
 10
30.0889204728
 20
28.1053889732
 30
0.0
  0
SPLINE
  5
2AC
100
AcDbEntity
  8
0
100
AcDbSpline
 62
7
  6
BYLAYER
 70
0
 71
3
 72
11
 73
7
 74
0
 42
0.0000001
 43
0.0000001
 44
0.0000000001
 40
0.0
 40
0.0
 40
0.0
 40
0.0
 40
0.2325554567
 40
0.4809003663
 40
0.7384099295
 40
1.0
 40
1.0
 40
1.0
 40
1.0
 10
30.0889204728
 20
34.991981702
 30
0.0
 10
30.0412730746
 20
34.9647795068
 30
0.0
 10
29.9447325311
 20
34.9050602749
 30
0.0
 10
29.7998221428
 20
34.8083533813
 30
0.0
 10
29.6511353338
 20
34.7050217325
 30
0.0
 10
29.551139339
 20
34.634316847
 30
0.0
 10
29.5007487752
 20
34.5986853376
 30
0.0
  0
SPLINE
  5
2AD
100
AcDbEntity
  8
0
100
AcDbSpline
 62
7
  6
BYLAYER
 70
0
 71
3
 72
19
 73
15
 74
0
 42
0.0000001
 43
0.0000001
 44
0.0000000001
 40
0.0
 40
0.0
 40
0.0
 40
0.0
 40
0.0316758531
 40
0.0653174
 40
0.1024402761
 40
0.1440939406
 40
0.1908965552
 40
0.2431161396
 40
0.300749114
 40
0.3636314707
 40
0.503713494
 40
0.6597452428
 40
0.8270140746
 40
1.0
 40
1.0
 40
1.0
 40
1.0
 10
23.126500409
 20
37.9986853376
 30
0.0
 10
23.1503292557
 20
37.9986853376
 30
0.0
 10
23.1996815557
 20
37.9917258629
 30
0.0
 10
23.2713281969
 20
37.9615081025
 30
0.0
 10
23.3407604109
 20
37.9122867069
 30
0.0
 10
23.4075496279
 20
37.8449685637
 30
0.0
 10
23.4713903986
 20
37.7602466455
 30
0.0
 10
23.5318378619
 20
37.658871028
 30
0.0
 10
23.5884350062
 20
37.5417464568
 30
0.0
 10
23.6605923209
 20
37.3593185358
 30
0.0
 10
23.7357673632
 20
37.0992975175
 30
0.0
 10
23.8007398493
 20
36.7564199815
 30
0.0
 10
23.8407599087
 20
36.3848755142
 30
0.0
 10
23.8497361261
 20
36.1288177474
 30
0.0
 10
23.8497361261
 20
35.9986853376
 30
0.0
  0
SPLINE
  5
2AE
100
AcDbEntity
  8
0
100
AcDbSpline
 62
7
  6
BYLAYER
 70
0
 71
3
 72
17
 73
13
 74
0
 42
0.0000001
 43
0.0000001
 44
0.0000000001
 40
0.0
 40
0.0
 40
0.0
 40
0.0
 40
0.1728994155
 40
0.3403706118
 40
0.4964253165
 40
0.636501062
 40
0.7569824616
 40
0.855871407
 40
0.8975593236
 40
0.9347073941
 40
0.9683579472
 40
1.0
 40
1.0
 40
1.0
 40
1.0
 10
32.6305733824
 20
27.0986853376
 30
0.0
 10
32.6305733824
 20
27.0661766448
 30
0.0
 10
32.6283135497
 20
27.0021568197
 30
0.0
 10
32.6183295282
 20
26.9092681662
 30
0.0
 10
32.60209058
 20
26.8235212248
 30
0.0
 10
32.5802454661
 20
26.7481305167
 30
0.0
 10
32.5537151446
 20
26.6857907724
 30
0.0
 10
32.5269392492
 20
26.6441076
 30
0.0
 10
32.5033289487
 20
26.6202785131
 30
0.0
 10
32.4859427467
 20
26.6079995831
 30
0.0
 10
32.468043768
 20
26.6004360182
 30
0.0
 10
32.4557138184
 20
26.5986853376
 30
0.0
 10
32.4497644531
 20
26.5986853376
 30
0.0
  0
SPLINE
  5
2AF
100
AcDbEntity
  8
0
100
AcDbSpline
 62
7
  6
BYLAYER
 70
0
 71
3
 72
17
 73
13
 74
0
 42
0.0000001
 43
0.0000001
 44
0.0000000001
 40
0.0
 40
0.0
 40
0.0
 40
0.0
 40
0.0316420652
 40
0.0652926576
 40
0.1024407813
 40
0.1441287518
 40
0.2430178073
 40
0.3634992573
 40
0.5035750506
 40
0.6596296987
 40
0.8271006823
 40
1.0
 40
1.0
 40
1.0
 40
1.0
 10
32.4497644531
 20
36.4986853376
 30
0.0
 10
32.4557138206
 20
36.4986853376
 30
0.0
 10
32.4680437796
 20
36.4969346461
 30
0.0
 10
32.4859427684
 20
36.4893710568
 30
0.0
 10
32.5033289913
 20
36.4770921107
 30
0.0
 10
32.5269393238
 20
36.4532629972
 30
0.0
 10
32.5537152085
 20
36.411579768
 30
0.0
 10
32.5802455289
 20
36.3492399843
 30
0.0
 10
32.6020906251
 20
36.273849263
 30
0.0
 10
32.6183295438
 20
36.1881023607
 30
0.0
 10
32.6283135669
 20
36.0952137781
 30
0.0
 10
32.6305733824
 20
36.0311940116
 30
0.0
 10
32.6305733824
 20
35.9986853376
 30
0.0
  0
SPLINE
  5
2B0
100
AcDbEntity
  8
0
100
AcDbSpline
 62
7
  6
BYLAYER
 70
0
 71
3
 72
19
 73
15
 74
0
 42
0.0000001
 43
0.0000001
 44
0.0000000001
 40
0.0
 40
0.0
 40
0.0
 40
0.0
 40
0.1729859254
 40
0.3402547572
 40
0.496286506
 40
0.6363685293
 40
0.699250886
 40
0.7568838604
 40
0.8091034448
 40
0.8559060594
 40
0.8975597239
 40
0.9346826
 40
0.9683241469
 40
1.0
 40
1.0
 40
1.0
 40
1.0
 10
23.8497361261
 20
27.0986853376
 30
0.0
 10
23.8497361261
 20
26.9685529277
 30
0.0
 10
23.8407599087
 20
26.712495161
 30
0.0
 10
23.8007398493
 20
26.3409506937
 30
0.0
 10
23.7357673632
 20
25.9980731577
 30
0.0
 10
23.6605923209
 20
25.7380521394
 30
0.0
 10
23.5884350062
 20
25.5556242184
 30
0.0
 10
23.5318378619
 20
25.4384996471
 30
0.0
 10
23.4713903986
 20
25.3371240296
 30
0.0
 10
23.4075496279
 20
25.2524021115
 30
0.0
 10
23.3407604109
 20
25.1850839683
 30
0.0
 10
23.2713281969
 20
25.1358625727
 30
0.0
 10
23.1996815557
 20
25.1056448122
 30
0.0
 10
23.1503292557
 20
25.0986853376
 30
0.0
 10
23.126500409
 20
25.0986853376
 30
0.0
  0
SPLINE
  5
2B1
100
AcDbEntity
  8
0
100
AcDbSpline
 62
7
  6
BYLAYER
 70
0
 71
3
 72
17
 73
13
 74
0
 42
0.0000001
 43
0.0000001
 44
0.0000000001
 40
0.0
 40
0.0
 40
0.0
 40
0.0
 40
0.1590795026
 40
0.3145110403
 40
0.4625379151
 40
0.5999707624
 40
0.7239492619
 40
0.832337162
 40
0.8803473478
 40
0.9241899921
 40
0.9639849233
 40
1.0
 40
1.0
 40
1.0
 40
1.0
 10
38.6737259563
 20
27.0986853376
 30
0.0
 10
38.6737259563
 20
26.9893142661
 30
0.0
 10
38.6673315795
 20
26.7730239238
 30
0.0
 10
38.6387894711
 20
26.4561032843
 30
0.0
 10
38.5920553538
 20
26.1563685105
 30
0.0
 10
38.5285032648
 20
25.8818239351
 30
0.0
 10
38.4498226052
 20
25.6397001795
 30
0.0
 10
38.3705042529
 20
25.4633375617
 30
0.0
 10
38.2998981136
 20
25.3449827773
 30
0.0
 10
38.246646348
 20
25.2716074854
 30
0.0
 10
38.1913398295
 20
25.2104777535
 30
0.0
 10
38.1514508517
 20
25.1765821747
 30
0.0
 10
38.1312991684
 20
25.1621936645
 30
0.0
  0
SPLINE
  5
2B2
100
AcDbEntity
  8
0
100
AcDbSpline
 62
7
  6
BYLAYER
 70
0
 71
3
 72
17
 73
13
 74
0
 42
0.0000001
 43
0.0000001
 44
0.0000000001
 40
0.0
 40
0.0
 40
0.0
 40
0.0
 40
0.0360150726
 40
0.0758099932
 40
0.1196526245
 40
0.1676627969
 40
0.2760506817
 40
0.4000291704
 40
0.5374620147
 40
0.6854888972
 40
0.8409204745
 40
1.0
 40
1.0
 40
1.0
 40
1.0
 10
38.1312991684
 20
37.9351770107
 30
0.0
 10
38.1514508494
 20
37.9207885021
 30
0.0
 10
38.1913398222
 20
37.8868929335
 30
0.0
 10
38.2466463332
 20
37.8257632198
 30
0.0
 10
38.2998980798
 20
37.7523879456
 30
0.0
 10
38.3705042142
 20
37.634033192
 30
0.0
 10
38.4498225625
 20
37.4576706017
 30
0.0
 10
38.5285032295
 20
37.2155468697
 30
0.0
 10
38.5920553285
 20
36.9410023007
 30
0.0
 10
38.63878946
 20
36.6412674979
 30
0.0
 10
38.6673315717
 20
36.3243468101
 30
0.0
 10
38.6737259563
 20
36.1080564249
 30
0.0
 10
38.6737259563
 20
35.9986853376
 30
0.0
  0
SPLINE
  5
2B3
100
AcDbEntity
  8
0
100
AcDbSpline
 62
7
  6
BYLAYER
 70
0
 71
3
 72
19
 73
15
 74
0
 42
0.0000001
 43
0.0000001
 44
0.0000000001
 40
0.0
 40
0.0
 40
0.0
 40
0.0
 40
0.1729859254
 40
0.3402547572
 40
0.496286506
 40
0.6363685293
 40
0.699250886
 40
0.7568838604
 40
0.8091034448
 40
0.8559060594
 40
0.8975597239
 40
0.9346826
 40
0.9683241469
 40
1.0
 40
1.0
 40
1.0
 40
1.0
 10
33.1730001702
 20
35.9986853376
 30
0.0
 10
33.1730001702
 20
36.1288177474
 30
0.0
 10
33.1640239528
 20
36.3848755142
 30
0.0
 10
33.1240038934
 20
36.7564199815
 30
0.0
 10
33.0590314073
 20
37.0992975175
 30
0.0
 10
32.983856365
 20
37.3593185358
 30
0.0
 10
32.9116990503
 20
37.5417464568
 30
0.0
 10
32.855101906
 20
37.658871028
 30
0.0
 10
32.7946544427
 20
37.7602466455
 30
0.0
 10
32.730813672
 20
37.8449685637
 30
0.0
 10
32.6640244551
 20
37.9122867069
 30
0.0
 10
32.594592241
 20
37.9615081025
 30
0.0
 10
32.5229455998
 20
37.9917258629
 30
0.0
 10
32.4735932998
 20
37.9986853376
 30
0.0
 10
32.4497644531
 20
37.9986853376
 30
0.0
  0
SPLINE
  5
2B4
100
AcDbEntity
  8
0
100
AcDbSpline
 62
7
  6
BYLAYER
 70
0
 71
3
 72
19
 73
15
 74
0
 42
0.0000001
 43
0.0000001
 44
0.0000000001
 40
0.0
 40
0.0
 40
0.0
 40
0.0
 40
0.0316758531
 40
0.0653174
 40
0.1024402761
 40
0.1440939406
 40
0.1908965552
 40
0.2431161396
 40
0.300749114
 40
0.3636314707
 40
0.503713494
 40
0.6597452428
 40
0.8270140746
 40
1.0
 40
1.0
 40
1.0
 40
1.0
 10
32.4497644531
 20
25.0986853376
 30
0.0
 10
32.4735932998
 20
25.0986853376
 30
0.0
 10
32.5229455998
 20
25.1056448122
 30
0.0
 10
32.594592241
 20
25.1358625727
 30
0.0
 10
32.6640244551
 20
25.1850839683
 30
0.0
 10
32.730813672
 20
25.2524021115
 30
0.0
 10
32.7946544427
 20
25.3371240296
 30
0.0
 10
32.855101906
 20
25.4384996471
 30
0.0
 10
32.9116990503
 20
25.5556242184
 30
0.0
 10
32.983856365
 20
25.7380521394
 30
0.0
 10
33.0590314073
 20
25.9980731577
 30
0.0
 10
33.1240038934
 20
26.3409506937
 30
0.0
 10
33.1640239528
 20
26.712495161
 30
0.0
 10
33.1730001702
 20
26.9685529277
 30
0.0
 10
33.1730001702
 20
27.0986853376
 30
0.0
  0
ELLIPSE
  5
2B5
100
AcDbEntity
  8
0
100
AcDbEllipse
 62
7
  6
BYLAYER
 10
30.5134325888
 20
28.4986853376
 30
0.0
 11
0.6875
 21
0.0
 31
0.0
 40
0.7272727273
 41
-2.2363213136
 42
-1.5707963268
  0
ELLIPSE
  5
2B6
100
AcDbEntity
  8
0
100
AcDbEllipse
 62
7
  6
BYLAYER
 10
29.5007487752
 20
28.2986853376
 30
0.0
 11
-0.891114947
 21
0.891114947
 31
0.0
 40
0.5092245917
 41
-3.926990817
 42
-3.6125926738
  0
ELLIPSE
  5
2B7
100
AcDbEntity
  8
0
100
AcDbEllipse
 62
7
  6
BYLAYER
 10
29.5007487752
 20
28.2986853376
 30
0.0
 11
1.0
 21
0.0
 31
0.0
 40
1.0
 41
-1.5707963268
 42
-1.2563981836
  0
ELLIPSE
  5
2B8
100
AcDbEntity
  8
0
100
AcDbEllipse
 62
7
  6
BYLAYER
 10
30.5134325888
 20
34.5986853376
 30
0.0
 11
0.6875
 21
-0.0
 31
0.0
 40
0.7272727273
 41
1.5707963268
 42
2.2363213136
  0
ELLIPSE
  5
2B9
100
AcDbEntity
  8
0
100
AcDbEllipse
 62
7
  6
BYLAYER
 10
29.5007487752
 20
34.7986853376
 30
0.0
 11
0.891114947
 21
0.891114947
 31
0.0
 40
0.5092245917
 41
0.4710000202
 42
0.7853981634
  0
ELLIPSE
  5
2BA
100
AcDbEntity
  8
0
100
AcDbEllipse
 62
7
  6
BYLAYER
 10
29.5007487752
 20
34.7986853376
 30
0.0
 11
1.0
 21
-0.0
 31
0.0
 40
1.0
 41
1.2563981836
 42
1.5707963268
  0
ELLIPSE
  5
2BB
100
AcDbEntity
  8
0
100
AcDbEllipse
 62
7
  6
BYLAYER
 10
38.1083278523
 20
35.9986853376
 30
0.0
 11
0.0
 21
2.0
 31
0.0
 40
0.0459426321
 41
-0.2526802551
 42
-0.0
  0
ELLIPSE
  5
2BC
100
AcDbEntity
  8
0
100
AcDbEllipse
 62
7
  6
BYLAYER
 10
38.1083278523
 20
27.0986853376
 30
0.0
 11
-0.0
 21
2.0
 31
0.0
 40
0.0459426321
 41
-3.1415926536
 42
-2.8889123984
  0
ENDSEC
  0
SECTION
  2
OBJECTS
  0
DICTIONARY
  5
C
100
AcDbDictionary
280
0
281
1
  3
ACAD_GROUP
350
D
  3
ACAD_MLINESTYLE
350
17
  3
ACAD_LAYOUT
350
1A
  3
ACAD_PLOTSETTINGS
350
19
  3
ACAD_PLOTSTYLENAME
350
E
  0
DICTIONARY
  5
D
102
{ACAD_REACTORS
330
C
102
}
100
AcDbDictionary
280
0
281
1
  0
ACDBDICTIONARYWDFLT
  5
E
102
{ACAD_REACTORS
330
C
102
}
100
AcDbDictionary
281
1
  3
Normal
350
F
100
AcDbDictionaryWithDefault
340
F
  0
DICTIONARY
  5
17
102
{ACAD_REACTORS
330
C
102
}
100
AcDbDictionary
280
0
281
1
  3
Standard
350
18
  0
DICTIONARY
  5
19
102
{ACAD_REACTORS
330
C
102
}
100
AcDbDictionary
281
1
  0
DICTIONARY
  5
1A
102
{ACAD_REACTORS
330
C
102
}
100
AcDbDictionary
281
1
  3
Model
350
2BD
  3
Layout1
350
2BE
  0
ACDBPLACEHOLDER
  5
F
102
{ACAD_REACTORS
330
E
102
}
  0
MLINESTYLE
  5
18
102
{ACAD_REACTORS
330
17
102
}
100
AcDbMlineStyle
  2
STANDARD
 70
0
  3

 62
256
 51
90.0
 52
90.0
 71
2
 49
0.5
 62
256
  6
BYLAYER
 49
-0.5
 62
256
  6
BYLAYER
  0
LAYOUT
  5
2BD
102
{ACAD_REACTORS
330
1A
102
}
100
AcDbPlotSettings
  1

  2
none_device
  4

  6

 40
0.0
 41
0.0
 42
0.0
 43
0.0
 44
210.0
 45
297.0
 46
0.0
 47
0.0
 48
0.0
 49
0.0
140
0.0
141
0.0
142
1.0
143
1.0
 70
1024
 72
1
 73
0
 74
0
  7

 75
0
147
1.0
148
0.0
149
0.0
100
AcDbLayout
  1
Model
 70
0
 71
0
 10
0.0
 20
0.0
 11
210.0
 21
297.0
 12
0.0
 22
0.0
 32
0.0
 14
0.0
 24
0.0
 34
0.0
 15
0.0
 25
0.0
 35
0.0
146
0.0
 13
0.0
 23
0.0
 33
0.0
 16
1.0
 26
0.0
 36
0.0
 17
0.0
 27
1.0
 37
0.0
 76
0
330
210
345
0
346
0
  0
LAYOUT
  5
2BE
102
{ACAD_REACTORS
330
1A
102
}
100
AcDbPlotSettings
  1

  2
none_device
  4

  6

 40
0.0
 41
0.0
 42
0.0
 43
0.0
 44
210.0
 45
297.0
 46
0.0
 47
0.0
 48
0.0
 49
0.0
140
0.0
141
0.0
142
1.0
143
1.0
 70
0
 72
1
 73
0
 74
0
  7

 75
0
147
1.0
148
0.0
149
0.0
100
AcDbLayout
  1
Layout1
 70
0
 71
1
 10
0.0
 20
0.0
 11
210.0
 21
297.0
 12
0.0
 22
0.0
 32
0.0
 14
0.0
 24
0.0
 34
0.0
 15
0.0
 25
0.0
 35
0.0
146
0.0
 13
0.0
 23
0.0
 33
0.0
 16
1.0
 26
0.0
 36
0.0
 17
0.0
 27
1.0
 37
0.0
 76
0
330
211
345
0
346
0
  0
ENDSEC
  0
EOF
