999
DXF file: C:\Users\sesa63760\Dev\_Creo\CAD\MCADID0004748_3D-CAD\drw0001_7.dxf
999
Pro/ENGINEER 2019471 by Parametric Technology Corporation
  0
SECTION
  2
HEADER
  9
$ACADVER
  1
AC1024
  9
$DWGCODEPAGE
  3
ANSI_1252
  9
$EXTMAX
 10
45.8959042857
 20
64.9099217755
 30
0.0
  9
$EXTMIN
 10
0.0
 20
0.0
 30
0.0
  9
$LIMMIN
 10
0.0
 20
0.0
  9
$LIMMAX
 10
45.8959042857
 20
64.9099217755
  9
$VIEWCTR
 10
22.9479521428
 20
32.4549608877
  9
$VIEWSIZE
 40
64.9099217755
  9
$CLAYER
  8
0
  9
$LTSCALE
 40
4.2311652713
  9
$CELTYPE
  6
BYLAYER
  9
$DIMSCALE
 40
1.0
  9
$DIMASZ
 40
0.5463798129
  9
$DIMEXO
 40
1.0
  9
$DIMDLI
 40
2.9233505511
  9
$DIMEXE
 40
1.0
  9
$DIMCEN
 40
0.6923724989
  9
$DIMLFAC
 40
1.0
  9
$DIMBLK
  1
_FILLED
  9
$DIMALT
 70
0
  9
$DIMALTF
 40
0.0393700787
  9
$DIMTXT
 40
0.7649317381
  9
$DIMTOL
 70
1
  9
$DIMLIM
 70
0
  9
$DIMTFAC
 40
1.0
  9
$DIMTP
 40
0.01
  9
$DIMTM
 40
0.01
  9
$DIMGAP
 40
0.625
  9
$DIMDSEP
 70
46
  9
$AUNITS
 70
0
  9
$PDMODE
 70
3
  9
$PDSIZE
 40
0.3125
  9
$HANDSEED
  5
27A
  9
$TILEMODE
 70
1
  9
$MEASUREMENT
 70
1
  9
$INSUNITS
 70
4
  0
ENDSEC
  0
SECTION
  2
CLASSES
  0
CLASS
  1
ACDBDICTIONARYWDFLT
  2
AcDbDictionaryWithDefault
  3
AutoCAD 2000
 90
0
 91
1
280
0
281
0
  0
CLASS
  1
ACDBPLACEHOLDER
  2
AcDbPlaceHolder
  3
AutoCAD 2000
 90
0
 91
1
280
0
281
0
  0
CLASS
  1
LAYOUT
  2
AcDbLayout
  3
AutoCAD 2000
 90
0
 91
0
280
0
281
0
  0
ENDSEC
  0
SECTION
  2
TABLES
  0
TABLE
  2
VPORT
  5
8
100
AcDbSymbolTable
 70
2
  0
VPORT
  5
1F4
100
AcDbSymbolTableRecord
100
AcDbViewportTableRecord
  2
*ACTIVE
 70
0
 10
0.0
 20
0.0
 11
1.0
 21
1.0
 12
22.9479521428
 22
32.4549608877
 13
0.0
 23
0.0
 14
1.0
 24
1.0
 15
0.0
 25
0.0
 16
0.0
 26
0.0
 36
1.0
 17
0.0
 27
0.0
 37
0.0
 40
64.9099217755
 41
0.7070707071
 42
50.0
 43
0.0
 44
0.0
 50
0.0
 51
0.0
 71
0
 72
100
 73
1
 74
1
 75
0
 76
0
 77
0
 78
0
  0
ENDTAB
  0
TABLE
  2
LTYPE
  5
5
100
AcDbSymbolTable
 70
6
  0
LTYPE
  5
14
100
AcDbSymbolTableRecord
100
AcDbLinetypeTableRecord
  2
BYBLOCK
 70
0
  3

 72
65
 73
0
 40
0.0
  0
LTYPE
  5
15
100
AcDbSymbolTableRecord
100
AcDbLinetypeTableRecord
  2
BYLAYER
 70
0
  3

 72
65
 73
0
 40
0.0
  0
LTYPE
  5
16
100
AcDbSymbolTableRecord
100
AcDbLinetypeTableRecord
  2
CONTINUOUS
 70
64
  3
Solid line
 72
65
 73
0
 40
0.0
  0
LTYPE
  5
1F5
100
AcDbSymbolTableRecord
100
AcDbLinetypeTableRecord
  2
CENTER
 70
64
  3
____ _ ____ _ ____ _ ____ _ ____ _ ____ _ ____
 72
65
 73
4
 40
0.6
 49
0.375
 74
0
 49
-0.075
 74
0
 49
0.075
 74
0
 49
-0.075
 74
0
  0
LTYPE
  5
1F6
100
AcDbSymbolTableRecord
100
AcDbLinetypeTableRecord
  2
HIDDEN
 70
64
  3
- - - - - - - - - - - - - - - - - - - -
 72
65
 73
2
 40
0.2
 49
0.1
 74
0
 49
-0.1
 74
0
  0
LTYPE
  5
1F7
100
AcDbSymbolTableRecord
100
AcDbLinetypeTableRecord
  2
PHANTOM
 70
64
  3
_____ _ _ _____ _ _ _____ _ _ _____
 72
65
 73
6
 40
0.8
 49
0.45
 74
0
 49
-0.05
 74
0
 49
0.1
 74
0
 49
-0.05
 74
0
 49
0.1
 74
0
 49
-0.05
 74
0
  0
LTYPE
  5
1F8
100
AcDbSymbolTableRecord
100
AcDbLinetypeTableRecord
  2
DOT
 70
64
  3
. . . . . . . . . . . . . . . . . . . .
 72
65
 73
2
 40
0.2
 49
0.1
 74
0
 49
-0.1
 74
0
  0
LTYPE
  5
1F9
100
AcDbSymbolTableRecord
100
AcDbLinetypeTableRecord
  2
DASHED
 70
64
  3
- - - - - - - - - - - - - - - - - - - -
 72
65
 73
2
 40
0.2
 49
0.1
 74
0
 49
-0.1
 74
0
  0
ENDTAB
  0
TABLE
  2
LAYER
  5
2
100
AcDbSymbolTable
 70
36
  0
LAYER
  5
10
100
AcDbSymbolTableRecord
100
AcDbLayerTableRecord
  2
0
 70
0
 62
7
  6
CONTINUOUS
370
-3
390
F
  0
LAYER
  5
1FA
100
AcDbSymbolTableRecord
100
AcDbLayerTableRecord
  2
DEFAULT_1
 70
0
 62
7
  6
CENTER
370
-3
390
F
  0
LAYER
  5
1FB
100
AcDbSymbolTableRecord
100
AcDbLayerTableRecord
  2
DEFAULT_2
 70
0
 62
7
  6
HIDDEN
370
-3
390
F
  0
LAYER
  5
1FC
100
AcDbSymbolTableRecord
100
AcDbLayerTableRecord
  2
DEFAULT_3
 70
0
 62
7
  6
PHANTOM
370
-3
390
F
  0
LAYER
  5
1FD
100
AcDbSymbolTableRecord
100
AcDbLayerTableRecord
  2
00_COMPONENTS
 70
0
 62
7
  6
CONTINUOUS
370
-3
390
F
  0
LAYER
  5
1FE
100
AcDbSymbolTableRecord
100
AcDbLayerTableRecord
  2
01_1_DEFAULT_DATUMS
 70
0
 62
7
  6
CONTINUOUS
370
-3
390
F
  0
LAYER
  5
1FF
100
AcDbSymbolTableRecord
100
AcDbLayerTableRecord
  2
01_PLANES
 70
0
 62
7
  6
CONTINUOUS
370
-3
390
F
  0
LAYER
  5
200
100
AcDbSymbolTableRecord
100
AcDbLayerTableRecord
  2
02_COORD_SYS
 70
0
 62
7
  6
CONTINUOUS
370
-3
390
F
  0
LAYER
  5
201
100
AcDbSymbolTableRecord
100
AcDbLayerTableRecord
  2
03_AXES
 70
0
 62
7
  6
CONTINUOUS
370
-3
390
F
  0
LAYER
  5
202
100
AcDbSymbolTableRecord
100
AcDbLayerTableRecord
  2
04_POINTS
 70
0
 62
7
  6
CONTINUOUS
370
-3
390
F
  0
LAYER
  5
203
100
AcDbSymbolTableRecord
100
AcDbLayerTableRecord
  2
05_CURVES
 70
0
 62
7
  6
CONTINUOUS
370
-3
390
F
  0
LAYER
  5
204
100
AcDbSymbolTableRecord
100
AcDbLayerTableRecord
  2
06_SURFS
 70
0
 62
7
  6
CONTINUOUS
370
-3
390
F
  0
LAYER
  5
205
100
AcDbSymbolTableRecord
100
AcDbLayerTableRecord
  2
07_COSMETICS
 70
0
 62
7
  6
CONTINUOUS
370
-3
390
F
  0
LAYER
  5
206
100
AcDbSymbolTableRecord
100
AcDbLayerTableRecord
  2
10_NOTES
 70
0
 62
7
  6
CONTINUOUS
370
-3
390
F
  0
LAYER
  5
207
100
AcDbSymbolTableRecord
100
AcDbLayerTableRecord
  2
11_NOTES_PUB
 70
0
 62
7
  6
CONTINUOUS
370
-3
390
F
  0
LAYER
  5
208
100
AcDbSymbolTableRecord
100
AcDbLayerTableRecord
  2
13_REF_GTOL
 70
0
 62
7
  6
CONTINUOUS
370
-3
390
F
  0
LAYER
  5
209
100
AcDbSymbolTableRecord
100
AcDbLayerTableRecord
  2
16_MISC
 70
0
 62
7
  6
CONTINUOUS
370
-3
390
F
  0
LAYER
  5
20A
100
AcDbSymbolTableRecord
100
AcDbLayerTableRecord
  2
17_NO_PRINT
 70
0
 62
7
  6
CONTINUOUS
370
-3
390
F
  0
LAYER
  5
20B
100
AcDbSymbolTableRecord
100
AcDbLayerTableRecord
  2
18_DATUM_CAMS_JOINTS
 70
0
 62
7
  6
CONTINUOUS
370
-3
390
F
  0
LAYER
  5
20C
100
AcDbSymbolTableRecord
100
AcDbLayerTableRecord
  2
19_DATUM_FUNCTIONAL
 70
0
 62
7
  6
CONTINUOUS
370
-3
390
F
  0
LAYER
  5
20D
100
AcDbSymbolTableRecord
100
AcDbLayerTableRecord
  2
20_DATUM_KINEMATIC_SCHEME
 70
0
 62
7
  6
CONTINUOUS
370
-3
390
F
  0
ENDTAB
  0
TABLE
  2
STYLE
  5
3
100
AcDbSymbolTable
 70
1
  0
STYLE
  5
11
100
AcDbSymbolTableRecord
100
AcDbTextStyleTableRecord
  2
STANDARD
 70
0
 40
0.0
 41
1.0
 50
0.0
 71
0
 42
0.2
  3
ARIAL.TTF
  4

  0
STYLE
  5
20E
100
AcDbSymbolTableRecord
100
AcDbTextStyleTableRecord
  2
TEXTSTYLE_1
 70
0
 40
0.0
 41
0.8
 50
0.0
 71
0
 42
0.2
  3
gdt
  4

  0
ENDTAB
  0
TABLE
  2
VIEW
  5
6
100
AcDbSymbolTable
 70
0
  0
ENDTAB
  0
TABLE
  2
UCS
  5
7
100
AcDbSymbolTable
 70
0
  0
ENDTAB
  0
TABLE
  2
APPID
  5
9
100
AcDbSymbolTable
 70
1
  0
APPID
  5
20F
100
AcDbSymbolTableRecord
100
AcDbRegAppTableRecord
  2
ACAD
 70
0
  0
ENDTAB
  0
TABLE
  2
BLOCK_RECORD
  5
1
100
AcDbSymbolTable
 70
0
  0
BLOCK_RECORD
  5
210
100
AcDbSymbolTableRecord
100
AcDbBlockTableRecord
  2
*Model_Space
  0
BLOCK_RECORD
  5
211
100
AcDbSymbolTableRecord
100
AcDbBlockTableRecord
  2
*Paper_Space
  0
BLOCK_RECORD
  5
212
100
AcDbSymbolTableRecord
100
AcDbBlockTableRecord
  2
_FILLED
  0
ENDTAB
  0
TABLE
  2
DIMSTYLE
  5
A
100
AcDbSymbolTable
 70
1
100
AcDbDimStyleTable
 71
0
  0
DIMSTYLE
105
213
100
AcDbSymbolTableRecord
100
AcDbDimStyleTableRecord
  2
STANDARD
 70
0
  3

  4

 40
1.0
 41
0.5463798129
 42
1.0
 43
0.38
 44
1.0
 45
0.0
 46
0.0
 47
0.01
 48
0.01
140
0.7649317381
141
0.09
142
0.0
143
25.4
144
1.0
145
0.0
146
1.0
147
0.625
 71
1
 72
0
 73
0
 74
0
 75
0
 76
0
 77
1
 78
8
 79
2
170
0
171
1
172
0
173
0
174
0
175
0
176
0
177
0
178
0
270
2
179
2
271
2
272
2
273
2
274
2
275
0
280
0
281
0
282
0
283
1
284
8
285
0
286
0
287
3
288
0
340
11
278
46
341
212
342
212
343
212
344
212
  0
ENDTAB
  0
ENDSEC
  0
SECTION
  2
BLOCKS
  0
BLOCK
  5
20
100
AcDbEntity
  8
0
100
AcDbBlockBegin
  2
*Model_Space
 70
0
 10
0.0
 20
0.0
 30
0.0
  3
*Model_Space
  1

  0
ENDBLK
  5
21
100
AcDbEntity
  8
0
100
AcDbBlockEnd
  0
BLOCK
  5
1C
100
AcDbEntity
  8
0
100
AcDbBlockBegin
  2
*Paper_Space
 70
0
 10
0.0
 20
0.0
 30
0.0
  3
*Paper_Space
  1

  0
ENDBLK
  5
1D
100
AcDbEntity
  8
0
100
AcDbBlockEnd
  0
BLOCK
  5
214
100
AcDbEntity
  8
0
100
AcDbBlockBegin
  2
_FILLED
 70
64
 10
0.0
 20
0.0
  3
_FILLED
  1

  0
SOLID
  5
215
100
AcDbEntity
  8
0
  6
BYBLOCK
 62
0
100
AcDbTrace
 10
0.0
 20
0.0
 11
-1.0
 21
0.25
 12
-1.0
 22
-0.25
 13
-1.0
 23
-0.25
  0
ENDBLK
  5
216
100
AcDbEntity
  8
0
  6
BYBLOCK
 62
0
100
AcDbBlockEnd
  0
ENDSEC
  0
SECTION
  2
ENTITIES
  0
LINE
  5
217
100
AcDbEntity
  8
0
100
AcDbLine
 62
7
  6
BYLAYER
 10
4.8725213754
 20
35.3638591051
 11
4.8725213754
 21
29.8638591051
  0
LINE
  5
218
100
AcDbEntity
  8
0
100
AcDbLine
 62
7
  6
BYLAYER
 10
11.0725213754
 20
26.6138591051
 11
11.0725213754
 21
29.3638591051
  0
LINE
  5
219
100
AcDbEntity
  8
0
100
AcDbLine
 62
7
  6
BYLAYER
 10
11.0725213754
 20
35.8638591051
 11
11.0725213754
 21
38.6138591051
  0
LINE
  5
21A
100
AcDbEntity
  8
0
100
AcDbLine
 62
7
  6
BYLAYER
 10
11.8725213754
 20
35.6138591051
 11
11.8725213754
 21
35.3638591051
  0
LINE
  5
21B
100
AcDbEntity
  8
0
100
AcDbLine
 62
7
  6
BYLAYER
 10
11.8725213754
 20
29.8638591051
 11
11.8725213754
 21
29.6138591051
  0
LINE
  5
21C
100
AcDbEntity
  8
0
100
AcDbLine
 62
7
  6
BYLAYER
 10
14.1034614831
 20
26.5638591051
 11
14.0745939696
 21
26.6138591051
  0
LINE
  5
21D
100
AcDbEntity
  8
0
100
AcDbLine
 62
7
  6
BYLAYER
 10
12.8975213754
 20
35.8638591051
 11
12.8975213754
 21
35.6138591051
  0
LINE
  5
21E
100
AcDbEntity
  8
0
100
AcDbLine
 62
7
  6
BYLAYER
 10
13.1284614831
 20
29.3638591051
 11
12.9841239158
 21
29.6138591051
  0
LINE
  5
21F
100
AcDbEntity
  8
0
100
AcDbLine
 62
7
  6
BYLAYER
 10
40.4767416072
 20
24.6138591051
 11
26.1767416072
 21
24.6138591051
  0
LINE
  5
220
100
AcDbEntity
  8
0
100
AcDbLine
 62
7
  6
BYLAYER
 10
40.9767416072
 20
25.1138591051
 11
26.1767416072
 21
25.1138591051
  0
LINE
  5
221
100
AcDbEntity
  8
0
100
AcDbLine
 62
7
  6
BYLAYER
 10
17.6415452607
 20
26.5638591051
 11
14.1034974902
 21
26.5638591051
  0
LINE
  5
222
100
AcDbEntity
  8
0
100
AcDbLine
 62
7
  6
BYLAYER
 10
11.072665235
 20
26.6138591051
 11
41.1815225804
 21
26.6138591051
  0
LINE
  5
223
100
AcDbEntity
  8
0
100
AcDbLine
 62
7
  6
BYLAYER
 10
17.9311260169
 20
26.6138591051
 11
17.9311260169
 21
29.3638591051
  0
LINE
  5
224
100
AcDbEntity
  8
0
100
AcDbLine
 62
7
  6
BYLAYER
 10
17.9311260169
 20
35.8638591051
 11
17.9311260169
 21
38.6138591051
  0
LINE
  5
225
100
AcDbEntity
  8
0
100
AcDbLine
 62
7
  6
BYLAYER
 10
18.8475213754
 20
35.8638591051
 11
18.8475213754
 21
35.6138591051
  0
LINE
  5
226
100
AcDbEntity
  8
0
100
AcDbLine
 62
7
  6
BYLAYER
 10
19.8725213754
 20
35.6138591051
 11
19.8725213754
 21
35.3638591051
  0
LINE
  5
227
100
AcDbEntity
  8
0
100
AcDbLine
 62
7
  6
BYLAYER
 10
19.8725213754
 20
29.8638591051
 11
19.8725213754
 21
29.6138591051
  0
LINE
  5
228
100
AcDbEntity
  8
0
100
AcDbLine
 62
7
  6
BYLAYER
 10
11.072665121
 20
29.3638591051
 11
40.6187246928
 21
29.3638591051
  0
LINE
  5
229
100
AcDbEntity
  8
0
100
AcDbLine
 62
7
  6
BYLAYER
 10
19.8724400801
 20
29.6138591051
 11
11.8726026707
 21
29.6138591051
  0
LINE
  5
22A
100
AcDbEntity
  8
0
100
AcDbLine
 62
7
  6
BYLAYER
 10
26.87250053
 20
29.8638591051
 11
4.8725422208
 21
29.8638591051
  0
LINE
  5
22B
100
AcDbEntity
  8
0
100
AcDbLine
 62
7
  6
BYLAYER
 10
31.1933487174
 20
29.8638591051
 11
31.2346806685
 21
29.8638591051
  0
LINE
  5
22C
100
AcDbEntity
  8
0
100
AcDbLine
 62
7
  6
BYLAYER
 10
18.6165812677
 20
29.3638591051
 11
18.760918835
 21
29.6138591051
  0
LINE
  5
22D
100
AcDbEntity
  8
0
100
AcDbLine
 62
7
  6
BYLAYER
 10
17.6415812677
 20
26.5638591051
 11
17.6704487812
 21
26.6138591051
  0
LINE
  5
22E
100
AcDbEntity
  8
0
100
AcDbLine
 62
7
  6
BYLAYER
 10
33.9901718804
 20
31.0138591051
 11
33.8092025059
 21
31.0138591051
  0
LINE
  5
22F
100
AcDbEntity
  8
0
100
AcDbLine
 62
7
  6
BYLAYER
 10
28.7243579237
 20
31.0138591051
 11
28.6075876418
 21
31.0138591051
  0
LINE
  5
230
100
AcDbEntity
  8
0
100
AcDbLine
 62
7
  6
BYLAYER
 10
22.123116451
 20
35.8638591051
 11
22.123116451
 21
35.3638591051
  0
LINE
  5
231
100
AcDbEntity
  8
0
100
AcDbLine
 62
7
  6
BYLAYER
 10
22.123116451
 20
29.8638591051
 11
22.123116451
 21
29.3638591051
  0
LINE
  5
232
100
AcDbEntity
  8
0
100
AcDbLine
 62
7
  6
BYLAYER
 10
31.8767416072
 20
40.6138591051
 11
31.3767416072
 21
40.1138591051
  0
LINE
  5
233
100
AcDbEntity
  8
0
100
AcDbLine
 62
7
  6
BYLAYER
 10
31.3767416072
 20
25.1138591051
 11
31.8767416072
 21
24.6138591051
  0
LINE
  5
234
100
AcDbEntity
  8
0
100
AcDbLine
 62
7
  6
BYLAYER
 10
24.6322918534
 20
35.8638591051
 11
24.6322918534
 21
35.3638591051
  0
LINE
  5
235
100
AcDbEntity
  8
0
100
AcDbLine
 62
7
  6
BYLAYER
 10
24.6322918534
 20
29.8638591051
 11
24.6322918534
 21
29.3638591051
  0
LINE
  5
236
100
AcDbEntity
  8
0
100
AcDbLine
 62
7
  6
BYLAYER
 10
28.6075876418
 20
34.2138591051
 11
28.7245335227
 21
34.2138591051
  0
LINE
  5
237
100
AcDbEntity
  8
0
100
AcDbLine
 62
7
  6
BYLAYER
 10
33.8090269069
 20
34.2138591051
 11
33.9901718804
 21
34.2138591051
  0
LINE
  5
238
100
AcDbEntity
  8
0
100
AcDbLine
 62
7
  6
BYLAYER
 10
4.872530197
 20
35.3638591051
 11
26.8725125539
 21
35.3638591051
  0
LINE
  5
239
100
AcDbEntity
  8
0
100
AcDbLine
 62
7
  6
BYLAYER
 10
31.1933487174
 20
35.3638591051
 11
31.2346806685
 21
35.3638591051
  0
LINE
  5
23A
100
AcDbEntity
  8
0
100
AcDbLine
 62
7
  6
BYLAYER
 10
26.1767416072
 20
24.6138591051
 11
26.1767416072
 21
25.1138591051
  0
LINE
  5
23B
100
AcDbEntity
  8
0
100
AcDbLine
 62
7
  6
BYLAYER
 10
26.1767416072
 20
40.1138591051
 11
26.1767416072
 21
40.6138591051
  0
LINE
  5
23C
100
AcDbEntity
  8
0
100
AcDbLine
 62
7
  6
BYLAYER
 10
26.8725213754
 20
35.3638591051
 11
26.8725213754
 21
29.8638591051
  0
LINE
  5
23D
100
AcDbEntity
  8
0
100
AcDbLine
 62
7
  6
BYLAYER
 10
11.8725986122
 20
35.6138591051
 11
19.8724441387
 21
35.6138591051
  0
LINE
  5
23E
100
AcDbEntity
  8
0
100
AcDbLine
 62
7
  6
BYLAYER
 10
40.6187246928
 20
35.8638591051
 11
11.072665235
 21
35.8638591051
  0
LINE
  5
23F
100
AcDbEntity
  8
0
100
AcDbLine
 62
7
  6
BYLAYER
 10
28.2865924288
 20
31.1248053791
 11
28.2865924288
 21
32.2384953874
  0
LINE
  5
240
100
AcDbEntity
  8
0
100
AcDbLine
 62
7
  6
BYLAYER
 10
28.2865924288
 20
32.9883729668
 11
28.2865924288
 21
34.1035599791
  0
LINE
  5
241
100
AcDbEntity
  8
0
100
AcDbLine
 62
7
  6
BYLAYER
 10
29.6767416072
 20
40.6138591051
 11
29.6767416072
 21
38.6138591051
  0
LINE
  5
242
100
AcDbEntity
  8
0
100
AcDbLine
 62
7
  6
BYLAYER
 10
29.6767416072
 20
26.6138591051
 11
29.6767416072
 21
24.6138591051
  0
LINE
  5
243
100
AcDbEntity
  8
0
100
AcDbLine
 62
7
  6
BYLAYER
 10
11.072665121
 20
38.6138591051
 11
41.1815225804
 21
38.6138591051
  0
LINE
  5
244
100
AcDbEntity
  8
0
100
AcDbLine
 62
7
  6
BYLAYER
 10
30.7557218592
 20
30.019957724
 11
30.7557218592
 21
35.2077577999
  0
LINE
  5
245
100
AcDbEntity
  8
0
100
AcDbLine
 62
7
  6
BYLAYER
 10
26.1767416072
 20
40.1138591051
 11
40.9767416072
 21
40.1138591051
  0
LINE
  5
246
100
AcDbEntity
  8
0
100
AcDbLine
 62
7
  6
BYLAYER
 10
26.1767416072
 20
40.6138591051
 11
40.4767416072
 21
40.6138591051
  0
LINE
  5
247
100
AcDbEntity
  8
0
100
AcDbLine
 62
7
  6
BYLAYER
 10
31.3767416072
 20
40.1138591051
 11
31.3767416072
 21
38.6138591051
  0
LINE
  5
248
100
AcDbEntity
  8
0
100
AcDbLine
 62
7
  6
BYLAYER
 10
31.3767416072
 20
26.6138591051
 11
31.3767416072
 21
25.1138591051
  0
LINE
  5
249
100
AcDbEntity
  8
0
100
AcDbLine
 62
7
  6
BYLAYER
 10
34.6161127834
 20
34.0704702241
 11
34.6161127834
 21
31.1580892786
  0
LINE
  5
24A
100
AcDbEntity
  8
0
100
AcDbLine
 62
7
  6
BYLAYER
 10
34.9994031434
 20
33.8021489179
 11
34.9994031434
 21
31.4263928788
  0
LINE
  5
24B
100
AcDbEntity
  8
0
100
AcDbLine
 62
7
  6
BYLAYER
 10
40.6187246928
 20
26.6138591051
 11
40.6187246928
 21
38.6138591051
  0
LINE
  5
24C
100
AcDbEntity
  8
0
100
AcDbLine
 62
7
  6
BYLAYER
 10
40.9767416072
 20
25.1138591051
 11
40.9767416072
 21
26.6138591051
  0
LINE
  5
24D
100
AcDbEntity
  8
0
100
AcDbLine
 62
7
  6
BYLAYER
 10
40.9767416072
 20
38.6138591051
 11
40.9767416072
 21
40.1138591051
  0
LINE
  5
24E
100
AcDbEntity
  8
0
100
AcDbLine
 62
7
  6
BYLAYER
 10
41.0279939082
 20
26.6138591051
 11
41.0279939082
 21
38.6138591051
  0
LINE
  5
24F
100
AcDbEntity
  8
0
100
AcDbLine
 62
7
  6
BYLAYER
 10
41.1815225804
 20
38.6138591051
 11
41.1815225804
 21
26.6138591051
  0
LINE
  5
250
100
AcDbEntity
  8
0
100
AcDbLine
 62
7
  6
BYLAYER
 10
40.4767416072
 20
24.6138591051
 11
40.9767416072
 21
25.1138591051
  0
LINE
  5
251
100
AcDbEntity
  8
0
100
AcDbLine
 62
7
  6
BYLAYER
 10
40.9767416072
 20
40.1138591051
 11
40.4767416072
 21
40.6138591051
  0
ARC
  5
252
100
AcDbEntity
  8
0
100
AcDbCircle
 62
7
  6
BYLAYER
 10
26.1767416072
 20
32.6138591051
 40
8.0
100
AcDbArc
 50
202.3404053755
 51
203.5154579749
  0
ARC
  5
253
100
AcDbEntity
  8
0
100
AcDbCircle
 62
7
  6
BYLAYER
 10
26.1767416072
 20
32.6138591051
 40
8.0
100
AcDbArc
 50
203.811608075
 51
205.2828107745
  0
ARC
  5
254
100
AcDbEntity
  8
0
100
AcDbCircle
 62
7
  6
BYLAYER
 10
26.1767416072
 20
32.6138591051
 40
8.0
100
AcDbArc
 50
230.6958531364
 51
270.0
  0
ARC
  5
255
100
AcDbEntity
  8
0
100
AcDbCircle
 62
7
  6
BYLAYER
 10
26.1767416072
 20
32.6138591051
 40
8.0
100
AcDbArc
 50
90.0
 51
129.3041468636
  0
ARC
  5
256
100
AcDbEntity
  8
0
100
AcDbCircle
 62
7
  6
BYLAYER
 10
26.1767416072
 20
32.6138591051
 40
8.0
100
AcDbArc
 50
154.7171892255
 51
156.188391925
  0
ARC
  5
257
100
AcDbEntity
  8
0
100
AcDbCircle
 62
7
  6
BYLAYER
 10
26.1767416072
 20
32.6138591051
 40
7.5
100
AcDbArc
 50
203.8786305589
 51
206.0315923166
  0
ARC
  5
258
100
AcDbEntity
  8
0
100
AcDbCircle
 62
7
  6
BYLAYER
 10
26.1767416072
 20
32.6138591051
 40
7.5
100
AcDbArc
 50
233.2675606017
 51
270.0
  0
ARC
  5
259
100
AcDbEntity
  8
0
100
AcDbCircle
 62
7
  6
BYLAYER
 10
26.1767416072
 20
32.6138591051
 40
7.5
100
AcDbArc
 50
90.0
 51
126.7324973084
  0
ARC
  5
25A
100
AcDbEntity
  8
0
100
AcDbCircle
 62
7
  6
BYLAYER
 10
26.1767416072
 20
32.6138591051
 40
7.5
100
AcDbArc
 50
153.9684274816
 51
156.1213807551
  0
ARC
  5
25B
100
AcDbEntity
  8
0
100
AcDbCircle
 62
7
  6
BYLAYER
 10
31.281035346
 20
32.6138590738
 40
3.0081965243
100
AcDbArc
 50
327.6705394928
 51
32.3312690545
  0
ARC
  5
25C
100
AcDbEntity
  8
0
100
AcDbCircle
 62
7
  6
BYLAYER
 10
31.1933488096
 20
32.5986530518
 40
2.7347903395
100
AcDbArc
 50
269.9999980672
 51
270.8651337541
  0
ARC
  5
25D
100
AcDbEntity
  8
0
100
AcDbCircle
 62
7
  6
BYLAYER
 10
31.1544318028
 20
32.5970114599
 40
2.6076931888
100
AcDbArc
 50
261.2051176758
 51
278.7948823242
  0
ARC
  5
25E
100
AcDbEntity
  8
0
100
AcDbCircle
 62
7
  6
BYLAYER
 10
31.1544318028
 20
32.6307068288
 40
2.6076931111
100
AcDbArc
 50
81.2051174115
 51
98.7948825885
  0
SPLINE
  5
25F
100
AcDbEntity
  8
0
100
AcDbSpline
 62
7
  6
BYLAYER
 70
0
 71
3
 72
11
 73
7
 74
0
 42
0.0000001
 43
0.0000001
 44
0.0000000001
 40
0.0
 40
0.0
 40
0.0
 40
0.0
 40
0.1979318496
 40
0.4334111585
 40
0.7023681145
 40
1.0
 40
1.0
 40
1.0
 40
1.0
 10
31.5531417464
 20
35.2077577885
 30
0.0
 10
31.5497206155
 20
35.1838381939
 30
0.0
 10
31.5434362389
 20
35.1312895689
 30
0.0
 10
31.5356077303
 20
35.0458984022
 30
0.0
 10
31.5287078188
 20
34.9482213574
 30
0.0
 10
31.5249727993
 20
34.8791517215
 30
0.0
 10
31.5232518169
 20
34.8428583657
 30
0.0
  0
SPLINE
  5
260
100
AcDbEntity
  8
0
100
AcDbSpline
 62
7
  6
BYLAYER
 70
0
 71
3
 72
23
 73
19
 74
0
 42
0.0000001
 43
0.0000001
 44
0.0000000001
 40
0.0
 40
0.0
 40
0.0
 40
0.0
 40
0.0625901539
 40
0.1252009722
 40
0.187786594
 40
0.2503638459
 40
0.3129286936
 40
0.3754758524
 40
0.4380050941
 40
0.5005151496
 40
0.5630054599
 40
0.6254761735
 40
0.6879284549
 40
0.7503643687
 40
0.8127861962
 40
0.8751970459
 40
0.9376005095
 40
1.0
 40
1.0
 40
1.0
 40
1.0
 10
33.9758115308
 20
32.6138591051
 30
0.0
 10
33.9758115308
 20
32.5239172533
 30
0.0
 10
33.9669859584
 20
32.3438806432
 30
0.0
 10
33.9274730068
 20
32.0765260105
 30
0.0
 10
33.862001777
 20
31.8143081935
 30
0.0
 10
33.7712310567
 20
31.5598177249
 30
0.0
 10
33.6560436427
 20
31.3154657033
 30
0.0
 10
33.5175337644
 20
31.0836164742
 30
0.0
 10
33.3570316754
 20
30.8665089801
 30
0.0
 10
33.1760968358
 20
30.6662213907
 30
0.0
 10
32.9764630427
 20
30.4846888705
 30
0.0
 10
32.7600481211
 20
30.3236685617
 30
0.0
 10
32.5289478846
 20
30.1846956163
 30
0.0
 10
32.2853795671
 20
30.0691180991
 30
0.0
 10
32.0316903047
 20
29.978056009
 30
0.0
 10
31.7703199855
 20
29.9123690467
 30
0.0
 10
31.5038155306
 20
29.8727036274
 30
0.0
 10
31.3243485373
 20
29.8638645907
 30
0.0
 10
31.2346806684
 20
29.8638645467
 30
0.0
  0
SPLINE
  5
261
100
AcDbEntity
  8
0
100
AcDbSpline
 62
7
  6
BYLAYER
 70
0
 71
3
 72
23
 73
19
 74
0
 42
0.0000001
 43
0.0000001
 44
0.0000000001
 40
0.0
 40
0.0
 40
0.0
 40
0.0
 40
0.062399402
 40
0.1248027807
 40
0.1872135662
 40
0.2496353424
 40
0.3120712072
 40
0.3745233819
 40
0.4369938943
 40
0.4994839424
 40
0.5619937793
 40
0.6245229155
 40
0.6870701654
 40
0.7496352355
 40
0.8122127015
 40
0.8747986339
 40
0.9374097975
 40
1.0
 40
1.0
 40
1.0
 40
1.0
 10
31.2346806687
 20
35.3638536634
 30
0.0
 10
31.3243484085
 20
35.3638537075
 30
0.0
 10
31.5038151312
 20
35.355014371
 30
0.0
 10
31.770319297
 20
35.3153494555
 30
0.0
 10
32.0316893114
 20
35.2496624136
 30
0.0
 10
32.285378331
 20
35.1586004226
 30
0.0
 10
32.5289465494
 20
35.0430234
 30
0.0
 10
32.7600463424
 20
34.9040507032
 30
0.0
 10
32.9764606526
 20
34.7430309919
 30
0.0
 10
33.1760941685
 20
34.5614996311
 30
0.0
 10
33.3570285196
 20
34.3612127335
 30
0.0
 10
33.5175307896
 20
34.1441058278
 30
0.0
 10
33.65604151
 20
33.9122567402
 30
0.0
 10
33.7712292774
 20
33.6679040521
 30
0.0
 10
33.8620010253
 20
33.4134128247
 30
0.0
 10
33.9274727243
 20
33.1511938183
 30
0.0
 10
33.9669857952
 20
32.8838381903
 30
0.0
 10
33.9758115308
 20
32.7038010245
 30
0.0
 10
33.9758115308
 20
32.6138591051
 30
0.0
  0
SPLINE
  5
262
100
AcDbEntity
  8
0
100
AcDbSpline
 62
7
  6
BYLAYER
 70
0
 71
3
 72
23
 73
19
 74
0
 42
0.0000001
 43
0.0000001
 44
0.0000000001
 40
0.0
 40
0.0
 40
0.0
 40
0.0
 40
0.0624513912
 40
0.124923755
 40
0.1873841541
 40
0.2498525537
 40
0.3123272439
 40
0.374807742
 40
0.437295961
 40
0.4997919073
 40
0.5622958513
 40
0.6248077454
 40
0.6873266985
 40
0.7498531721
 40
0.8123846185
 40
0.8749169292
 40
0.9374675588
 40
1.0
 40
1.0
 40
1.0
 40
1.0
 10
31.1933487174
 20
29.8638591051
 30
0.0
 10
31.1035535389
 20
29.8638591051
 30
0.0
 10
30.9238084246
 20
29.8727179123
 30
0.0
 10
30.6568987932
 20
29.9123953109
 30
0.0
 10
30.3951318246
 20
29.9781288502
 30
0.0
 10
30.1410902479
 20
30.0692512502
 30
0.0
 10
29.8971945927
 20
30.1848879914
 30
0.0
 10
29.665801074
 20
30.3239166404
 30
0.0
 10
29.4491411701
 20
30.484997083
 30
0.0
 10
29.2492989834
 20
30.666571764
 30
0.0
 10
29.0681891848
 20
30.8668807511
 30
0.0
 10
28.9075572628
 20
31.0839975056
 30
0.0
 10
28.7689453537
 20
31.3158297463
 30
0.0
 10
28.6536774326
 20
31.5601410558
 30
0.0
 10
28.5628602519
 20
31.8145740027
 30
0.0
 10
28.4973552149
 20
32.076710879
 30
0.0
 10
28.4578195631
 20
32.3439742468
 30
0.0
 10
28.4489927141
 20
32.5239473897
 30
0.0
 10
28.4489927141
 20
32.6138591051
 30
0.0
  0
SPLINE
  5
263
100
AcDbEntity
  8
0
100
AcDbSpline
 62
7
  6
BYLAYER
 70
0
 71
3
 72
11
 73
7
 74
0
 42
0.0000001
 43
0.0000001
 44
0.0000000001
 40
0.0
 40
0.0
 40
0.0
 40
0.0
 40
0.1979715328
 40
0.4334044609
 40
0.7023194239
 40
1.0
 40
1.0
 40
1.0
 40
1.0
 10
31.5531417464
 20
30.0199650813
 30
0.0
 10
31.5497195025
 20
30.0438924586
 30
0.0
 10
31.5434394376
 20
30.0964474296
 30
0.0
 10
31.5356037604
 20
30.18184262
 30
0.0
 10
31.5287014694
 20
30.2795269976
 30
0.0
 10
31.5249706818
 20
30.3486063154
 30
0.0
 10
31.523249203
 20
30.3849101406
 30
0.0
  0
SPLINE
  5
264
100
AcDbEntity
  8
0
100
AcDbSpline
 62
7
  6
BYLAYER
 70
0
 71
3
 72
11
 73
7
 74
0
 42
0.0000001
 43
0.0000001
 44
0.0000000001
 40
0.0
 40
0.0
 40
0.0
 40
0.0
 40
0.2341348203
 40
0.4817856041
 40
0.7385847782
 40
1.0
 40
1.0
 40
1.0
 40
1.0
 10
31.5232518169
 20
34.8428583657
 30
0.0
 10
31.5150093458
 20
34.6690350364
 30
0.0
 10
31.5006921187
 20
34.3112256473
 30
0.0
 10
31.4855821884
 20
33.7624750228
 30
0.0
 10
31.4764018356
 20
33.1933151544
 30
0.0
 10
31.474354978
 20
32.8081536663
 30
0.0
 10
31.474354978
 20
32.6138591051
 30
0.0
  0
SPLINE
  5
265
100
AcDbEntity
  8
0
100
AcDbSpline
 62
7
  6
BYLAYER
 70
0
 71
3
 72
11
 73
7
 74
0
 42
0.0000001
 43
0.0000001
 44
0.0000000001
 40
0.0
 40
0.0
 40
0.0
 40
0.0
 40
0.2614024614
 40
0.5181934154
 40
0.7658472239
 40
1.0
 40
1.0
 40
1.0
 40
1.0
 10
31.474354978
 20
32.6138591051
 30
0.0
 10
31.474354978
 20
32.4195784161
 30
0.0
 10
31.4764015831
 20
32.0344412221
 30
0.0
 10
31.4855807961
 20
31.4653075399
 30
0.0
 10
31.5006900928
 20
30.91655982
 30
0.0
 10
31.515006286
 20
30.5587428741
 30
0.0
 10
31.523249203
 20
30.3849101406
 30
0.0
  0
SPLINE
  5
266
100
AcDbEntity
  8
0
100
AcDbSpline
 62
7
  6
BYLAYER
 70
0
 71
3
 72
23
 73
19
 74
0
 42
0.0000001
 43
0.0000001
 44
0.0000000001
 40
0.0
 40
0.0
 40
0.0
 40
0.0
 40
0.0625324516
 40
0.1250831007
 40
0.1876154163
 40
0.2501468615
 40
0.3126733314
 40
0.3751922767
 40
0.4377041605
 40
0.500208093
 40
0.5627040279
 40
0.6251922365
 40
0.6876727266
 40
0.750147413
 40
0.8126158113
 40
0.8750762152
 40
0.9375485983
 40
1.0
 40
1.0
 40
1.0
 40
1.0
 10
28.4489927141
 20
32.6138591051
 30
0.0
 10
28.4489927141
 20
32.7037708354
 30
0.0
 10
28.4578195771
 20
32.8837440206
 30
0.0
 10
28.4973552303
 20
33.1510074386
 30
0.0
 10
28.5628602892
 20
33.4131443448
 30
0.0
 10
28.6536774928
 20
33.6675772831
 30
0.0
 10
28.7689454096
 20
33.9118885742
 30
0.0
 10
28.9075573137
 20
34.1437207817
 30
0.0
 10
29.0681892186
 20
34.3608374953
 30
0.0
 10
29.2492989836
 20
34.561146448
 30
0.0
 10
29.4491411361
 20
34.7427210952
 30
0.0
 10
29.6658009991
 20
34.9038015201
 30
0.0
 10
29.8971944844
 20
35.0428301635
 30
0.0
 10
30.1410901206
 20
35.1584669
 30
0.0
 10
30.3951316882
 20
35.2495893226
 30
0.0
 10
30.6568986861
 20
35.3153228838
 30
0.0
 10
30.9238083674
 20
35.3550002838
 30
0.0
 10
31.1035535239
 20
35.3638591051
 30
0.0
 10
31.1933487174
 20
35.3638591051
 30
0.0
  0
SPLINE
  5
267
100
AcDbEntity
  8
0
100
AcDbSpline
 62
7
  6
BYLAYER
 70
0
 71
3
 72
11
 73
7
 74
0
 42
0.0000001
 43
0.0000001
 44
0.0000000001
 40
0.0
 40
0.0
 40
0.0
 40
0.0
 40
0.2341495902
 40
0.4818022086
 40
0.738594512
 40
1.0
 40
1.0
 40
1.0
 40
1.0
 10
30.7258312061
 20
30.3848667747
 30
0.0
 10
30.7175882408
 20
30.5587005272
 30
0.0
 10
30.7032714345
 20
30.9165211689
 30
0.0
 10
30.6881615305
 20
31.4652773147
 30
0.0
 10
30.6789818127
 20
32.0344244397
 30
0.0
 10
30.6769350908
 20
32.4195723844
 30
0.0
 10
30.6769350908
 20
32.6138591051
 30
0.0
  0
SPLINE
  5
268
100
AcDbEntity
  8
0
100
AcDbSpline
 62
7
  6
BYLAYER
 70
0
 71
3
 72
23
 73
19
 74
0
 42
0.0000001
 43
0.0000001
 44
0.0000000001
 40
0.0
 40
0.0
 40
0.0
 40
0.0
 40
0.0625921818
 40
0.1252004275
 40
0.1877857584
 40
0.2503636911
 40
0.3129283665
 40
0.3754757425
 40
0.4380051828
 40
0.5005151328
 40
0.5630052478
 40
0.6254760714
 40
0.6879285711
 40
0.7503643557
 40
0.8127864157
 40
0.8751983599
 40
0.9375987946
 40
1.0
 40
1.0
 40
1.0
 40
1.0
 10
33.9344795796
 20
32.6138591051
 30
0.0
 10
33.9344795796
 20
32.7038039163
 30
0.0
 10
33.9256567114
 20
32.8838400273
 30
0.0
 10
33.8861400036
 20
33.1511931861
 30
0.0
 10
33.8206688267
 20
33.4134075884
 30
0.0
 10
33.7299037565
 20
33.6679007089
 30
0.0
 10
33.614710845
 20
33.9122516597
 30
0.0
 10
33.4762012953
 20
34.1441012126
 30
0.0
 10
33.3157034712
 20
34.3612128524
 30
0.0
 10
33.1347637817
 20
34.5614962998
 30
0.0
 10
32.9351308291
 20
34.7430288655
 30
0.0
 10
32.7187198196
 20
34.9040554413
 30
0.0
 10
32.4876146798
 20
35.0430215199
 30
0.0
 10
32.2440468368
 20
35.1585999995
 30
0.0
 10
31.9903585132
 20
35.2496716282
 30
0.0
 10
31.7289869601
 20
35.315344783
 30
0.0
 10
31.4624845134
 20
35.3550170942
 30
0.0
 10
31.283019096
 20
35.3638617512
 30
0.0
 10
31.1933487174
 20
35.3638593417
 30
0.0
  0
SPLINE
  5
269
100
AcDbEntity
  8
0
100
AcDbSpline
 62
7
  6
BYLAYER
 70
0
 71
3
 72
15
 73
11
 74
0
 42
0.0000001
 43
0.0000001
 44
0.0000000001
 40
0.0
 40
0.0
 40
0.0
 40
0.0
 40
0.1248042938
 40
0.2496464496
 40
0.3745542912
 40
0.4995290747
 40
0.6245725535
 40
0.7496782452
 40
0.874823534
 40
1.0
 40
1.0
 40
1.0
 40
1.0
 10
30.7258360593
 20
34.8429604337
 30
0.0
 10
30.5969936886
 20
34.8197654683
 30
0.0
 10
30.3427716462
 20
34.7506724579
 30
0.0
 10
29.9856077867
 20
34.5824566778
 30
0.0
 10
29.6627907067
 20
34.3546775314
 30
0.0
 10
29.3842444936
 20
34.0742340792
 30
0.0
 10
29.1583396411
 20
33.749634497
 30
0.0
 10
28.9919300597
 20
33.3906546195
 30
0.0
 10
28.8900167707
 20
33.0083083613
 30
0.0
 10
28.8671441164
 20
32.7451630658
 30
0.0
 10
28.8671441164
 20
32.6138591051
 30
0.0
  0
SPLINE
  5
26A
100
AcDbEntity
  8
0
100
AcDbSpline
 62
7
  6
BYLAYER
 70
0
 71
3
 72
15
 73
11
 74
0
 42
0.0000001
 43
0.0000001
 44
0.0000000001
 40
0.0
 40
0.0
 40
0.0
 40
0.0
 40
0.1248033617
 40
0.2496450555
 40
0.3745529318
 40
0.4995280322
 40
0.6245719638
 40
0.7496780874
 40
0.8748236252
 40
1.0
 40
1.0
 40
1.0
 40
1.0
 10
30.7258347804
 20
30.3847580066
 30
0.0
 10
30.5969934496
 20
30.4079527653
 30
0.0
 10
30.3427738084
 20
30.4770484184
 30
0.0
 10
29.9856111985
 20
30.6452622478
 30
0.0
 10
29.662793633
 20
30.8730401542
 30
0.0
 10
29.3842456697
 20
31.1534826834
 30
0.0
 10
29.1583392507
 20
31.4780824958
 30
0.0
 10
28.9919290665
 20
31.8370631962
 30
0.0
 10
28.8900163165
 20
32.2194100236
 30
0.0
 10
28.8671441164
 20
32.4825553226
 30
0.0
 10
28.8671441164
 20
32.6138591051
 30
0.0
  0
SPLINE
  5
26B
100
AcDbEntity
  8
0
100
AcDbSpline
 62
7
  6
BYLAYER
 70
0
 71
3
 72
23
 73
19
 74
0
 42
0.0000001
 43
0.0000001
 44
0.0000000001
 40
0.0
 40
0.0
 40
0.0
 40
0.0
 40
0.0623987776
 40
0.1248020844
 40
0.1872132866
 40
0.2496357371
 40
0.3120725233
 40
0.37452572
 40
0.4369971592
 40
0.4994880195
 40
0.5619983988
 40
0.6245278254
 40
0.6870752765
 40
0.7496399534
 40
0.8122162905
 40
0.8748011274
 40
0.9374111726
 40
1.0
 40
1.0
 40
1.0
 40
1.0
 10
31.2346410226
 20
29.8641744627
 30
0.0
 10
31.323439906
 20
29.8655153995
 30
0.0
 10
31.5010347154
 20
29.8768754909
 30
0.0
 10
31.7644189882
 20
29.9197657096
 30
0.0
 10
32.0224311709
 20
29.9881192054
 30
0.0
 10
32.2726058557
 20
30.0812676431
 30
0.0
 10
32.51258485
 20
30.1983451244
 30
0.0
 10
32.7400951669
 20
30.3382473969
 30
0.0
 10
32.9529986462
 20
30.4996372102
 30
0.0
 10
33.149273888
 20
30.6810046319
 30
0.0
 10
33.3270672206
 20
30.8806323378
 30
0.0
 10
33.4847119113
 20
31.0966248926
 30
0.0
 10
33.6207042304
 20
31.3269552682
 30
0.0
 10
33.7337603656
 20
31.5694418428
 30
0.0
 10
33.8228304254
 20
31.8217814148
 30
0.0
 10
33.8870624971
 20
32.0816307293
 30
0.0
 10
33.9258222921
 20
32.3464707422
 30
0.0
 10
33.9344795796
 20
32.5247796094
 30
0.0
 10
33.9344795796
 20
32.6138591051
 30
0.0
  0
SPLINE
  5
26C
100
AcDbEntity
  8
0
100
AcDbSpline
 62
7
  6
BYLAYER
 70
0
 71
3
 72
15
 73
11
 74
0
 42
0.0000001
 43
0.0000001
 44
0.0000000001
 40
0.0
 40
0.0
 40
0.0
 40
0.0
 40
0.1251763748
 40
0.2503219126
 40
0.3754280362
 40
0.5004719679
 40
0.6254470683
 40
0.7503549448
 40
0.8751966385
 40
1.0
 40
1.0
 40
1.0
 40
1.0
 10
33.3819478895
 20
32.6138591051
 30
0.0
 10
33.3819478895
 20
32.4825553456
 30
0.0
 10
33.3590756975
 20
32.2194100929
 30
0.0
 10
33.2571629829
 20
31.8370633285
 30
0.0
 10
33.0907528557
 20
31.4780826789
 30
0.0
 10
32.8648465112
 20
31.1534828997
 30
0.0
 10
32.5862986359
 20
30.8730403814
 30
0.0
 10
32.2634811654
 20
30.645262462
 30
0.0
 10
31.9063186532
 20
30.4770485881
 30
0.0
 10
31.6520990722
 20
30.4079528946
 30
0.0
 10
31.5232577705
 20
30.3847581047
 30
0.0
  0
SPLINE
  5
26D
100
AcDbEntity
  8
0
100
AcDbSpline
 62
7
  6
BYLAYER
 70
0
 71
3
 72
11
 73
7
 74
0
 42
0.0000001
 43
0.0000001
 44
0.0000000001
 40
0.0
 40
0.0
 40
0.0
 40
0.0
 40
0.2976691839
 40
0.5665700473
 40
0.8020115373
 40
1.0
 40
1.0
 40
1.0
 40
1.0
 10
30.7258312061
 20
30.3848667747
 30
0.0
 10
30.7275524493
 20
30.3485679196
 30
0.0
 10
30.7312835395
 20
30.2794985634
 30
0.0
 10
30.7381863061
 20
30.1818259765
 30
0.0
 10
30.7460211634
 20
30.0964378333
 30
0.0
 10
30.75229966
 20
30.0438847872
 30
0.0
 10
30.7557218592
 20
30.019957724
 30
0.0
  0
SPLINE
  5
26E
100
AcDbEntity
  8
0
100
AcDbSpline
 62
7
  6
BYLAYER
 70
0
 71
3
 72
11
 73
7
 74
0
 42
0.0000001
 43
0.0000001
 44
0.0000000001
 40
0.0
 40
0.0
 40
0.0
 40
0.0
 40
0.2614152214
 40
0.5182143953
 40
0.7658651795
 40
1.0
 40
1.0
 40
1.0
 40
1.0
 10
30.6769350908
 20
32.6138591051
 30
0.0
 10
30.6769350908
 20
32.8081536612
 30
0.0
 10
30.6789819483
 20
33.1933151395
 30
0.0
 10
30.6881623006
 20
33.7624749937
 30
0.0
 10
30.7032722301
 20
34.311225605
 30
0.0
 10
30.7175894566
 20
34.6690349858
 30
0.0
 10
30.7258319275
 20
34.8428583109
 30
0.0
  0
SPLINE
  5
26F
100
AcDbEntity
  8
0
100
AcDbSpline
 62
7
  6
BYLAYER
 70
0
 71
3
 72
15
 73
11
 74
0
 42
0.0000001
 43
0.0000001
 44
0.0000000001
 40
0.0
 40
0.0
 40
0.0
 40
0.0
 40
0.1251764661
 40
0.2503217579
 40
0.3754274468
 40
0.500470909
 40
0.6254456642
 40
0.750353483
 40
0.8751956411
 40
1.0
 40
1.0
 40
1.0
 40
1.0
 10
33.3819478895
 20
32.6138591051
 30
0.0
 10
33.3819478895
 20
32.7451630666
 30
0.0
 10
33.3590751904
 20
33.0083083657
 30
0.0
 10
33.2571618457
 20
33.3906546076
 30
0.0
 10
33.0907522879
 20
33.7496344741
 30
0.0
 10
32.8648475312
 20
34.0742340602
 30
0.0
 10
32.5863014379
 20
34.3546775359
 30
0.0
 10
32.2634844241
 20
34.5824566932
 30
0.0
 10
31.9063205175
 20
34.7506725042
 30
0.0
 10
31.652098385
 20
34.8197654552
 30
0.0
 10
31.5232559465
 20
34.8429604337
 30
0.0
  0
SPLINE
  5
270
100
AcDbEntity
  8
0
100
AcDbSpline
 62
7
  6
BYLAYER
 70
0
 71
3
 72
11
 73
7
 74
0
 42
0.0000001
 43
0.0000001
 44
0.0000000001
 40
0.0
 40
0.0
 40
0.0
 40
0.0
 40
0.2976318843
 40
0.5665888357
 40
0.8020681437
 40
1.0
 40
1.0
 40
1.0
 40
1.0
 10
30.7258319275
 20
34.8428583109
 30
0.0
 10
30.7275529102
 20
34.8791516731
 30
0.0
 10
30.7312879293
 20
34.9482213208
 30
0.0
 10
30.7381878414
 20
35.0458983825
 30
0.0
 10
30.7460163513
 20
35.1312895648
 30
0.0
 10
30.7523007276
 20
35.1838382001
 30
0.0
 10
30.7557218592
 20
35.2077577999
 30
0.0
  0
SPLINE
  5
271
100
AcDbEntity
  8
0
100
AcDbSpline
 62
7
  6
BYLAYER
 70
0
 71
3
 72
15
 73
11
 74
0
 42
0.0000001
 43
0.0000001
 44
0.0000000001
 40
0.0
 40
0.0
 40
0.0
 40
0.0
 40
0.1248883398
 40
0.2497958783
 40
0.3747217613
 40
0.4996845348
 40
0.6246892807
 40
0.7497427705
 40
0.8748465774
 40
1.0
 40
1.0
 40
1.0
 40
1.0
 10
31.2988797611
 20
35.6138591051
 30
0.0
 10
31.4239895432
 20
35.6138591051
 30
0.0
 10
31.6745142044
 20
35.5980592031
 30
0.0
 10
32.044144659
 20
35.5273499378
 30
0.0
 10
32.4020918656
 20
35.4107268331
 30
0.0
 10
32.7426372003
 20
35.2500482303
 30
0.0
 10
33.060434189
 20
35.0478366982
 30
0.0
 10
33.350483896
 20
34.8072707383
 30
0.0
 10
33.608174757
 20
34.5322023239
 30
0.0
 10
33.7557699182
 20
34.3285907384
 30
0.0
 10
33.8228488162
 20
34.222669088
 30
0.0
  0
SPLINE
  5
272
100
AcDbEntity
  8
0
100
AcDbSpline
 62
7
  6
BYLAYER
 70
0
 71
3
 72
15
 73
11
 74
0
 42
0.0000001
 43
0.0000001
 44
0.0000000001
 40
0.0
 40
0.0
 40
0.0
 40
0.0
 40
0.1251530477
 40
0.2502564714
 40
0.3753096544
 40
0.5003142999
 40
0.6252772555
 40
0.7502033889
 40
0.8751114225
 40
1.0
 40
1.0
 40
1.0
 40
1.0
 10
33.8228995972
 20
31.0051292929
 30
0.0
 10
33.7558221478
 20
30.8992024954
 30
0.0
 10
33.6082288082
 20
30.6955806913
 30
0.0
 10
33.3505377537
 20
30.4204975828
 30
0.0
 10
33.0604848988
 20
30.1799179805
 30
0.0
 10
32.7426818746
 20
29.9776941373
 30
0.0
 10
32.4021278337
 20
29.8170052728
 30
0.0
 10
32.0441697195
 20
29.7003741374
 30
0.0
 10
31.6745270185
 20
29.6296601689
 30
0.0
 10
31.423993722
 20
29.6138591051
 30
0.0
 10
31.2988797611
 20
29.6138591051
 30
0.0
  0
SPLINE
  5
273
100
AcDbEntity
  8
0
100
AcDbSpline
 62
7
  6
BYLAYER
 70
0
 71
3
 72
39
 73
35
 74
0
 42
0.0000001
 43
0.0000001
 44
0.0000000001
 40
0.0
 40
0.0
 40
0.0
 40
0.0
 40
0.0311965562
 40
0.062402939
 40
0.093606711
 40
0.1248179007
 40
0.1560359388
 40
0.1872619574
 40
0.2184973911
 40
0.2497425095
 40
0.2809974541
 40
0.3122620846
 40
0.3435358716
 40
0.3748179039
 40
0.406106954
 40
0.4374015514
 40
0.4686999194
 40
0.5000001418
 40
0.5313003362
 40
0.5625986266
 40
0.5938931199
 40
0.6251820637
 40
0.6564640008
 40
0.6877377074
 40
0.7190022615
 40
0.7502571267
 40
0.7815021729
 40
0.8127375669
 40
0.8439635932
 40
0.8751816957
 40
0.9063929682
 40
0.9375968436
 40
0.9688033832
 40
1.0
 40
1.0
 40
1.0
 40
1.0
 10
31.2346806685
 20
35.6138591051
 30
0.0
 10
31.1368711412
 20
35.6138591051
 30
0.0
 10
30.9410851876
 20
35.6042040554
 30
0.0
 10
30.6503518313
 20
35.5609466853
 30
0.0
 10
30.3652105388
 20
35.4892834789
 30
0.0
 10
30.0884636644
 20
35.3899410494
 30
0.0
 10
29.8227523378
 20
35.2638558196
 30
0.0
 10
29.5706410848
 20
35.1122515747
 30
0.0
 10
29.3345540109
 20
34.9365905609
 30
0.0
 10
29.1167716632
 20
34.7385554443
 30
0.0
 10
28.9193871787
 20
34.5200609005
 30
0.0
 10
28.7442975611
 20
34.2832131649
 30
0.0
 10
28.5931929379
 20
34.030289169
 30
0.0
 10
28.4675312741
 20
33.7637237479
 30
0.0
 10
28.3685147305
 20
33.4860875903
 30
0.0
 10
28.2970964336
 20
33.2000530736
 30
0.0
 10
28.2539728581
 20
32.9083729749
 30
0.0
 10
28.2395537171
 20
32.6138578733
 30
0.0
 10
28.2539730119
 20
32.3193430176
 30
0.0
 10
28.2970967971
 20
32.0276636184
 30
0.0
 10
28.3685149203
 20
31.7416299977
 30
0.0
 10
28.4675311603
 20
31.4639947487
 30
0.0
 10
28.5931924387
 20
31.1974301306
 30
0.0
 10
28.7442964593
 20
30.9445067016
 30
0.0
 10
28.9193854658
 20
30.7076594333
 30
0.0
 10
29.1167693233
 20
30.4891652938
 30
0.0
 10
29.3345509301
 20
30.2911302674
 30
0.0
 10
29.5706374432
 20
30.1154690416
 30
0.0
 10
29.8227486298
 20
29.9638644786
 30
0.0
 10
30.0884602429
 20
29.8377787364
 30
0.0
 10
30.3652076694
 20
29.7384355075
 30
0.0
 10
30.650349976
 20
29.6667718634
 30
0.0
 10
30.9410843208
 20
29.6235143107
 30
0.0
 10
31.1368709513
 20
29.6138591051
 30
0.0
 10
31.2346806685
 20
29.6138591051
 30
0.0
  0
SPLINE
  5
274
100
AcDbEntity
  8
0
100
AcDbSpline
 62
7
  6
BYLAYER
 70
0
 71
3
 72
39
 73
35
 74
0
 42
0.0000001
 43
0.0000001
 44
0.0000000001
 40
0.0
 40
0.0
 40
0.0
 40
0.0
 40
0.0311965562
 40
0.062402939
 40
0.093606711
 40
0.1248179007
 40
0.1560359388
 40
0.1872619574
 40
0.2184973911
 40
0.2497425095
 40
0.2809974541
 40
0.3122620846
 40
0.3435358716
 40
0.3748179039
 40
0.406106954
 40
0.4374015514
 40
0.4686999194
 40
0.5000001418
 40
0.5313003362
 40
0.5625986266
 40
0.5938931199
 40
0.6251820637
 40
0.6564640008
 40
0.6877377074
 40
0.7190022615
 40
0.7502571267
 40
0.7815021729
 40
0.8127375669
 40
0.8439635932
 40
0.8751816957
 40
0.9063929682
 40
0.9375968436
 40
0.9688033832
 40
1.0
 40
1.0
 40
1.0
 40
1.0
 10
31.2346806685
 20
29.6138591051
 30
0.0
 10
31.3324901959
 20
29.6138591051
 30
0.0
 10
31.5282761494
 20
29.6235141547
 30
0.0
 10
31.8190095057
 20
29.6667715248
 30
0.0
 10
32.1041507982
 20
29.7384347312
 30
0.0
 10
32.3808976727
 20
29.8377771607
 30
0.0
 10
32.6466089992
 20
29.9638623905
 30
0.0
 10
32.8987202523
 20
30.1154666354
 30
0.0
 10
33.1348073261
 20
30.2911276493
 30
0.0
 10
33.3525896738
 20
30.4891627658
 30
0.0
 10
33.5499741583
 20
30.7076573096
 30
0.0
 10
33.725063776
 20
30.9445050452
 30
0.0
 10
33.8761683992
 20
31.1974290411
 30
0.0
 10
34.0018300629
 20
31.4639944622
 30
0.0
 10
34.1008466065
 20
31.7416306198
 30
0.0
 10
34.1722649034
 20
32.0276651365
 30
0.0
 10
34.215388479
 20
32.3193452352
 30
0.0
 10
34.22980762
 20
32.6138603368
 30
0.0
 10
34.2153883251
 20
32.9083751925
 30
0.0
 10
34.1722645399
 20
33.2000545917
 30
0.0
 10
34.1008464167
 20
33.4860882124
 30
0.0
 10
34.0018301767
 20
33.7637234614
 30
0.0
 10
33.8761688984
 20
34.0302880795
 30
0.0
 10
33.7250648778
 20
34.2832115085
 30
0.0
 10
33.5499758712
 20
34.5200587768
 30
0.0
 10
33.3525920138
 20
34.7385529163
 30
0.0
 10
33.1348104069
 20
34.9365879427
 30
0.0
 10
32.8987238938
 20
35.1122491685
 30
0.0
 10
32.6466127072
 20
35.2638537315
 30
0.0
 10
32.3809010941
 20
35.3899394737
 30
0.0
 10
32.1041536676
 20
35.4892827026
 30
0.0
 10
31.819011361
 20
35.5609463467
 30
0.0
 10
31.5282770163
 20
35.6042038994
 30
0.0
 10
31.3324903858
 20
35.6138591051
 30
0.0
 10
31.2346806685
 20
35.6138591051
 30
0.0
  0
SPLINE
  5
275
100
AcDbEntity
  8
0
100
AcDbSpline
 62
7
  6
BYLAYER
 70
0
 71
3
 72
27
 73
23
 74
0
 42
0.0000001
 43
0.0000001
 44
0.0000000001
 40
0.0
 40
0.0
 40
0.0
 40
0.0
 40
0.0623852411
 40
0.0936147445
 40
0.1248533085
 40
0.1873019739
 40
0.2497806601
 40
0.2810568173
 40
0.3123401898
 40
0.3748773681
 40
0.4374324978
 40
0.4999976961
 40
0.5625627298
 40
0.6251173034
 40
0.6876538274
 40
0.7189371042
 40
0.7502132643
 40
0.8126927563
 40
0.8751430126
 40
0.9063824852
 40
0.937612812
 40
1.0
 40
1.0
 40
1.0
 40
1.0
 10
28.2761565443
 20
34.1358439712
 30
0.0
 10
28.1967687134
 20
34.1100153148
 30
0.0
 10
28.080424131
 20
34.0617509001
 30
0.0
 10
27.9346331221
 20
33.9798905454
 30
0.0
 10
27.7955853534
 20
33.8868207422
 30
0.0
 10
27.636142338
 20
33.7503140801
 30
0.0
 10
27.4999942203
 20
33.5904975059
 30
0.0
 10
27.4071347581
 20
33.451122272
 30
0.0
 10
27.3253951219
 20
33.3048613206
 30
0.0
 10
27.2451480011
 20
33.1105856935
 30
0.0
 10
27.1864330083
 20
32.8653901964
 30
0.0
 10
27.1666680034
 20
32.613971111
 30
0.0
 10
27.1863972853
 20
32.3625498854
 30
0.0
 10
27.2450788489
 20
32.117348249
 30
0.0
 10
27.3252983971
 20
31.9230632186
 30
0.0
 10
27.4070164223
 20
31.7767913865
 30
0.0
 10
27.4998549691
 20
31.6374010467
 30
0.0
 10
27.6359841432
 20
31.4775638413
 30
0.0
 10
27.7954120275
 20
31.3410328853
 30
0.0
 10
27.9344501907
 20
31.2479407626
 30
0.0
 10
28.0802339361
 20
31.1660573028
 30
0.0
 10
28.1965761401
 20
31.1177772553
 30
0.0
 10
28.2759630847
 20
31.0919374559
 30
0.0
  0
SPLINE
  5
276
100
AcDbEntity
  8
0
100
AcDbSpline
 62
7
  6
BYLAYER
 70
0
 71
3
 72
29
 73
25
 74
0
 42
0.0000001
 43
0.0000001
 44
0.0000000001
 40
0.0
 40
0.0
 40
0.0
 40
0.0
 40
0.062367349
 40
0.0936082397
 40
0.1248399196
 40
0.1872511894
 40
0.2497027437
 40
0.2809799093
 40
0.3122673698
 40
0.3435649309
 40
0.374870407
 40
0.4374263363
 40
0.4999971433
 40
0.5625677088
 40
0.625123022
 40
0.6564282358
 40
0.6877257277
 40
0.7190132946
 40
0.7502909691
 40
0.8127441462
 40
0.8751570781
 40
0.9063898404
 40
0.9376318402
 40
1.0
 40
1.0
 40
1.0
 40
1.0
 10
33.9901718804
 20
34.2138591051
 30
0.0
 10
34.0943800444
 20
34.2138591051
 30
0.0
 10
34.2513519632
 20
34.198327819
 30
0.0
 10
34.4538847943
 20
34.1474195421
 30
0.0
 10
34.6505752079
 20
34.0768277539
 30
0.0
 10
34.8820069495
 20
33.9527373875
 30
0.0
 10
35.0847609412
 20
33.7857234089
 30
0.0
 10
35.2249839912
 20
33.6305176891
 30
0.0
 10
35.318352628
 20
33.5041844338
 30
0.0
 10
35.3989558175
 20
33.3692923555
 30
0.0
 10
35.4882551905
 20
33.1798861057
 30
0.0
 10
35.5644679406
 20
32.9279610412
 30
0.0
 10
35.5952755476
 20
32.6138742261
 30
0.0
 10
35.5644738875
 20
32.2997882013
 30
0.0
 10
35.4882685572
 20
32.0478624814
 30
0.0
 10
35.3989700548
 20
31.8584576921
 30
0.0
 10
35.3183727901
 20
31.7235625399
 30
0.0
 10
35.2250044511
 20
31.5972278304
 30
0.0
 10
35.0847830655
 20
31.4420156529
 30
0.0
 10
34.8820259753
 20
31.274995108
 30
0.0
 10
34.6505899523
 20
31.1508973201
 30
0.0
 10
34.4538940977
 20
31.08030135
 30
0.0
 10
34.2513564452
 20
31.0293916471
 30
0.0
 10
34.0943813992
 20
31.0138591051
 30
0.0
 10
33.9901718804
 20
31.0138591051
 30
0.0
  0
SPLINE
  5
277
100
AcDbEntity
  8
0
100
AcDbSpline
 62
7
  6
BYLAYER
 70
0
 71
3
 72
29
 73
25
 74
0
 42
0.0000001
 43
0.0000001
 44
0.0000000001
 40
0.0
 40
0.0
 40
0.0
 40
0.0
 40
0.062367349
 40
0.0936082397
 40
0.1248399196
 40
0.1872511894
 40
0.2497027437
 40
0.2809799093
 40
0.3122673698
 40
0.3435649309
 40
0.374870407
 40
0.4374263363
 40
0.4999971433
 40
0.5625677088
 40
0.625123022
 40
0.6564282358
 40
0.6877257277
 40
0.7190132946
 40
0.7502909691
 40
0.8127441462
 40
0.8751570781
 40
0.9063898404
 40
0.9376318402
 40
1.0
 40
1.0
 40
1.0
 40
1.0
 10
28.6075876418
 20
31.0138591051
 30
0.0
 10
28.5033794779
 20
31.0138591051
 30
0.0
 10
28.3464075591
 20
31.0293903911
 30
0.0
 10
28.1438747279
 20
31.080298668
 30
0.0
 10
27.9471843144
 20
31.1508904562
 30
0.0
 10
27.7157525727
 20
31.2749808226
 30
0.0
 10
27.512998581
 20
31.4419948012
 30
0.0
 10
27.3727755311
 20
31.597200521
 30
0.0
 10
27.2794068942
 20
31.7235337763
 30
0.0
 10
27.1988037047
 20
31.8584258546
 30
0.0
 10
27.1095043318
 20
32.0478321044
 30
0.0
 10
27.0332915817
 20
32.2997571689
 30
0.0
 10
27.0024839747
 20
32.613843984
 30
0.0
 10
27.0332856348
 20
32.9279300088
 30
0.0
 10
27.1094909651
 20
33.1798557287
 30
0.0
 10
27.1987894674
 20
33.369260518
 30
0.0
 10
27.2793867322
 20
33.5041556702
 30
0.0
 10
27.3727550712
 20
33.6304903797
 30
0.0
 10
27.5129764568
 20
33.7857025572
 30
0.0
 10
27.715733547
 20
33.9527231021
 30
0.0
 10
27.9471695699
 20
34.07682089
 30
0.0
 10
28.1438654246
 20
34.1474168601
 30
0.0
 10
28.3464030771
 20
34.1983265631
 30
0.0
 10
28.503378123
 20
34.2138591051
 30
0.0
 10
28.6075876418
 20
34.2138591051
 30
0.0
  0
ENDSEC
  0
SECTION
  2
OBJECTS
  0
DICTIONARY
  5
C
100
AcDbDictionary
280
0
281
1
  3
ACAD_GROUP
350
D
  3
ACAD_MLINESTYLE
350
17
  3
ACAD_LAYOUT
350
1A
  3
ACAD_PLOTSETTINGS
350
19
  3
ACAD_PLOTSTYLENAME
350
E
  0
DICTIONARY
  5
D
102
{ACAD_REACTORS
330
C
102
}
100
AcDbDictionary
280
0
281
1
  0
ACDBDICTIONARYWDFLT
  5
E
102
{ACAD_REACTORS
330
C
102
}
100
AcDbDictionary
281
1
  3
Normal
350
F
100
AcDbDictionaryWithDefault
340
F
  0
DICTIONARY
  5
17
102
{ACAD_REACTORS
330
C
102
}
100
AcDbDictionary
280
0
281
1
  3
Standard
350
18
  0
DICTIONARY
  5
19
102
{ACAD_REACTORS
330
C
102
}
100
AcDbDictionary
281
1
  0
DICTIONARY
  5
1A
102
{ACAD_REACTORS
330
C
102
}
100
AcDbDictionary
281
1
  3
Model
350
278
  3
Layout1
350
279
  0
ACDBPLACEHOLDER
  5
F
102
{ACAD_REACTORS
330
E
102
}
  0
MLINESTYLE
  5
18
102
{ACAD_REACTORS
330
17
102
}
100
AcDbMlineStyle
  2
STANDARD
 70
0
  3

 62
256
 51
90.0
 52
90.0
 71
2
 49
0.5
 62
256
  6
BYLAYER
 49
-0.5
 62
256
  6
BYLAYER
  0
LAYOUT
  5
278
102
{ACAD_REACTORS
330
1A
102
}
100
AcDbPlotSettings
  1

  2
none_device
  4

  6

 40
0.0
 41
0.0
 42
0.0
 43
0.0
 44
210.0
 45
297.0
 46
0.0
 47
0.0
 48
0.0
 49
0.0
140
0.0
141
0.0
142
1.0
143
1.0
 70
1024
 72
1
 73
0
 74
0
  7

 75
0
147
1.0
148
0.0
149
0.0
100
AcDbLayout
  1
Model
 70
0
 71
0
 10
0.0
 20
0.0
 11
210.0
 21
297.0
 12
0.0
 22
0.0
 32
0.0
 14
0.0
 24
0.0
 34
0.0
 15
0.0
 25
0.0
 35
0.0
146
0.0
 13
0.0
 23
0.0
 33
0.0
 16
1.0
 26
0.0
 36
0.0
 17
0.0
 27
1.0
 37
0.0
 76
0
330
210
345
0
346
0
  0
LAYOUT
  5
279
102
{ACAD_REACTORS
330
1A
102
}
100
AcDbPlotSettings
  1

  2
none_device
  4

  6

 40
0.0
 41
0.0
 42
0.0
 43
0.0
 44
210.0
 45
297.0
 46
0.0
 47
0.0
 48
0.0
 49
0.0
140
0.0
141
0.0
142
1.0
143
1.0
 70
0
 72
1
 73
0
 74
0
  7

 75
0
147
1.0
148
0.0
149
0.0
100
AcDbLayout
  1
Layout1
 70
0
 71
1
 10
0.0
 20
0.0
 11
210.0
 21
297.0
 12
0.0
 22
0.0
 32
0.0
 14
0.0
 24
0.0
 34
0.0
 15
0.0
 25
0.0
 35
0.0
146
0.0
 13
0.0
 23
0.0
 33
0.0
 16
1.0
 26
0.0
 36
0.0
 17
0.0
 27
1.0
 37
0.0
 76
0
330
211
345
0
346
0
  0
ENDSEC
  0
EOF
