999
DXF file: C:\Users\sesa63760\Dev\_Creo\CAD\MCADID0004754_3D-CAD\drw0001_3.dxf
999
Pro/ENGINEER 2019471 by Parametric Technology Corporation
  0
SECTION
  2
HEADER
  9
$ACADVER
  1
AC1024
  9
$DWGCODEPAGE
  3
ANSI_1252
  9
$EXTMAX
 10
55.1763477223
 20
78.0351203501
 30
0.0
  9
$EXTMIN
 10
0.0
 20
0.0
 30
0.0
  9
$LIMMIN
 10
0.0
 20
0.0
  9
$LIMMAX
 10
55.1763477223
 20
78.0351203501
  9
$VIEWCTR
 10
27.5881738611
 20
39.0175601751
  9
$VIEWSIZE
 40
78.0351203501
  9
$CLAYER
  8
0
  9
$LTSCALE
 40
5.086733771
  9
$CELTYPE
  6
BYLAYER
  9
$DIMSCALE
 40
1.0
  9
$DIMASZ
 40
0.6568612824
  9
$DIMEXO
 40
1.0
  9
$DIMDLI
 40
3.5144706054
  9
$DIMEXE
 40
1.0
  9
$DIMCEN
 40
0.8323746171
  9
$DIMLFAC
 40
1.0
  9
$DIMBLK
  1
_FILLED
  9
$DIMALT
 70
0
  9
$DIMALTF
 40
0.0393700787
  9
$DIMTXT
 40
0.9196057954
  9
$DIMTOL
 70
1
  9
$DIMLIM
 70
0
  9
$DIMTFAC
 40
1.0
  9
$DIMTP
 40
0.01
  9
$DIMTM
 40
0.01
  9
$DIMGAP
 40
0.625
  9
$DIMDSEP
 70
46
  9
$AUNITS
 70
0
  9
$PDMODE
 70
3
  9
$PDSIZE
 40
0.3125
  9
$HANDSEED
  5
2D3
  9
$TILEMODE
 70
1
  9
$MEASUREMENT
 70
1
  9
$INSUNITS
 70
4
  0
ENDSEC
  0
SECTION
  2
CLASSES
  0
CLASS
  1
ACDBDICTIONARYWDFLT
  2
AcDbDictionaryWithDefault
  3
AutoCAD 2000
 90
0
 91
1
280
0
281
0
  0
CLASS
  1
ACDBPLACEHOLDER
  2
AcDbPlaceHolder
  3
AutoCAD 2000
 90
0
 91
1
280
0
281
0
  0
CLASS
  1
LAYOUT
  2
AcDbLayout
  3
AutoCAD 2000
 90
0
 91
0
280
0
281
0
  0
ENDSEC
  0
SECTION
  2
TABLES
  0
TABLE
  2
VPORT
  5
8
100
AcDbSymbolTable
 70
2
  0
VPORT
  5
1F4
100
AcDbSymbolTableRecord
100
AcDbViewportTableRecord
  2
*ACTIVE
 70
0
 10
0.0
 20
0.0
 11
1.0
 21
1.0
 12
27.5881738611
 22
39.0175601751
 13
0.0
 23
0.0
 14
1.0
 24
1.0
 15
0.0
 25
0.0
 16
0.0
 26
0.0
 36
1.0
 17
0.0
 27
0.0
 37
0.0
 40
78.0351203501
 41
0.7070707071
 42
50.0
 43
0.0
 44
0.0
 50
0.0
 51
0.0
 71
0
 72
100
 73
1
 74
1
 75
0
 76
0
 77
0
 78
0
  0
ENDTAB
  0
TABLE
  2
LTYPE
  5
5
100
AcDbSymbolTable
 70
6
  0
LTYPE
  5
14
100
AcDbSymbolTableRecord
100
AcDbLinetypeTableRecord
  2
BYBLOCK
 70
0
  3

 72
65
 73
0
 40
0.0
  0
LTYPE
  5
15
100
AcDbSymbolTableRecord
100
AcDbLinetypeTableRecord
  2
BYLAYER
 70
0
  3

 72
65
 73
0
 40
0.0
  0
LTYPE
  5
16
100
AcDbSymbolTableRecord
100
AcDbLinetypeTableRecord
  2
CONTINUOUS
 70
64
  3
Solid line
 72
65
 73
0
 40
0.0
  0
LTYPE
  5
1F5
100
AcDbSymbolTableRecord
100
AcDbLinetypeTableRecord
  2
CENTER
 70
64
  3
____ _ ____ _ ____ _ ____ _ ____ _ ____ _ ____
 72
65
 73
4
 40
0.6
 49
0.375
 74
0
 49
-0.075
 74
0
 49
0.075
 74
0
 49
-0.075
 74
0
  0
LTYPE
  5
1F6
100
AcDbSymbolTableRecord
100
AcDbLinetypeTableRecord
  2
HIDDEN
 70
64
  3
- - - - - - - - - - - - - - - - - - - -
 72
65
 73
2
 40
0.2
 49
0.1
 74
0
 49
-0.1
 74
0
  0
LTYPE
  5
1F7
100
AcDbSymbolTableRecord
100
AcDbLinetypeTableRecord
  2
PHANTOM
 70
64
  3
_____ _ _ _____ _ _ _____ _ _ _____
 72
65
 73
6
 40
0.8
 49
0.45
 74
0
 49
-0.05
 74
0
 49
0.1
 74
0
 49
-0.05
 74
0
 49
0.1
 74
0
 49
-0.05
 74
0
  0
LTYPE
  5
1F8
100
AcDbSymbolTableRecord
100
AcDbLinetypeTableRecord
  2
DOT
 70
64
  3
. . . . . . . . . . . . . . . . . . . .
 72
65
 73
2
 40
0.2
 49
0.1
 74
0
 49
-0.1
 74
0
  0
LTYPE
  5
1F9
100
AcDbSymbolTableRecord
100
AcDbLinetypeTableRecord
  2
DASHED
 70
64
  3
- - - - - - - - - - - - - - - - - - - -
 72
65
 73
2
 40
0.2
 49
0.1
 74
0
 49
-0.1
 74
0
  0
ENDTAB
  0
TABLE
  2
LAYER
  5
2
100
AcDbSymbolTable
 70
36
  0
LAYER
  5
10
100
AcDbSymbolTableRecord
100
AcDbLayerTableRecord
  2
0
 70
0
 62
7
  6
CONTINUOUS
370
-3
390
F
  0
LAYER
  5
1FA
100
AcDbSymbolTableRecord
100
AcDbLayerTableRecord
  2
DEFAULT_1
 70
0
 62
7
  6
CENTER
370
-3
390
F
  0
LAYER
  5
1FB
100
AcDbSymbolTableRecord
100
AcDbLayerTableRecord
  2
DEFAULT_2
 70
0
 62
7
  6
HIDDEN
370
-3
390
F
  0
LAYER
  5
1FC
100
AcDbSymbolTableRecord
100
AcDbLayerTableRecord
  2
DEFAULT_3
 70
0
 62
7
  6
PHANTOM
370
-3
390
F
  0
LAYER
  5
1FD
100
AcDbSymbolTableRecord
100
AcDbLayerTableRecord
  2
00_COMPONENTS
 70
0
 62
7
  6
CONTINUOUS
370
-3
390
F
  0
LAYER
  5
1FE
100
AcDbSymbolTableRecord
100
AcDbLayerTableRecord
  2
01_1_DEFAULT_DATUMS
 70
0
 62
7
  6
CONTINUOUS
370
-3
390
F
  0
LAYER
  5
1FF
100
AcDbSymbolTableRecord
100
AcDbLayerTableRecord
  2
01_PLANES
 70
0
 62
7
  6
CONTINUOUS
370
-3
390
F
  0
LAYER
  5
200
100
AcDbSymbolTableRecord
100
AcDbLayerTableRecord
  2
02_COORD_SYS
 70
0
 62
7
  6
CONTINUOUS
370
-3
390
F
  0
LAYER
  5
201
100
AcDbSymbolTableRecord
100
AcDbLayerTableRecord
  2
03_AXES
 70
0
 62
7
  6
CONTINUOUS
370
-3
390
F
  0
LAYER
  5
202
100
AcDbSymbolTableRecord
100
AcDbLayerTableRecord
  2
04_POINTS
 70
0
 62
7
  6
CONTINUOUS
370
-3
390
F
  0
LAYER
  5
203
100
AcDbSymbolTableRecord
100
AcDbLayerTableRecord
  2
05_CURVES
 70
0
 62
7
  6
CONTINUOUS
370
-3
390
F
  0
LAYER
  5
204
100
AcDbSymbolTableRecord
100
AcDbLayerTableRecord
  2
06_SURFS
 70
0
 62
7
  6
CONTINUOUS
370
-3
390
F
  0
LAYER
  5
205
100
AcDbSymbolTableRecord
100
AcDbLayerTableRecord
  2
07_COSMETICS
 70
0
 62
7
  6
CONTINUOUS
370
-3
390
F
  0
LAYER
  5
206
100
AcDbSymbolTableRecord
100
AcDbLayerTableRecord
  2
10_NOTES
 70
0
 62
7
  6
CONTINUOUS
370
-3
390
F
  0
LAYER
  5
207
100
AcDbSymbolTableRecord
100
AcDbLayerTableRecord
  2
11_NOTES_PUB
 70
0
 62
7
  6
CONTINUOUS
370
-3
390
F
  0
LAYER
  5
208
100
AcDbSymbolTableRecord
100
AcDbLayerTableRecord
  2
13_REF_GTOL
 70
0
 62
7
  6
CONTINUOUS
370
-3
390
F
  0
LAYER
  5
209
100
AcDbSymbolTableRecord
100
AcDbLayerTableRecord
  2
16_MISC
 70
0
 62
7
  6
CONTINUOUS
370
-3
390
F
  0
LAYER
  5
20A
100
AcDbSymbolTableRecord
100
AcDbLayerTableRecord
  2
17_NO_PRINT
 70
0
 62
7
  6
CONTINUOUS
370
-3
390
F
  0
LAYER
  5
20B
100
AcDbSymbolTableRecord
100
AcDbLayerTableRecord
  2
18_DATUM_CAMS_JOINTS
 70
0
 62
7
  6
CONTINUOUS
370
-3
390
F
  0
LAYER
  5
20C
100
AcDbSymbolTableRecord
100
AcDbLayerTableRecord
  2
19_DATUM_FUNCTIONAL
 70
0
 62
7
  6
CONTINUOUS
370
-3
390
F
  0
LAYER
  5
20D
100
AcDbSymbolTableRecord
100
AcDbLayerTableRecord
  2
20_DATUM_KINEMATIC_SCHEME
 70
0
 62
7
  6
CONTINUOUS
370
-3
390
F
  0
ENDTAB
  0
TABLE
  2
STYLE
  5
3
100
AcDbSymbolTable
 70
1
  0
STYLE
  5
11
100
AcDbSymbolTableRecord
100
AcDbTextStyleTableRecord
  2
STANDARD
 70
0
 40
0.0
 41
1.0
 50
0.0
 71
0
 42
0.2
  3
ARIAL.TTF
  4

  0
STYLE
  5
20E
100
AcDbSymbolTableRecord
100
AcDbTextStyleTableRecord
  2
TEXTSTYLE_1
 70
0
 40
0.0
 41
0.8
 50
0.0
 71
0
 42
0.2
  3
gdt
  4

  0
ENDTAB
  0
TABLE
  2
VIEW
  5
6
100
AcDbSymbolTable
 70
0
  0
ENDTAB
  0
TABLE
  2
UCS
  5
7
100
AcDbSymbolTable
 70
0
  0
ENDTAB
  0
TABLE
  2
APPID
  5
9
100
AcDbSymbolTable
 70
1
  0
APPID
  5
20F
100
AcDbSymbolTableRecord
100
AcDbRegAppTableRecord
  2
ACAD
 70
0
  0
ENDTAB
  0
TABLE
  2
BLOCK_RECORD
  5
1
100
AcDbSymbolTable
 70
0
  0
BLOCK_RECORD
  5
210
100
AcDbSymbolTableRecord
100
AcDbBlockTableRecord
  2
*Model_Space
  0
BLOCK_RECORD
  5
211
100
AcDbSymbolTableRecord
100
AcDbBlockTableRecord
  2
*Paper_Space
  0
BLOCK_RECORD
  5
212
100
AcDbSymbolTableRecord
100
AcDbBlockTableRecord
  2
_FILLED
  0
ENDTAB
  0
TABLE
  2
DIMSTYLE
  5
A
100
AcDbSymbolTable
 70
1
100
AcDbDimStyleTable
 71
0
  0
DIMSTYLE
105
213
100
AcDbSymbolTableRecord
100
AcDbDimStyleTableRecord
  2
STANDARD
 70
0
  3

  4

 40
1.0
 41
0.6568612824
 42
1.0
 43
0.38
 44
1.0
 45
0.0
 46
0.0
 47
0.01
 48
0.01
140
0.9196057954
141
0.09
142
0.0
143
25.4
144
1.0
145
0.0
146
1.0
147
0.625
 71
1
 72
0
 73
0
 74
0
 75
0
 76
0
 77
1
 78
8
 79
2
170
0
171
1
172
0
173
0
174
0
175
0
176
0
177
0
178
0
270
2
179
2
271
2
272
2
273
2
274
2
275
0
280
0
281
0
282
0
283
1
284
8
285
0
286
0
287
3
288
0
340
11
278
46
341
212
342
212
343
212
344
212
  0
ENDTAB
  0
ENDSEC
  0
SECTION
  2
BLOCKS
  0
BLOCK
  5
20
100
AcDbEntity
  8
0
100
AcDbBlockBegin
  2
*Model_Space
 70
0
 10
0.0
 20
0.0
 30
0.0
  3
*Model_Space
  1

  0
ENDBLK
  5
21
100
AcDbEntity
  8
0
100
AcDbBlockEnd
  0
BLOCK
  5
1C
100
AcDbEntity
  8
0
100
AcDbBlockBegin
  2
*Paper_Space
 70
0
 10
0.0
 20
0.0
 30
0.0
  3
*Paper_Space
  1

  0
ENDBLK
  5
1D
100
AcDbEntity
  8
0
100
AcDbBlockEnd
  0
BLOCK
  5
214
100
AcDbEntity
  8
0
100
AcDbBlockBegin
  2
_FILLED
 70
64
 10
0.0
 20
0.0
  3
_FILLED
  1

  0
SOLID
  5
215
100
AcDbEntity
  8
0
  6
BYBLOCK
 62
0
100
AcDbTrace
 10
0.0
 20
0.0
 11
-1.0
 21
0.25
 12
-1.0
 22
-0.25
 13
-1.0
 23
-0.25
  0
ENDBLK
  5
216
100
AcDbEntity
  8
0
  6
BYBLOCK
 62
0
100
AcDbBlockEnd
  0
ENDSEC
  0
SECTION
  2
ENTITIES
  0
LINE
  5
217
100
AcDbEntity
  8
0
100
AcDbLine
 62
7
  6
BYLAYER
 10
11.4496357962
 20
33.2572812791
 11
11.4843061199
 21
32.4632003136
  0
LINE
  5
218
100
AcDbEntity
  8
0
100
AcDbLine
 62
7
  6
BYLAYER
 10
10.7772876467
 20
41.2085886048
 11
10.7772876467
 21
37.208588626
  0
LINE
  5
219
100
AcDbEntity
  8
0
100
AcDbLine
 62
7
  6
BYLAYER
 10
11.0272876467
 20
42.5085886218
 11
11.0272876467
 21
42.0370157465
  0
LINE
  5
21A
100
AcDbEntity
  8
0
100
AcDbLine
 62
7
  6
BYLAYER
 10
11.0272876467
 20
35.9085886218
 11
11.0272876467
 21
41.9347621268
  0
LINE
  5
21B
100
AcDbEntity
  8
0
100
AcDbLine
 62
7
  6
BYLAYER
 10
11.2272876467
 20
42.7085886218
 11
11.2272876467
 21
41.4085886218
  0
LINE
  5
21C
100
AcDbEntity
  8
0
100
AcDbLine
 62
7
  6
BYLAYER
 10
11.2272876467
 20
35.7085886218
 11
11.2272876467
 21
37.0085886218
  0
LINE
  5
21D
100
AcDbEntity
  8
0
100
AcDbLine
 62
7
  6
BYLAYER
 10
11.4843061199
 20
45.9539769299
 11
11.4496357962
 21
45.1598959645
  0
LINE
  5
21E
100
AcDbEntity
  8
0
100
AcDbLine
 62
7
  6
BYLAYER
 10
10.9593989357
 20
41.9155772007
 11
10.9738247443
 21
41.9676331616
  0
LINE
  5
21F
100
AcDbEntity
  8
0
100
AcDbLine
 62
7
  6
BYLAYER
 10
13.3338281618
 20
46.51171497
 11
13.0948159236
 21
45.7536649974
  0
LINE
  5
220
100
AcDbEntity
  8
0
100
AcDbLine
 62
7
  6
BYLAYER
 10
13.0948159236
 20
32.6635122462
 11
13.3338281618
 21
31.9054622736
  0
LINE
  5
221
100
AcDbEntity
  8
0
100
AcDbLine
 62
7
  6
BYLAYER
 10
13.8772876467
 20
43.4085880764
 11
13.8772876467
 21
44.2085886218
  0
LINE
  5
222
100
AcDbEntity
  8
0
100
AcDbLine
 62
7
  6
BYLAYER
 10
14.5272876464
 20
42.9585886218
 11
14.5272876464
 21
42.7085886218
  0
LINE
  5
223
100
AcDbEntity
  8
0
100
AcDbLine
 62
7
  6
BYLAYER
 10
14.5272876467
 20
35.7085886218
 11
14.5272876467
 21
35.4585886218
  0
LINE
  5
224
100
AcDbEntity
  8
0
100
AcDbLine
 62
7
  6
BYLAYER
 10
15.2646824953
 20
46.5717570184
 11
14.8376166315
 21
45.9013978915
  0
LINE
  5
225
100
AcDbEntity
  8
0
100
AcDbLine
 62
7
  6
BYLAYER
 10
14.8376166315
 20
32.515779352
 11
15.2646824953
 21
31.8454202251
  0
LINE
  5
226
100
AcDbEntity
  8
0
100
AcDbLine
 62
7
  6
BYLAYER
 10
15.1772876467
 20
44.2085886218
 11
15.1772876467
 21
43.4085880466
  0
LINE
  5
227
100
AcDbEntity
  8
0
100
AcDbLine
 62
7
  6
BYLAYER
 10
12.4467656111
 20
35.3076118681
 11
12.5272868232
 21
35.458589061
  0
LINE
  5
228
100
AcDbEntity
  8
0
100
AcDbLine
 62
7
  6
BYLAYER
 10
8.1428493742
 20
37.1766073364
 11
7.6058649597
 21
36.59059168
  0
LINE
  5
229
100
AcDbEntity
  8
0
100
AcDbLine
 62
7
  6
BYLAYER
 10
17.1452845885
 20
46.1300113088
 11
16.5592689321
 21
45.5930268943
  0
LINE
  5
22A
100
AcDbEntity
  8
0
100
AcDbLine
 62
7
  6
BYLAYER
 10
16.5592689321
 20
32.8241503492
 11
17.1452845885
 21
32.2871659347
  0
LINE
  5
22B
100
AcDbEntity
  8
0
100
AcDbLine
 62
7
  6
BYLAYER
 10
7.6058649597
 20
41.8265855636
 11
8.1428493742
 21
41.2405699071
  0
LINE
  5
22C
100
AcDbEntity
  8
0
100
AcDbLine
 62
7
  6
BYLAYER
 10
12.5272861893
 20
42.9585878445
 11
12.411670367
 21
43.1753703238
  0
LINE
  5
22D
100
AcDbEntity
  8
0
100
AcDbLine
 62
7
  6
BYLAYER
 10
17.1772876467
 20
38.4765420094
 11
17.1772876467
 21
39.9406352342
  0
LINE
  5
22E
100
AcDbEntity
  8
0
100
AcDbLine
 62
7
  6
BYLAYER
 10
7.834478377
 20
38.8982596369
 11
7.1641192501
 21
38.4711937731
  0
LINE
  5
22F
100
AcDbEntity
  8
0
100
AcDbLine
 62
7
  6
BYLAYER
 10
7.1641192501
 20
39.9459834704
 11
7.834478377
 21
39.5189176066
  0
LINE
  5
230
100
AcDbEntity
  8
0
100
AcDbLine
 62
7
  6
BYLAYER
 10
17.6049394972
 20
45.1598959645
 11
17.5702691735
 21
45.9539769299
  0
LINE
  5
231
100
AcDbEntity
  8
0
100
AcDbLine
 62
7
  6
BYLAYER
 10
17.5702691735
 20
32.4632003136
 11
17.6049394972
 21
33.2572812791
  0
LINE
  5
232
100
AcDbEntity
  8
0
100
AcDbLine
 62
7
  6
BYLAYER
 10
15.7207471316
 20
31.9054622736
 11
15.9597593699
 21
32.6635122462
  0
LINE
  5
233
100
AcDbEntity
  8
0
100
AcDbLine
 62
7
  6
BYLAYER
 10
15.9597593699
 20
45.7536649974
 11
15.7207471316
 21
46.51171497
  0
LINE
  5
234
100
AcDbEntity
  8
0
100
AcDbLine
 62
7
  6
BYLAYER
 10
13.7898927981
 20
31.8454202251
 11
14.2169586619
 21
32.515779352
  0
LINE
  5
235
100
AcDbEntity
  8
0
100
AcDbLine
 62
7
  6
BYLAYER
 10
14.5272876467
 20
31.2085886218
 11
37.1772876467
 21
31.2085886218
  0
LINE
  5
236
100
AcDbEntity
  8
0
100
AcDbLine
 62
7
  6
BYLAYER
 10
37.8772876467
 20
31.3085886218
 11
37.4272876467
 21
31.3085886218
  0
LINE
  5
237
100
AcDbEntity
  8
0
100
AcDbLine
 62
7
  6
BYLAYER
 10
16.8076944305
 20
31.4943029075
 11
37.1772876467
 21
31.4943029075
  0
LINE
  5
238
100
AcDbEntity
  8
0
100
AcDbLine
 62
7
  6
BYLAYER
 10
14.2169586619
 20
45.9013978915
 11
13.7898927981
 21
46.5717570184
  0
LINE
  5
239
100
AcDbEntity
  8
0
100
AcDbLine
 62
7
  6
BYLAYER
 10
20.9117259193
 20
41.2405699071
 11
21.4487103337
 21
41.8265855636
  0
LINE
  5
23A
100
AcDbEntity
  8
0
100
AcDbLine
 62
7
  6
BYLAYER
 10
11.9092907049
 20
32.2871659347
 11
12.4953063614
 21
32.8241503492
  0
LINE
  5
23B
100
AcDbEntity
  8
0
100
AcDbLine
 62
7
  6
BYLAYER
 10
7.9822112711
 20
40.6410603449
 11
7.2241612985
 21
40.4020481066
  0
LINE
  5
23C
100
AcDbEntity
  8
0
100
AcDbLine
 62
7
  6
BYLAYER
 10
7.2241612985
 20
38.0151291369
 11
7.9822112711
 21
37.7761168986
  0
LINE
  5
23D
100
AcDbEntity
  8
0
100
AcDbLine
 62
7
  6
BYLAYER
 10
12.4953063614
 20
45.5930268943
 11
11.9092907049
 21
46.1300113088
  0
LINE
  5
23E
100
AcDbEntity
  8
0
100
AcDbLine
 62
7
  6
BYLAYER
 10
21.4487103337
 20
36.59059168
 11
20.9117259193
 21
37.1766073364
  0
LINE
  5
23F
100
AcDbEntity
  8
0
100
AcDbLine
 62
7
  6
BYLAYER
 10
15.5949954719
 20
33.5585886218
 11
13.4595798215
 21
33.5585886218
  0
LINE
  5
240
100
AcDbEntity
  8
0
100
AcDbLine
 62
7
  6
BYLAYER
 10
21.2200969165
 20
39.5189176066
 11
21.8904560433
 21
39.9459834704
  0
LINE
  5
241
100
AcDbEntity
  8
0
100
AcDbLine
 62
7
  6
BYLAYER
 10
38.9772876467
 20
35.2085886218
 11
46.8772876467
 21
35.2085886218
  0
LINE
  5
242
100
AcDbEntity
  8
0
100
AcDbLine
 62
7
  6
BYLAYER
 10
12.5272876467
 20
35.4585886218
 11
14.5272876467
 21
35.4585888315
  0
LINE
  5
243
100
AcDbEntity
  8
0
100
AcDbLine
 62
7
  6
BYLAYER
 10
11.2272876467
 20
35.7085886218
 11
14.5272876465
 21
35.7085886218
  0
LINE
  5
244
100
AcDbEntity
  8
0
100
AcDbLine
 62
7
  6
BYLAYER
 10
47.1772876467
 20
35.7085886218
 11
47.8772876467
 21
35.7085886218
  0
LINE
  5
245
100
AcDbEntity
  8
0
100
AcDbLine
 62
7
  6
BYLAYER
 10
15.5149199289
 20
35.9085886218
 11
11.2272876467
 21
35.9085886218
  0
LINE
  5
246
100
AcDbEntity
  8
0
100
AcDbLine
 62
7
  6
BYLAYER
 10
7.7818993386
 20
36.165607095
 11
8.575980304
 21
36.1309367713
  0
LINE
  5
247
100
AcDbEntity
  8
0
100
AcDbLine
 62
7
  6
BYLAYER
 10
17.1772876467
 20
38.4765378142
 11
17.8482919263
 21
38.2967427594
  0
LINE
  5
248
100
AcDbEntity
  8
0
100
AcDbLine
 62
7
  6
BYLAYER
 10
21.8904560433
 20
38.4711937731
 11
21.2200969165
 21
38.8982596369
  0
LINE
  5
249
100
AcDbEntity
  8
0
100
AcDbLine
 62
7
  6
BYLAYER
 10
20.4785949894
 20
36.1309367713
 11
21.2726759549
 21
36.165607095
  0
LINE
  5
24A
100
AcDbEntity
  8
0
100
AcDbLine
 62
7
  6
BYLAYER
 10
11.0272876467
 20
37.2085885753
 11
10.7772876467
 21
37.2085885753
  0
LINE
  5
24B
100
AcDbEntity
  8
0
100
AcDbLine
 62
7
  6
BYLAYER
 10
37.1772876467
 20
37.5722818046
 11
32.6772876467
 21
37.5722818037
  0
LINE
  5
24C
100
AcDbEntity
  8
0
100
AcDbLine
 62
7
  6
BYLAYER
 10
21.0723640223
 20
37.7761168986
 11
21.8304139949
 21
38.0151291369
  0
LINE
  5
24D
100
AcDbEntity
  8
0
100
AcDbLine
 62
7
  6
BYLAYER
 10
11.0272876467
 20
38.2085886218
 11
17.8309872326
 21
38.2085886218
  0
LINE
  5
24E
100
AcDbEntity
  8
0
100
AcDbLine
 62
7
  6
BYLAYER
 10
17.2442749448
 20
38.4585886218
 11
11.0272876467
 21
38.4585886218
  0
LINE
  5
24F
100
AcDbEntity
  8
0
100
AcDbLine
 62
7
  6
BYLAYER
 10
22.5272830703
 20
39.2085886338
 11
22.7772876464
 21
39.2085887234
  0
LINE
  5
250
100
AcDbEntity
  8
0
100
AcDbLine
 62
7
  6
BYLAYER
 10
21.8304139949
 20
40.4020481066
 11
21.0723640223
 21
40.6410603449
  0
LINE
  5
251
100
AcDbEntity
  8
0
100
AcDbLine
 62
7
  6
BYLAYER
 10
11.0272876467
 20
39.9585886218
 11
17.2442749448
 21
39.9585886218
  0
LINE
  5
252
100
AcDbEntity
  8
0
100
AcDbLine
 62
7
  6
BYLAYER
 10
17.8283752793
 20
40.2085886218
 11
11.0272876467
 21
40.2085886218
  0
LINE
  5
253
100
AcDbEntity
  8
0
100
AcDbLine
 62
7
  6
BYLAYER
 10
32.6772876467
 20
40.8448954399
 11
37.1772876467
 21
40.844895439
  0
LINE
  5
254
100
AcDbEntity
  8
0
100
AcDbLine
 62
7
  6
BYLAYER
 10
10.7772876467
 20
41.2085886218
 11
11.0272876467
 21
41.2085886218
  0
LINE
  5
255
100
AcDbEntity
  8
0
100
AcDbLine
 62
7
  6
BYLAYER
 10
11.2272876467
 20
42.5085886218
 11
15.5327555451
 21
42.5085886218
  0
LINE
  5
256
100
AcDbEntity
  8
0
100
AcDbLine
 62
7
  6
BYLAYER
 10
21.2726759549
 20
42.2515701486
 11
20.4785949894
 21
42.2862404722
  0
LINE
  5
257
100
AcDbEntity
  8
0
100
AcDbLine
 62
7
  6
BYLAYER
 10
32.6772876467
 20
40.8448954376
 11
32.6772876467
 21
37.5722818059
  0
LINE
  5
258
100
AcDbEntity
  8
0
100
AcDbLine
 62
7
  6
BYLAYER
 10
17.1772876467
 20
39.9406394293
 11
17.8460307449
 21
40.1198286024
  0
LINE
  5
259
100
AcDbEntity
  8
0
100
AcDbLine
 62
7
  6
BYLAYER
 10
8.575980304
 20
42.2862404722
 11
7.7818993386
 21
42.2515701486
  0
LINE
  5
25A
100
AcDbEntity
  8
0
100
AcDbLine
 62
7
  6
BYLAYER
 10
11.2272876467
 20
42.7085886218
 11
14.5272876464
 21
42.7085886218
  0
LINE
  5
25B
100
AcDbEntity
  8
0
100
AcDbLine
 62
7
  6
BYLAYER
 10
47.1772876467
 20
42.7085886218
 11
47.8772876467
 21
42.7085886218
  0
LINE
  5
25C
100
AcDbEntity
  8
0
100
AcDbLine
 62
7
  6
BYLAYER
 10
14.5272833593
 20
42.9585886218
 11
12.5272876467
 21
42.9585886218
  0
LINE
  5
25D
100
AcDbEntity
  8
0
100
AcDbLine
 62
7
  6
BYLAYER
 10
38.9772876467
 20
43.2085886218
 11
46.8772876467
 21
43.2085886218
  0
LINE
  5
25E
100
AcDbEntity
  8
0
100
AcDbLine
 62
7
  6
BYLAYER
 10
13.8772876467
 20
43.9585886218
 11
15.1772876467
 21
43.9585886218
  0
LINE
  5
25F
100
AcDbEntity
  8
0
100
AcDbLine
 62
7
  6
BYLAYER
 10
15.1772876467
 20
44.2085886218
 11
13.8772876467
 21
44.2085886218
  0
LINE
  5
260
100
AcDbEntity
  8
0
100
AcDbLine
 62
7
  6
BYLAYER
 10
13.4595798215
 20
44.8585886218
 11
15.5949954719
 21
44.8585886218
  0
LINE
  5
261
100
AcDbEntity
  8
0
100
AcDbLine
 62
7
  6
BYLAYER
 10
37.1772876467
 20
46.922874336
 11
16.8076944305
 21
46.922874336
  0
LINE
  5
262
100
AcDbEntity
  8
0
100
AcDbLine
 62
7
  6
BYLAYER
 10
37.8772876467
 20
47.1085886218
 11
37.4272876467
 21
47.1085886218
  0
LINE
  5
263
100
AcDbEntity
  8
0
100
AcDbLine
 62
7
  6
BYLAYER
 10
37.1772876467
 20
47.2085886218
 11
37.1772876467
 21
31.2085886218
  0
LINE
  5
264
100
AcDbEntity
  8
0
100
AcDbLine
 62
7
  6
BYLAYER
 10
37.4272876467
 20
31.3085886218
 11
37.4272876467
 21
47.1085886218
  0
LINE
  5
265
100
AcDbEntity
  8
0
100
AcDbLine
 62
7
  6
BYLAYER
 10
37.1772876467
 20
47.2085886218
 11
14.5272876467
 21
47.2085886218
  0
LINE
  5
266
100
AcDbEntity
  8
0
100
AcDbLine
 62
7
  6
BYLAYER
 10
37.8772876467
 20
47.1085886218
 11
37.8772876467
 21
31.3085886218
  0
LINE
  5
267
100
AcDbEntity
  8
0
100
AcDbLine
 62
7
  6
BYLAYER
 10
38.4772876467
 20
35.5792700994
 11
38.4772876467
 21
35.3746429243
  0
LINE
  5
268
100
AcDbEntity
  8
0
100
AcDbLine
 62
7
  6
BYLAYER
 10
38.517961311
 20
46.8199038104
 11
38.517961311
 21
43.2124031645
  0
LINE
  5
269
100
AcDbEntity
  8
0
100
AcDbLine
 62
7
  6
BYLAYER
 10
38.517961311
 20
42.8160888681
 11
38.517961311
 21
35.6010879618
  0
LINE
  5
26A
100
AcDbEntity
  8
0
100
AcDbLine
 62
7
  6
BYLAYER
 10
38.517961311
 20
35.2047736794
 11
38.517961311
 21
31.597273419
  0
LINE
  5
26B
100
AcDbEntity
  8
0
100
AcDbLine
 62
7
  6
BYLAYER
 10
38.5772876467
 20
42.7517044239
 11
38.5772876467
 21
35.6654728197
  0
LINE
  5
26C
100
AcDbEntity
  8
0
100
AcDbLine
 62
7
  6
BYLAYER
 10
38.5772876467
 20
35.3442233097
 11
38.5772876467
 21
31.6893443157
  0
LINE
  5
26D
100
AcDbEntity
  8
0
100
AcDbLine
 62
7
  6
BYLAYER
 10
38.5772876467
 20
43.0729539338
 11
38.5772876467
 21
46.7278329279
  0
LINE
  5
26E
100
AcDbEntity
  8
0
100
AcDbLine
 62
7
  6
BYLAYER
 10
38.9772876467
 20
44.208583096
 11
38.9772876467
 21
34.2085941475
  0
LINE
  5
26F
100
AcDbEntity
  8
0
100
AcDbLine
 62
7
  6
BYLAYER
 10
38.9772876467
 20
34.2085886218
 11
38.5772876467
 21
33.8085886218
  0
LINE
  5
270
100
AcDbEntity
  8
0
100
AcDbLine
 62
7
  6
BYLAYER
 10
37.4272876467
 20
31.3085886218
 11
37.1772876467
 21
31.2085886218
  0
LINE
  5
271
100
AcDbEntity
  8
0
100
AcDbLine
 62
7
  6
BYLAYER
 10
37.4272876467
 20
47.1085886218
 11
37.1772876467
 21
47.2085886218
  0
LINE
  5
272
100
AcDbEntity
  8
0
100
AcDbLine
 62
7
  6
BYLAYER
 10
38.9772876467
 20
44.2085886218
 11
38.5772876467
 21
44.6085886218
  0
LINE
  5
273
100
AcDbEntity
  8
0
100
AcDbLine
 62
7
  6
BYLAYER
 10
37.9839685667
 20
31.3562710969
 11
37.8772876467
 21
31.3085921055
  0
LINE
  5
274
100
AcDbEntity
  8
0
100
AcDbLine
 62
7
  6
BYLAYER
 10
37.8772876467
 20
47.1085894675
 11
37.9840003335
 21
47.0609866392
  0
LINE
  5
275
100
AcDbEntity
  8
0
100
AcDbLine
 62
7
  6
BYLAYER
 10
46.8772876467
 20
43.2085886218
 11
46.8772876467
 21
35.2085886218
  0
LINE
  5
276
100
AcDbEntity
  8
0
100
AcDbLine
 62
7
  6
BYLAYER
 10
47.1772876467
 20
35.5086848391
 11
47.1772876467
 21
42.9084924044
  0
LINE
  5
277
100
AcDbEntity
  8
0
100
AcDbLine
 62
7
  6
BYLAYER
 10
47.8772876467
 20
42.7085886218
 11
47.8772876467
 21
35.7085886218
  0
LINE
  5
278
100
AcDbEntity
  8
0
100
AcDbLine
 62
7
  6
BYLAYER
 10
48.1772876467
 20
36.0086708678
 11
48.1772876467
 21
42.4085063757
  0
ARC
  5
279
100
AcDbEntity
  8
0
100
AcDbCircle
 62
7
  6
BYLAYER
 10
-42.9400501822
 20
-108.7880068819
 40
172.1023245265
100
AcDbArc
 50
61.750535394
 51
61.9923868395
  0
ARC
  5
27A
100
AcDbEntity
  8
0
100
AcDbCircle
 62
7
  6
BYLAYER
 10
-41.7576586104
 20
184.9934143274
 40
169.5943459342
100
AcDbArc
 50
298.0058251397
 51
298.2512594572
  0
ARC
  5
27B
100
AcDbEntity
  8
0
100
AcDbCircle
 62
7
  6
BYLAYER
 10
48.0306021464
 20
-73.8752099397
 40
117.4733986626
100
AcDbArc
 50
94.6447230207
 51
94.9583038951
  0
ARC
  5
27C
100
AcDbEntity
  8
0
100
AcDbCircle
 62
7
  6
BYLAYER
 10
6.7472768257
 20
-22.8363601136
 40
76.5595975602
100
AcDbArc
 50
65.4819680774
 51
65.9204060986
  0
ARC
  5
27D
100
AcDbEntity
  8
0
100
AcDbCircle
 62
7
  6
BYLAYER
 10
46.8772876467
 20
35.5085886218
 40
0.3
100
AcDbArc
 50
270.0
 51
360.0
  0
ARC
  5
27E
100
AcDbEntity
  8
0
100
AcDbCircle
 62
7
  6
BYLAYER
 10
47.8772876467
 20
36.0085886218
 40
0.3
100
AcDbArc
 50
270.0
 51
360.0
  0
ARC
  5
27F
100
AcDbEntity
  8
0
100
AcDbCircle
 62
7
  6
BYLAYER
 10
11.0272876467
 20
37.0085886218
 40
0.2
100
AcDbArc
 50
0.0
 51
90.0
  0
ARC
  5
280
100
AcDbEntity
  8
0
100
AcDbCircle
 62
7
  6
BYLAYER
 10
11.2272876467
 20
35.9085886218
 40
0.2
100
AcDbArc
 50
180.0
 51
270.0
  0
ARC
  5
281
100
AcDbEntity
  8
0
100
AcDbCircle
 62
7
  6
BYLAYER
 10
11.0272876467
 20
41.4085886218
 40
0.2
100
AcDbArc
 50
270.0
 51
360.0
  0
ARC
  5
282
100
AcDbEntity
  8
0
100
AcDbCircle
 62
7
  6
BYLAYER
 10
11.2272876467
 20
42.5085886218
 40
0.2
100
AcDbArc
 50
90.0
 51
180.0
  0
CIRCLE
  5
283
100
AcDbEntity
  8
0
100
AcDbCircle
 62
7
  6
BYLAYER
 10
14.5272876467
 20
39.2085886218
 40
8.0
  0
ARC
  5
284
100
AcDbEntity
  8
0
100
AcDbCircle
 62
7
  6
BYLAYER
 10
14.5272876467
 20
39.2085886218
 40
7.4
100
AcDbArc
 50
350.7188983855
 51
354.2811016145
  0
ARC
  5
285
100
AcDbEntity
  8
0
100
AcDbCircle
 62
7
  6
BYLAYER
 10
14.5272876467
 20
39.2085886218
 40
7.4
100
AcDbArc
 50
335.7188983855
 51
339.2811016145
  0
ARC
  5
286
100
AcDbEntity
  8
0
100
AcDbCircle
 62
7
  6
BYLAYER
 10
14.5272876467
 20
39.2085886218
 40
7.4
100
AcDbArc
 50
290.7188983855
 51
294.2811016145
  0
ARC
  5
287
100
AcDbEntity
  8
0
100
AcDbCircle
 62
7
  6
BYLAYER
 10
14.5272876467
 20
39.2085886218
 40
7.4
100
AcDbArc
 50
275.7188983855
 51
279.2811016145
  0
ARC
  5
288
100
AcDbEntity
  8
0
100
AcDbCircle
 62
7
  6
BYLAYER
 10
14.5272876467
 20
39.2085886218
 40
7.4
100
AcDbArc
 50
260.7188983855
 51
264.2811016145
  0
ARC
  5
289
100
AcDbEntity
  8
0
100
AcDbCircle
 62
7
  6
BYLAYER
 10
14.5272876467
 20
39.2085886218
 40
7.4
100
AcDbArc
 50
245.7188983855
 51
249.2811016145
  0
ARC
  5
28A
100
AcDbEntity
  8
0
100
AcDbCircle
 62
7
  6
BYLAYER
 10
14.5272876467
 20
39.2085886218
 40
7.4
100
AcDbArc
 50
155.7188983855
 51
159.2811016145
  0
ARC
  5
28B
100
AcDbEntity
  8
0
100
AcDbCircle
 62
7
  6
BYLAYER
 10
14.5272876467
 20
39.2085886218
 40
7.4
100
AcDbArc
 50
200.7188983855
 51
204.2811016145
  0
ARC
  5
28C
100
AcDbEntity
  8
0
100
AcDbCircle
 62
7
  6
BYLAYER
 10
14.5272876467
 20
39.2085886218
 40
7.4
100
AcDbArc
 50
185.7188983855
 51
189.2811016145
  0
ARC
  5
28D
100
AcDbEntity
  8
0
100
AcDbCircle
 62
7
  6
BYLAYER
 10
14.5272876467
 20
39.2085886218
 40
7.4
100
AcDbArc
 50
170.7188983855
 51
174.2811016145
  0
ARC
  5
28E
100
AcDbEntity
  8
0
100
AcDbCircle
 62
7
  6
BYLAYER
 10
14.5272876467
 20
39.2085886218
 40
7.4
100
AcDbArc
 50
110.7188983855
 51
114.2811016145
  0
ARC
  5
28F
100
AcDbEntity
  8
0
100
AcDbCircle
 62
7
  6
BYLAYER
 10
14.5272876467
 20
39.2085886218
 40
7.4
100
AcDbArc
 50
95.7188983855
 51
99.2811016145
  0
ARC
  5
290
100
AcDbEntity
  8
0
100
AcDbCircle
 62
7
  6
BYLAYER
 10
14.5272876467
 20
39.2085886218
 40
7.4
100
AcDbArc
 50
5.7188983855
 51
9.2811016145
  0
ARC
  5
291
100
AcDbEntity
  8
0
100
AcDbCircle
 62
7
  6
BYLAYER
 10
14.5272876467
 20
39.2085886218
 40
7.4
100
AcDbArc
 50
80.7188983855
 51
84.2811016145
  0
ARC
  5
292
100
AcDbEntity
  8
0
100
AcDbCircle
 62
7
  6
BYLAYER
 10
14.5272876467
 20
39.2085886218
 40
7.4
100
AcDbArc
 50
65.7188983855
 51
69.2811016145
  0
ARC
  5
293
100
AcDbEntity
  8
0
100
AcDbCircle
 62
7
  6
BYLAYER
 10
14.5272876467
 20
39.2085886218
 40
7.4
100
AcDbArc
 50
20.7188983855
 51
24.2811016145
  0
ARC
  5
294
100
AcDbEntity
  8
0
100
AcDbCircle
 62
7
  6
BYLAYER
 10
14.5272876467
 20
39.2085886218
 40
7.2
100
AcDbArc
 50
349.9127185415
 51
355.087281476
  0
ARC
  5
295
100
AcDbEntity
  8
0
100
AcDbCircle
 62
7
  6
BYLAYER
 10
14.5272876467
 20
39.2085886218
 40
7.2
100
AcDbArc
 50
334.9127185415
 51
340.087281476
  0
ARC
  5
296
100
AcDbEntity
  8
0
100
AcDbCircle
 62
7
  6
BYLAYER
 10
14.5272876467
 20
39.2085886218
 40
7.2
100
AcDbArc
 50
289.9127185415
 51
295.087281476
  0
ARC
  5
297
100
AcDbEntity
  8
0
100
AcDbCircle
 62
7
  6
BYLAYER
 10
14.5272876467
 20
39.2085886218
 40
7.2
100
AcDbArc
 50
274.9127185415
 51
280.087281476
  0
ARC
  5
298
100
AcDbEntity
  8
0
100
AcDbCircle
 62
7
  6
BYLAYER
 10
14.5272876467
 20
39.2085886218
 40
7.2
100
AcDbArc
 50
259.9127185415
 51
265.087281476
  0
ARC
  5
299
100
AcDbEntity
  8
0
100
AcDbCircle
 62
7
  6
BYLAYER
 10
14.5272876467
 20
39.2085886218
 40
7.2
100
AcDbArc
 50
154.9127185521
 51
160.0872814469
  0
ARC
  5
29A
100
AcDbEntity
  8
0
100
AcDbCircle
 62
7
  6
BYLAYER
 10
14.5272876467
 20
39.2085886218
 40
7.2
100
AcDbArc
 50
244.9127185415
 51
250.087281476
  0
ARC
  5
29B
100
AcDbEntity
  8
0
100
AcDbCircle
 62
7
  6
BYLAYER
 10
14.5272876467
 20
39.2085886218
 40
7.2
100
AcDbArc
 50
199.9127185521
 51
205.0872814469
  0
ARC
  5
29C
100
AcDbEntity
  8
0
100
AcDbCircle
 62
7
  6
BYLAYER
 10
14.5272876467
 20
39.2085886218
 40
7.2
100
AcDbArc
 50
184.9127185521
 51
190.0872814469
  0
ARC
  5
29D
100
AcDbEntity
  8
0
100
AcDbCircle
 62
7
  6
BYLAYER
 10
14.5272876467
 20
39.2085886218
 40
7.2
100
AcDbArc
 50
109.9127185521
 51
115.0872814469
  0
ARC
  5
29E
100
AcDbEntity
  8
0
100
AcDbCircle
 62
7
  6
BYLAYER
 10
14.5272876467
 20
39.2085886218
 40
7.2
100
AcDbArc
 50
169.9127185521
 51
175.0872814469
  0
ARC
  5
29F
100
AcDbEntity
  8
0
100
AcDbCircle
 62
7
  6
BYLAYER
 10
14.5272876467
 20
39.2085886218
 40
7.2
100
AcDbArc
 50
94.9127185521
 51
100.0872814469
  0
ARC
  5
2A0
100
AcDbEntity
  8
0
100
AcDbCircle
 62
7
  6
BYLAYER
 10
14.5272876467
 20
39.2085886218
 40
7.2
100
AcDbArc
 50
79.9127185521
 51
85.0872814469
  0
ARC
  5
2A1
100
AcDbEntity
  8
0
100
AcDbCircle
 62
7
  6
BYLAYER
 10
14.5272876467
 20
39.2085886218
 40
7.2
100
AcDbArc
 50
4.9127185415
 51
10.087281476
  0
ARC
  5
2A2
100
AcDbEntity
  8
0
100
AcDbCircle
 62
7
  6
BYLAYER
 10
14.5272876467
 20
39.2085886218
 40
7.2
100
AcDbArc
 50
64.9127185521
 51
70.0872814469
  0
ARC
  5
2A3
100
AcDbEntity
  8
0
100
AcDbCircle
 62
7
  6
BYLAYER
 10
14.5272876467
 20
39.2085886218
 40
7.2
100
AcDbArc
 50
19.9127185415
 51
25.087281476
  0
CIRCLE
  5
2A4
100
AcDbEntity
  8
0
100
AcDbCircle
 62
7
  6
BYLAYER
 10
14.5272876467
 20
39.2085886218
 40
6.7
  0
CIRCLE
  5
2A5
100
AcDbEntity
  8
0
100
AcDbCircle
 62
7
  6
BYLAYER
 10
14.5272876467
 20
39.2085886218
 40
6.5
  0
CIRCLE
  5
2A6
100
AcDbEntity
  8
0
100
AcDbCircle
 62
7
  6
BYLAYER
 10
14.5272876467
 20
39.2085886218
 40
6.35
  0
ARC
  5
2A7
100
AcDbEntity
  8
0
100
AcDbCircle
 62
7
  6
BYLAYER
 10
14.5272876467
 20
39.2085886218
 40
5.75
100
AcDbArc
 50
100.7012654404
 51
259.2987345596
  0
ARC
  5
2A8
100
AcDbEntity
  8
0
100
AcDbCircle
 62
7
  6
BYLAYER
 10
14.5272876467
 20
39.2085886218
 40
5.75
100
AcDbArc
 50
280.7012654404
 51
79.2987345596
  0
CIRCLE
  5
2A9
100
AcDbEntity
  8
0
100
AcDbCircle
 62
7
  6
BYLAYER
 10
14.5272876467
 20
39.2085886218
 40
5.4999998494
  0
CIRCLE
  5
2AA
100
AcDbEntity
  8
0
100
AcDbCircle
 62
7
  6
BYLAYER
 10
14.5272876467
 20
39.2085886218
 40
5.25
  0
ARC
  5
2AB
100
AcDbEntity
  8
0
100
AcDbCircle
 62
7
  6
BYLAYER
 10
14.5272876467
 20
39.2085886218
 40
4.5
100
AcDbArc
 50
98.3051095281
 51
128.9424403558
  0
ARC
  5
2AC
100
AcDbEntity
  8
0
100
AcDbCircle
 62
7
  6
BYLAYER
 10
14.5272876467
 20
39.2085886218
 40
4.5
100
AcDbArc
 50
231.0575568018
 51
81.6948904719
  0
ARC
  5
2AD
100
AcDbEntity
  8
0
100
AcDbCircle
 62
7
  6
BYLAYER
 10
14.5272876467
 20
39.2085886218
 40
4.5
100
AcDbArc
 50
141.057558731
 51
218.942441269
  0
ARC
  5
2AE
100
AcDbEntity
  8
0
100
AcDbCircle
 62
7
  6
BYLAYER
 10
14.5272876467
 20
39.2085886218
 40
4.25
100
AcDbArc
 50
151.9275132656
 51
208.0724868855
  0
ARC
  5
2AF
100
AcDbEntity
  8
0
100
AcDbCircle
 62
7
  6
BYLAYER
 10
14.5272876467
 20
39.2085886218
 40
4.25
100
AcDbArc
 50
241.927513064
 51
81.2025900092
  0
ARC
  5
2B0
100
AcDbEntity
  8
0
100
AcDbCircle
 62
7
  6
BYLAYER
 10
14.5272876467
 20
39.2085886218
 40
4.25
100
AcDbArc
 50
98.7974102892
 51
118.072486936
  0
ARC
  5
2B1
100
AcDbEntity
  8
0
100
AcDbCircle
 62
7
  6
BYLAYER
 10
14.5272876467
 20
39.2085886218
 40
3.7499995806
100
AcDbArc
 50
270.0
 51
90.0000655074
  0
ARC
  5
2B2
100
AcDbEntity
  8
0
100
AcDbCircle
 62
7
  6
BYLAYER
 10
14.5272876467
 20
39.2085886218
 40
3.5
100
AcDbArc
 50
269.999999998
 51
90.0000000023
  0
ARC
  5
2B3
100
AcDbEntity
  8
0
100
AcDbCircle
 62
7
  6
BYLAYER
 10
14.5610337474
 20
38.1352159401
 40
9.0703045324
100
AcDbArc
 50
75.6588987793
 51
76.0536567559
  0
ARC
  5
2B4
100
AcDbEntity
  8
0
100
AcDbCircle
 62
7
  6
BYLAYER
 10
14.5610259003
 20
40.2819952
 40
9.0703393163
100
AcDbArc
 50
283.9463351481
 51
284.3410962086
  0
ARC
  5
2B5
100
AcDbEntity
  8
0
100
AcDbCircle
 62
7
  6
BYLAYER
 10
14.6755754078
 20
39.0915563192
 40
8.1112817277
100
AcDbArc
 50
66.7743166033
 51
68.0971437904
  0
ARC
  5
2B6
100
AcDbEntity
  8
0
100
AcDbCircle
 62
7
  6
BYLAYER
 10
6.9187921387
 20
100.8727193457
 40
76.141938361
100
AcDbArc
 50
294.0786803626
 51
294.519538236
  0
ARC
  5
2B7
100
AcDbEntity
  8
0
100
AcDbCircle
 62
7
  6
BYLAYER
 10
47.1772876467
 20
39.2085886218
 40
3.0
100
AcDbArc
 50
289.6343390751
 51
70.3656609249
  0
ARC
  5
2B8
100
AcDbEntity
  8
0
100
AcDbCircle
 62
7
  6
BYLAYER
 10
46.8772876467
 20
42.9085886218
 40
0.3
100
AcDbArc
 50
0.0
 51
90.0
  0
ARC
  5
2B9
100
AcDbEntity
  8
0
100
AcDbCircle
 62
7
  6
BYLAYER
 10
47.8772876467
 20
42.4085886218
 40
0.3
100
AcDbArc
 50
0.0
 51
90.0
  0
ARC
  5
2BA
100
AcDbEntity
  8
0
100
AcDbCircle
 62
7
  6
BYLAYER
 10
48.1896427312
 20
154.1857397206
 40
119.3734142783
100
AcDbArc
 50
265.0441913028
 51
265.3527730696
  0
SPLINE
  5
2BB
100
AcDbEntity
  8
0
100
AcDbSpline
 62
7
  6
BYLAYER
 70
0
 71
3
 72
11
 73
7
 74
0
 42
0.0000001
 43
0.0000001
 44
0.0000000001
 40
0.0
 40
0.0
 40
0.0
 40
0.0
 40
0.3092985013
 40
0.5873527443
 40
0.8187831824
 40
1.0
 40
1.0
 40
1.0
 40
1.0
 10
38.5179481405
 20
42.8160979988
 30
0.0
 10
38.526184229
 20
42.8116721066
 30
0.0
 10
38.5413258405
 20
42.8022854936
 30
0.0
 10
38.5602642322
 20
42.7861347356
 30
0.0
 10
38.5731742166
 20
42.7695386743
 30
0.0
 10
38.5772876467
 20
42.7571825276
 30
0.0
 10
38.5772876467
 20
42.7517044239
 30
0.0
  0
SPLINE
  5
2BC
100
AcDbEntity
  8
0
100
AcDbSpline
 62
7
  6
BYLAYER
 70
0
 71
3
 72
9
 73
5
 74
0
 42
0.0000001
 43
0.0000001
 44
0.0000000001
 40
0.0
 40
0.0
 40
0.0
 40
0.0
 40
0.4930428313
 40
1.0
 40
1.0
 40
1.0
 40
1.0
 10
38.5179481405
 20
46.8199132779
 30
0.0
 10
38.5350175025
 20
46.8121268104
 30
0.0
 10
38.5657755497
 20
46.78600805
 30
0.0
 10
38.5772876467
 20
46.7471238567
 30
0.0
 10
38.5772876467
 20
46.7278329279
 30
0.0
  0
SPLINE
  5
2BD
100
AcDbEntity
  8
0
100
AcDbSpline
 62
7
  6
BYLAYER
 70
0
 71
3
 72
9
 73
5
 74
0
 42
0.0000001
 43
0.0000001
 44
0.0000000001
 40
0.0
 40
0.0
 40
0.0
 40
0.0
 40
0.506960946
 40
1.0
 40
1.0
 40
1.0
 40
1.0
 10
38.5772876467
 20
31.6893443157
 30
0.0
 10
38.5772876467
 20
31.6700567611
 30
0.0
 10
38.5657786487
 20
31.6311809545
 30
0.0
 10
38.535030795
 20
31.6050608322
 30
0.0
 10
38.5179646765
 20
31.5972758444
 30
0.0
  0
SPLINE
  5
2BE
100
AcDbEntity
  8
0
100
AcDbSpline
 62
7
  6
BYLAYER
 70
0
 71
3
 72
11
 73
7
 74
0
 42
0.0000001
 43
0.0000001
 44
0.0000000001
 40
0.0
 40
0.0
 40
0.0
 40
0.0
 40
0.1812458826
 40
0.4126499471
 40
0.690679005
 40
1.0
 40
1.0
 40
1.0
 40
1.0
 10
38.5772876467
 20
35.6654728197
 30
0.0
 10
38.5772876467
 20
35.6599950961
 30
0.0
 10
38.5731723205
 20
35.6476426386
 30
0.0
 10
38.5602700886
 20
35.6310483774
 30
0.0
 10
38.5413360915
 20
35.6149019768
 30
0.0
 10
38.5261994717
 20
35.6055154957
 30
0.0
 10
38.5179646765
 20
35.6010902986
 30
0.0
  0
SPLINE
  5
2BF
100
AcDbEntity
  8
0
100
AcDbSpline
 62
7
  6
BYLAYER
 70
0
 71
3
 72
9
 73
5
 74
0
 42
0.0000001
 43
0.0000001
 44
0.0000000001
 40
0.0
 40
0.0
 40
0.0
 40
0.0
 40
0.2731521391
 40
1.0
 40
1.0
 40
1.0
 40
1.0
 10
10.7772878442
 20
41.2085885567
 30
0.0
 10
10.7918235212
 20
41.2708499099
 30
0.0
 10
10.8466984467
 20
41.4984001997
 30
0.0
 10
10.9068016341
 20
41.7246560319
 30
0.0
 10
10.9519693346
 20
41.8886810412
 30
0.0
  0
LINE
  5
2C0
100
AcDbEntity
  8
0
100
AcDbLine
 62
7
  6
BYLAYER
 10
10.9519693346
 20
41.8886810412
 11
10.9598655593
 21
41.9172994665
  0
SPLINE
  5
2C1
100
AcDbEntity
  8
0
100
AcDbSpline
 62
7
  6
BYLAYER
 70
0
 71
3
 72
12
 73
8
 74
0
 42
0.0000001
 43
0.0000001
 44
0.0000000001
 40
0.0
 40
0.0
 40
0.0
 40
0.0
 40
0.3259053016
 40
0.5946528733
 40
0.8070354043
 40
0.9028328127
 40
1.0
 40
1.0
 40
1.0
 40
1.0
 10
38.5179481406
 20
35.2047733427
 30
0.0
 10
38.5258397347
 20
35.2041324534
 30
0.0
 10
38.5403849253
 20
35.2040757245
 30
0.0
 10
38.5597488806
 20
35.2082107485
 30
0.0
 10
38.5719304139
 20
35.2164816405
 30
0.0
 10
38.5765801392
 20
35.2253710429
 30
0.0
 10
38.5772876467
 20
35.2300995286
 30
0.0
 10
38.5772876467
 20
35.2324601178
 30
0.0
  0
LINE
  5
2C2
100
AcDbEntity
  8
0
100
AcDbLine
 62
7
  6
BYLAYER
 10
10.9666301808
 20
36.4754454263
 11
10.9598693
 21
36.4998642421
  0
LINE
  5
2C3
100
AcDbEntity
  8
0
100
AcDbLine
 62
7
  6
BYLAYER
 10
10.9598693
 20
36.4998642421
 11
10.9518173825
 21
36.5290480294
  0
SPLINE
  5
2C4
100
AcDbEntity
  8
0
100
AcDbSpline
 62
7
  6
BYLAYER
 70
0
 71
3
 72
9
 73
5
 74
0
 42
0.0000001
 43
0.0000001
 44
0.0000000001
 40
0.0
 40
0.0
 40
0.0
 40
0.0
 40
0.2138467479
 40
1.0
 40
1.0
 40
1.0
 40
1.0
 10
10.9518173825
 20
36.5290480294
 30
0.0
 10
10.9385405357
 20
36.5772662436
 30
0.0
 10
10.8770564671
 20
36.8029077501
 30
0.0
 10
10.8190879491
 20
37.0295443125
 30
0.0
 10
10.7772878424
 20
37.2085886864
 30
0.0
  0
SPLINE
  5
2C5
100
AcDbEntity
  8
0
100
AcDbSpline
 62
7
  6
BYLAYER
 70
0
 71
3
 72
20
 73
16
 74
0
 42
0.0000001
 43
0.0000001
 44
0.0000000001
 40
0.0
 40
0.0
 40
0.0
 40
0.0
 40
0.156424578
 40
0.3108563369
 40
0.4623016088
 40
0.6086275393
 40
0.6790281855
 40
0.746718741
 40
0.8107449156
 40
0.8696383257
 40
0.9214526164
 40
0.962847238
 40
0.9784897435
 40
0.9901794434
 40
1.0
 40
1.0
 40
1.0
 40
1.0
 10
12.5272882844
 20
42.9585862302
 30
0.0
 10
12.487972438
 20
42.9481021186
 30
0.0
 10
12.4100357884
 20
42.9265305581
 30
0.0
 10
12.2947748637
 20
42.8922074217
 30
0.0
 10
12.182728267
 20
42.8563731276
 30
0.0
 10
12.0920993788
 20
42.8254038296
 30
0.0
 10
12.0224650851
 20
42.8003903092
 30
0.0
 10
11.9731780069
 20
42.7821343158
 30
0.0
 10
11.9268006747
 20
42.7644318003
 30
0.0
 10
11.8846578428
 20
42.747918737
 30
0.0
 10
11.8474225503
 20
42.7329161298
 30
0.0
 10
11.8224815415
 20
42.7227226668
 30
0.0
 10
11.8041198362
 20
42.7150474684
 30
0.0
 10
11.7987642734
 20
42.7128933898
 30
0.0
 10
11.7863664361
 20
42.7075229255
 30
0.0
 10
11.7886862112
 20
42.7085926954
 30
0.0
  0
SPLINE
  5
2C6
100
AcDbEntity
  8
0
100
AcDbSpline
 62
7
  6
BYLAYER
 70
0
 71
3
 72
27
 73
23
 74
0
 42
0.0000001
 43
0.0000001
 44
0.0000000001
 40
0.0
 40
0.0
 40
0.0
 40
0.0
 40
0.034260417
 40
0.0685007922
 40
0.1026424961
 40
0.1366129389
 40
0.1703759935
 40
0.2039022425
 40
0.2701306013
 40
0.3351106466
 40
0.3987991023
 40
0.4612530751
 40
0.5225588004
 40
0.5828797663
 40
0.6424318902
 40
0.7014502816
 40
0.7601668693
 40
0.8189208544
 40
0.8781624826
 40
0.9081356485
 40
0.9384225239
 40
1.0
 40
1.0
 40
1.0
 40
1.0
 10
22.7772876467
 20
39.2085886216
 30
0.0
 10
22.778383138
 20
39.0889857553
 30
0.0
 10
22.773588287
 20
38.8497410142
 30
0.0
 10
22.7477275788
 20
38.4922044312
 30
0.0
 10
22.705703271
 20
38.1372424353
 30
0.0
 10
22.6489060494
 20
37.7860379641
 30
0.0
 10
22.5771145825
 20
37.4397650874
 30
0.0
 10
22.461816868
 20
36.9879804157
 30
0.0
 10
22.2819360192
 20
36.4408616071
 30
0.0
 10
22.0142230024
 20
35.8144497022
 30
0.0
 10
21.7001634657
 20
35.2248365574
 30
0.0
 10
21.3452639996
 20
34.6741670375
 30
0.0
 10
20.9547169903
 20
34.1629574329
 30
0.0
 10
20.5318946891
 20
33.6916524475
 30
0.0
 10
20.0791783756
 20
33.2604979933
 30
0.0
 10
19.5989560591
 20
32.8691263835
 30
0.0
 10
19.0940699423
 20
32.5150261454
 30
0.0
 10
18.5638479576
 20
32.1985514985
 30
0.0
 10
18.1009838438
 20
31.9679410706
 30
0.0
 10
17.7173304352
 20
31.8038040934
 30
0.0
 10
17.3200056746
 20
31.6517279853
 30
0.0
 10
17.0143448203
 20
31.5535489902
 30
0.0
 10
16.8076944305
 20
31.4943029075
 30
0.0
  0
SPLINE
  5
2C7
100
AcDbEntity
  8
0
100
AcDbSpline
 62
7
  6
BYLAYER
 70
0
 71
3
 72
11
 73
7
 74
0
 42
0.0000001
 43
0.0000001
 44
0.0000000001
 40
0.0
 40
0.0
 40
0.0
 40
0.0
 40
0.1952974295
 40
0.4188427499
 40
0.683651104
 40
1.0
 40
1.0
 40
1.0
 40
1.0
 10
16.7385917643
 20
31.5202727309
 30
0.0
 10
16.7433961981
 20
31.5216554559
 30
0.0
 10
16.7543227593
 20
31.522638408
 30
0.0
 10
16.7715838897
 20
31.5186439303
 30
0.0
 10
16.7900405125
 20
31.5091302777
 30
0.0
 10
16.801741505
 20
31.4997999576
 30
0.0
 10
16.807694555
 20
31.4943096812
 30
0.0
  0
SPLINE
  5
2C8
100
AcDbEntity
  8
0
100
AcDbSpline
 62
7
  6
BYLAYER
 70
0
 71
3
 72
23
 73
19
 74
0
 42
0.0000001
 43
0.0000001
 44
0.0000000001
 40
0.0
 40
0.0
 40
0.0
 40
0.0
 40
0.0682996049
 40
0.1023915979
 40
0.1363530953
 40
0.2037120333
 40
0.2701786804
 40
0.3356199969
 40
0.3999211711
 40
0.4630772077
 40
0.5251505714
 40
0.5862202694
 40
0.6464136533
 40
0.7059095658
 40
0.7648875978
 40
0.8819612812
 40
0.9406823905
 40
1.0
 40
1.0
 40
1.0
 40
1.0
 10
22.7772876467
 20
39.2085886216
 30
0.0
 10
22.7790364954
 20
39.4212416005
 30
0.0
 10
22.7657704741
 20
39.740372343
 30
0.0
 10
22.7210547092
 20
40.1626299943
 30
0.0
 10
22.6602545394
 20
40.5799448571
 30
0.0
 10
22.5552544369
 20
41.0923007395
 30
0.0
 10
22.3823720584
 20
41.688858327
 30
0.0
 10
22.1660252804
 20
42.2608556537
 30
0.0
 10
21.9111617449
 20
42.8053422193
 30
0.0
 10
21.6213204347
 20
43.3200214983
 30
0.0
 10
21.2999586291
 20
43.8035354014
 30
0.0
 10
20.9510667456
 20
44.2559327744
 30
0.0
 10
20.5767524005
 20
44.6768532037
 30
0.0
 10
20.178088449
 20
45.0655521351
 30
0.0
 10
19.6189104082
 20
45.5407174505
 30
0.0
 10
19.0167768406
 20
45.959569645
 30
0.0
 10
18.3768841202
 20
46.3159804384
 30
0.0
 10
18.0440150531
 20
46.472650857
 30
0.0
 10
17.8742908407
 20
46.5454888951
 30
0.0
  0
SPLINE
  5
2C9
100
AcDbEntity
  8
0
100
AcDbSpline
 62
7
  6
BYLAYER
 70
0
 71
3
 72
9
 73
5
 74
0
 42
0.0000001
 43
0.0000001
 44
0.0000000001
 40
0.0
 40
0.0
 40
0.0
 40
0.0
 40
0.2470994382
 40
1.0
 40
1.0
 40
1.0
 40
1.0
 10
17.7013595597
 20
46.617346745
 30
0.0
 10
17.6291687557
 20
46.6463806384
 30
0.0
 10
17.3353702148
 20
46.7597704742
 30
0.0
 10
17.0355318327
 20
46.8573040535
 30
0.0
 10
16.8076944305
 20
46.922874336
 30
0.0
  0
SPLINE
  5
2CA
100
AcDbEntity
  8
0
100
AcDbSpline
 62
7
  6
BYLAYER
 70
0
 71
3
 72
11
 73
7
 74
0
 42
0.0000001
 43
0.0000001
 44
0.0000000001
 40
0.0
 40
0.0
 40
0.0
 40
0.0
 40
0.206538455
 40
0.4360984203
 40
0.6991514588
 40
1.0
 40
1.0
 40
1.0
 40
1.0
 10
16.7385915381
 20
46.8969000648
 30
0.0
 10
16.7436714188
 20
46.895439126
 30
0.0
 10
16.7550867583
 20
46.894549325
 30
0.0
 10
16.7726402739
 20
46.8990017638
 30
0.0
 10
16.7907029372
 20
46.9085948141
 30
0.0
 10
16.8020351174
 20
46.917654458
 30
0.0
 10
16.8076944894
 20
46.9228748195
 30
0.0
  0
SPLINE
  5
2CB
100
AcDbEntity
  8
0
100
AcDbSpline
 62
7
  6
BYLAYER
 70
0
 71
3
 72
9
 73
5
 74
0
 42
0.0000001
 43
0.0000001
 44
0.0000000001
 40
0.0
 40
0.0
 40
0.0
 40
0.0
 40
0.4977354418
 40
1.0
 40
1.0
 40
1.0
 40
1.0
 10
14.5272876467
 20
47.2085886218
 30
0.0
 10
14.8989900398
 20
47.2085835806
 30
0.0
 10
15.646447185
 20
47.1637035982
 30
0.0
 10
16.3830683104
 20
47.0285452528
 30
0.0
 10
16.7470961444
 20
46.9381447428
 30
0.0
  0
SPLINE
  5
2CC
100
AcDbEntity
  8
0
100
AcDbSpline
 62
7
  6
BYLAYER
 70
0
 71
3
 72
9
 73
5
 74
0
 42
0.0000001
 43
0.0000001
 44
0.0000000001
 40
0.0
 40
0.0
 40
0.0
 40
0.0
 40
0.502263449
 40
1.0
 40
1.0
 40
1.0
 40
1.0
 10
16.7470954369
 20
31.4790323298
 30
0.0
 10
16.3867786681
 20
31.3895534579
 30
0.0
 10
15.6577916776
 20
31.2553212972
 30
0.0
 10
14.9180765861
 20
31.2095276221
 30
0.0
 10
14.5501630036
 20
31.2086170754
 30
0.0
  0
SPLINE
  5
2CD
100
AcDbEntity
  8
0
100
AcDbSpline
 62
7
  6
BYLAYER
 70
0
 71
3
 72
12
 73
8
 74
0
 42
0.0000001
 43
0.0000001
 44
0.0000000001
 40
0.0
 40
0.0
 40
0.0
 40
0.0
 40
0.0971750608
 40
0.192988909
 40
0.4053530686
 40
0.674076569
 40
1.0
 40
1.0
 40
1.0
 40
1.0
 10
38.5772876467
 20
43.1847171258
 30
0.0
 10
38.5772876467
 20
43.1870773041
 30
0.0
 10
38.5765791999
 20
43.1918051613
 30
0.0
 10
38.571929287
 20
43.2006913062
 30
0.0
 10
38.5597550706
 20
43.2089639387
 30
0.0
 10
38.5403957713
 20
43.2130977506
 30
0.0
 10
38.525854697
 20
43.2130438375
 30
0.0
 10
38.5179646765
 20
43.212403076
 30
0.0
  0
SPLINE
  5
2CE
100
AcDbEntity
  8
0
100
AcDbSpline
 62
7
  6
BYLAYER
 70
0
 71
3
 72
19
 73
15
 74
0
 42
0.0000001
 43
0.0000001
 44
0.0000000001
 40
0.0
 40
0.0
 40
0.0
 40
0.0
 40
0.0025354569
 40
0.0098434361
 40
0.0215123316
 40
0.0371306122
 40
0.0784989957
 40
0.1303055975
 40
0.1891925813
 40
0.2532149137
 40
0.3913145235
 40
0.5376559999
 40
0.6891181966
 40
1.0
 40
1.0
 40
1.0
 40
1.0
 10
11.7886888249
 20
35.7085830936
 30
0.0
 10
11.7892821653
 20
35.7082951493
 30
0.0
 10
11.7916734158
 20
35.7073705025
 30
0.0
 10
11.7968012165
 20
35.7051344298
 30
0.0
 10
11.8051202427
 20
35.7016998525
 30
0.0
 10
11.8216041744
 20
35.6948308495
 30
0.0
 10
11.8477916452
 20
35.6841024801
 30
0.0
 10
11.8844844972
 20
35.6693318395
 30
0.0
 10
11.9267972271
 20
35.6527452495
 30
0.0
 10
11.9902289222
 20
35.6285376605
 30
0.0
 10
12.0753929584
 20
35.5974859698
 30
0.0
 10
12.1826939457
 20
35.5608145739
 30
0.0
 10
12.333507371
 20
35.5125844319
 30
0.0
 10
12.4491526849
 20
35.4794270758
 30
0.0
 10
12.5272883245
 20
35.4585911638
 30
0.0
  0
ELLIPSE
  5
2CF
100
AcDbEntity
  8
0
100
AcDbEllipse
 62
7
  6
BYLAYER
 10
37.8772876467
 20
39.2085886218
 30
0.0
 11
20.4126526173
 21
-6.5022740143
 31
0.0
 40
0.1625559039
 41
-1.5016102927
 42
-1.4848084806
  0
ELLIPSE
  5
2D0
100
AcDbEntity
  8
0
100
AcDbEllipse
 62
7
  6
BYLAYER
 10
37.8772876467
 20
39.2085886218
 30
0.0
 11
20.4126526173
 21
6.5022740143
 31
0.0
 40
0.1625559039
 41
1.4848084806
 42
1.5016104192
  0
ENDSEC
  0
SECTION
  2
OBJECTS
  0
DICTIONARY
  5
C
100
AcDbDictionary
280
0
281
1
  3
ACAD_GROUP
350
D
  3
ACAD_MLINESTYLE
350
17
  3
ACAD_LAYOUT
350
1A
  3
ACAD_PLOTSETTINGS
350
19
  3
ACAD_PLOTSTYLENAME
350
E
  0
DICTIONARY
  5
D
102
{ACAD_REACTORS
330
C
102
}
100
AcDbDictionary
280
0
281
1
  0
ACDBDICTIONARYWDFLT
  5
E
102
{ACAD_REACTORS
330
C
102
}
100
AcDbDictionary
281
1
  3
Normal
350
F
100
AcDbDictionaryWithDefault
340
F
  0
DICTIONARY
  5
17
102
{ACAD_REACTORS
330
C
102
}
100
AcDbDictionary
280
0
281
1
  3
Standard
350
18
  0
DICTIONARY
  5
19
102
{ACAD_REACTORS
330
C
102
}
100
AcDbDictionary
281
1
  0
DICTIONARY
  5
1A
102
{ACAD_REACTORS
330
C
102
}
100
AcDbDictionary
281
1
  3
Model
350
2D1
  3
Layout1
350
2D2
  0
ACDBPLACEHOLDER
  5
F
102
{ACAD_REACTORS
330
E
102
}
  0
MLINESTYLE
  5
18
102
{ACAD_REACTORS
330
17
102
}
100
AcDbMlineStyle
  2
STANDARD
 70
0
  3

 62
256
 51
90.0
 52
90.0
 71
2
 49
0.5
 62
256
  6
BYLAYER
 49
-0.5
 62
256
  6
BYLAYER
  0
LAYOUT
  5
2D1
102
{ACAD_REACTORS
330
1A
102
}
100
AcDbPlotSettings
  1

  2
none_device
  4

  6

 40
0.0
 41
0.0
 42
0.0
 43
0.0
 44
210.0
 45
297.0
 46
0.0
 47
0.0
 48
0.0
 49
0.0
140
0.0
141
0.0
142
1.0
143
1.0
 70
1024
 72
1
 73
0
 74
0
  7

 75
0
147
1.0
148
0.0
149
0.0
100
AcDbLayout
  1
Model
 70
0
 71
0
 10
0.0
 20
0.0
 11
210.0
 21
297.0
 12
0.0
 22
0.0
 32
0.0
 14
0.0
 24
0.0
 34
0.0
 15
0.0
 25
0.0
 35
0.0
146
0.0
 13
0.0
 23
0.0
 33
0.0
 16
1.0
 26
0.0
 36
0.0
 17
0.0
 27
1.0
 37
0.0
 76
0
330
210
345
0
346
0
  0
LAYOUT
  5
2D2
102
{ACAD_REACTORS
330
1A
102
}
100
AcDbPlotSettings
  1

  2
none_device
  4

  6

 40
0.0
 41
0.0
 42
0.0
 43
0.0
 44
210.0
 45
297.0
 46
0.0
 47
0.0
 48
0.0
 49
0.0
140
0.0
141
0.0
142
1.0
143
1.0
 70
0
 72
1
 73
0
 74
0
  7

 75
0
147
1.0
148
0.0
149
0.0
100
AcDbLayout
  1
Layout1
 70
0
 71
1
 10
0.0
 20
0.0
 11
210.0
 21
297.0
 12
0.0
 22
0.0
 32
0.0
 14
0.0
 24
0.0
 34
0.0
 15
0.0
 25
0.0
 35
0.0
146
0.0
 13
0.0
 23
0.0
 33
0.0
 16
1.0
 26
0.0
 36
0.0
 17
0.0
 27
1.0
 37
0.0
 76
0
330
211
345
0
346
0
  0
ENDSEC
  0
EOF
