999
DXF file: C:\Users\sesa63760\Dev\_Creo\CAD\MCADID0004762_3D-CAD\drw0001_7.dxf
999
Pro/ENGINEER 2019471 by Parametric Technology Corporation
  0
SECTION
  2
HEADER
  9
$ACADVER
  1
AC1024
  9
$DWGCODEPAGE
  3
ANSI_1252
  9
$EXTMAX
 10
34.129699622
 20
48.2691466083
 30
0.0
  9
$EXTMIN
 10
0.0
 20
0.0
 30
0.0
  9
$LIMMIN
 10
0.0
 20
0.0
  9
$LIMMAX
 10
34.129699622
 20
48.2691466083
  9
$VIEWCTR
 10
17.064849811
 20
24.1345733042
  9
$VIEWSIZE
 40
48.2691466083
  9
$CLAYER
  8
0
  9
$LTSCALE
 40
3.1464332604
  9
$CELTYPE
  6
BYLAYER
  9
$DIMSCALE
 40
1.0
  9
$DIMASZ
 40
0.4063059479
  9
$DIMEXO
 40
1.0
  9
$DIMDLI
 40
2.1738993435
  9
$DIMEXE
 40
1.0
  9
$DIMCEN
 40
0.5148708972
  9
$DIMLFAC
 40
1.0
  9
$DIMBLK
  1
_FILLED
  9
$DIMALT
 70
0
  9
$DIMALTF
 40
0.0393700787
  9
$DIMTXT
 40
0.568828327
  9
$DIMTOL
 70
1
  9
$DIMLIM
 70
0
  9
$DIMTFAC
 40
1.0
  9
$DIMTP
 40
0.01
  9
$DIMTM
 40
0.01
  9
$DIMGAP
 40
0.625
  9
$DIMDSEP
 70
46
  9
$AUNITS
 70
0
  9
$PDMODE
 70
3
  9
$PDSIZE
 40
0.3125
  9
$HANDSEED
  5
27B
  9
$TILEMODE
 70
1
  9
$MEASUREMENT
 70
1
  9
$INSUNITS
 70
4
  0
ENDSEC
  0
SECTION
  2
CLASSES
  0
CLASS
  1
ACDBDICTIONARYWDFLT
  2
AcDbDictionaryWithDefault
  3
AutoCAD 2000
 90
0
 91
1
280
0
281
0
  0
CLASS
  1
ACDBPLACEHOLDER
  2
AcDbPlaceHolder
  3
AutoCAD 2000
 90
0
 91
1
280
0
281
0
  0
CLASS
  1
LAYOUT
  2
AcDbLayout
  3
AutoCAD 2000
 90
0
 91
0
280
0
281
0
  0
ENDSEC
  0
SECTION
  2
TABLES
  0
TABLE
  2
VPORT
  5
8
100
AcDbSymbolTable
 70
2
  0
VPORT
  5
1F4
100
AcDbSymbolTableRecord
100
AcDbViewportTableRecord
  2
*ACTIVE
 70
0
 10
0.0
 20
0.0
 11
1.0
 21
1.0
 12
17.064849811
 22
24.1345733042
 13
0.0
 23
0.0
 14
1.0
 24
1.0
 15
0.0
 25
0.0
 16
0.0
 26
0.0
 36
1.0
 17
0.0
 27
0.0
 37
0.0
 40
48.2691466083
 41
0.7070707071
 42
50.0
 43
0.0
 44
0.0
 50
0.0
 51
0.0
 71
0
 72
100
 73
1
 74
1
 75
0
 76
0
 77
0
 78
0
  0
ENDTAB
  0
TABLE
  2
LTYPE
  5
5
100
AcDbSymbolTable
 70
6
  0
LTYPE
  5
14
100
AcDbSymbolTableRecord
100
AcDbLinetypeTableRecord
  2
BYBLOCK
 70
0
  3

 72
65
 73
0
 40
0.0
  0
LTYPE
  5
15
100
AcDbSymbolTableRecord
100
AcDbLinetypeTableRecord
  2
BYLAYER
 70
0
  3

 72
65
 73
0
 40
0.0
  0
LTYPE
  5
16
100
AcDbSymbolTableRecord
100
AcDbLinetypeTableRecord
  2
CONTINUOUS
 70
64
  3
Solid line
 72
65
 73
0
 40
0.0
  0
LTYPE
  5
1F5
100
AcDbSymbolTableRecord
100
AcDbLinetypeTableRecord
  2
CENTER
 70
64
  3
____ _ ____ _ ____ _ ____ _ ____ _ ____ _ ____
 72
65
 73
4
 40
0.6
 49
0.375
 74
0
 49
-0.075
 74
0
 49
0.075
 74
0
 49
-0.075
 74
0
  0
LTYPE
  5
1F6
100
AcDbSymbolTableRecord
100
AcDbLinetypeTableRecord
  2
HIDDEN
 70
64
  3
- - - - - - - - - - - - - - - - - - - -
 72
65
 73
2
 40
0.2
 49
0.1
 74
0
 49
-0.1
 74
0
  0
LTYPE
  5
1F7
100
AcDbSymbolTableRecord
100
AcDbLinetypeTableRecord
  2
PHANTOM
 70
64
  3
_____ _ _ _____ _ _ _____ _ _ _____
 72
65
 73
6
 40
0.8
 49
0.45
 74
0
 49
-0.05
 74
0
 49
0.1
 74
0
 49
-0.05
 74
0
 49
0.1
 74
0
 49
-0.05
 74
0
  0
LTYPE
  5
1F8
100
AcDbSymbolTableRecord
100
AcDbLinetypeTableRecord
  2
DOT
 70
64
  3
. . . . . . . . . . . . . . . . . . . .
 72
65
 73
2
 40
0.2
 49
0.1
 74
0
 49
-0.1
 74
0
  0
LTYPE
  5
1F9
100
AcDbSymbolTableRecord
100
AcDbLinetypeTableRecord
  2
DASHED
 70
64
  3
- - - - - - - - - - - - - - - - - - - -
 72
65
 73
2
 40
0.2
 49
0.1
 74
0
 49
-0.1
 74
0
  0
ENDTAB
  0
TABLE
  2
LAYER
  5
2
100
AcDbSymbolTable
 70
36
  0
LAYER
  5
10
100
AcDbSymbolTableRecord
100
AcDbLayerTableRecord
  2
0
 70
0
 62
7
  6
CONTINUOUS
370
-3
390
F
  0
LAYER
  5
1FA
100
AcDbSymbolTableRecord
100
AcDbLayerTableRecord
  2
DEFAULT_1
 70
0
 62
7
  6
CENTER
370
-3
390
F
  0
LAYER
  5
1FB
100
AcDbSymbolTableRecord
100
AcDbLayerTableRecord
  2
DEFAULT_2
 70
0
 62
7
  6
HIDDEN
370
-3
390
F
  0
LAYER
  5
1FC
100
AcDbSymbolTableRecord
100
AcDbLayerTableRecord
  2
DEFAULT_3
 70
0
 62
7
  6
PHANTOM
370
-3
390
F
  0
LAYER
  5
1FD
100
AcDbSymbolTableRecord
100
AcDbLayerTableRecord
  2
00_COMPONENTS
 70
0
 62
7
  6
CONTINUOUS
370
-3
390
F
  0
LAYER
  5
1FE
100
AcDbSymbolTableRecord
100
AcDbLayerTableRecord
  2
01_1_DEFAULT_DATUMS
 70
0
 62
7
  6
CONTINUOUS
370
-3
390
F
  0
LAYER
  5
1FF
100
AcDbSymbolTableRecord
100
AcDbLayerTableRecord
  2
01_PLANES
 70
0
 62
7
  6
CONTINUOUS
370
-3
390
F
  0
LAYER
  5
200
100
AcDbSymbolTableRecord
100
AcDbLayerTableRecord
  2
02_COORD_SYS
 70
0
 62
7
  6
CONTINUOUS
370
-3
390
F
  0
LAYER
  5
201
100
AcDbSymbolTableRecord
100
AcDbLayerTableRecord
  2
03_AXES
 70
0
 62
7
  6
CONTINUOUS
370
-3
390
F
  0
LAYER
  5
202
100
AcDbSymbolTableRecord
100
AcDbLayerTableRecord
  2
04_POINTS
 70
0
 62
7
  6
CONTINUOUS
370
-3
390
F
  0
LAYER
  5
203
100
AcDbSymbolTableRecord
100
AcDbLayerTableRecord
  2
05_CURVES
 70
0
 62
7
  6
CONTINUOUS
370
-3
390
F
  0
LAYER
  5
204
100
AcDbSymbolTableRecord
100
AcDbLayerTableRecord
  2
06_SURFS
 70
0
 62
7
  6
CONTINUOUS
370
-3
390
F
  0
LAYER
  5
205
100
AcDbSymbolTableRecord
100
AcDbLayerTableRecord
  2
07_COSMETICS
 70
0
 62
7
  6
CONTINUOUS
370
-3
390
F
  0
LAYER
  5
206
100
AcDbSymbolTableRecord
100
AcDbLayerTableRecord
  2
10_NOTES
 70
0
 62
7
  6
CONTINUOUS
370
-3
390
F
  0
LAYER
  5
207
100
AcDbSymbolTableRecord
100
AcDbLayerTableRecord
  2
11_NOTES_PUB
 70
0
 62
7
  6
CONTINUOUS
370
-3
390
F
  0
LAYER
  5
208
100
AcDbSymbolTableRecord
100
AcDbLayerTableRecord
  2
13_REF_GTOL
 70
0
 62
7
  6
CONTINUOUS
370
-3
390
F
  0
LAYER
  5
209
100
AcDbSymbolTableRecord
100
AcDbLayerTableRecord
  2
16_MISC
 70
0
 62
7
  6
CONTINUOUS
370
-3
390
F
  0
LAYER
  5
20A
100
AcDbSymbolTableRecord
100
AcDbLayerTableRecord
  2
17_NO_PRINT
 70
0
 62
7
  6
CONTINUOUS
370
-3
390
F
  0
LAYER
  5
20B
100
AcDbSymbolTableRecord
100
AcDbLayerTableRecord
  2
18_DATUM_CAMS_JOINTS
 70
0
 62
7
  6
CONTINUOUS
370
-3
390
F
  0
LAYER
  5
20C
100
AcDbSymbolTableRecord
100
AcDbLayerTableRecord
  2
19_DATUM_FUNCTIONAL
 70
0
 62
7
  6
CONTINUOUS
370
-3
390
F
  0
LAYER
  5
20D
100
AcDbSymbolTableRecord
100
AcDbLayerTableRecord
  2
20_DATUM_KINEMATIC_SCHEME
 70
0
 62
7
  6
CONTINUOUS
370
-3
390
F
  0
ENDTAB
  0
TABLE
  2
STYLE
  5
3
100
AcDbSymbolTable
 70
1
  0
STYLE
  5
11
100
AcDbSymbolTableRecord
100
AcDbTextStyleTableRecord
  2
STANDARD
 70
0
 40
0.0
 41
1.0
 50
0.0
 71
0
 42
0.2
  3
ARIAL.TTF
  4

  0
STYLE
  5
20E
100
AcDbSymbolTableRecord
100
AcDbTextStyleTableRecord
  2
TEXTSTYLE_1
 70
0
 40
0.0
 41
0.8
 50
0.0
 71
0
 42
0.2
  3
gdt
  4

  0
ENDTAB
  0
TABLE
  2
VIEW
  5
6
100
AcDbSymbolTable
 70
0
  0
ENDTAB
  0
TABLE
  2
UCS
  5
7
100
AcDbSymbolTable
 70
0
  0
ENDTAB
  0
TABLE
  2
APPID
  5
9
100
AcDbSymbolTable
 70
1
  0
APPID
  5
20F
100
AcDbSymbolTableRecord
100
AcDbRegAppTableRecord
  2
ACAD
 70
0
  0
ENDTAB
  0
TABLE
  2
BLOCK_RECORD
  5
1
100
AcDbSymbolTable
 70
0
  0
BLOCK_RECORD
  5
210
100
AcDbSymbolTableRecord
100
AcDbBlockTableRecord
  2
*Model_Space
  0
BLOCK_RECORD
  5
211
100
AcDbSymbolTableRecord
100
AcDbBlockTableRecord
  2
*Paper_Space
  0
BLOCK_RECORD
  5
212
100
AcDbSymbolTableRecord
100
AcDbBlockTableRecord
  2
_FILLED
  0
ENDTAB
  0
TABLE
  2
DIMSTYLE
  5
A
100
AcDbSymbolTable
 70
1
100
AcDbDimStyleTable
 71
0
  0
DIMSTYLE
105
213
100
AcDbSymbolTableRecord
100
AcDbDimStyleTableRecord
  2
STANDARD
 70
0
  3

  4

 40
1.0
 41
0.4063059479
 42
1.0
 43
0.38
 44
1.0
 45
0.0
 46
0.0
 47
0.01
 48
0.01
140
0.568828327
141
0.09
142
0.0
143
25.4
144
1.0
145
0.0
146
1.0
147
0.625
 71
1
 72
0
 73
0
 74
0
 75
0
 76
0
 77
1
 78
8
 79
2
170
0
171
1
172
0
173
0
174
0
175
0
176
0
177
0
178
0
270
2
179
2
271
2
272
2
273
2
274
2
275
0
280
0
281
0
282
0
283
1
284
8
285
0
286
0
287
3
288
0
340
11
278
46
341
212
342
212
343
212
344
212
  0
ENDTAB
  0
ENDSEC
  0
SECTION
  2
BLOCKS
  0
BLOCK
  5
20
100
AcDbEntity
  8
0
100
AcDbBlockBegin
  2
*Model_Space
 70
0
 10
0.0
 20
0.0
 30
0.0
  3
*Model_Space
  1

  0
ENDBLK
  5
21
100
AcDbEntity
  8
0
100
AcDbBlockEnd
  0
BLOCK
  5
1C
100
AcDbEntity
  8
0
100
AcDbBlockBegin
  2
*Paper_Space
 70
0
 10
0.0
 20
0.0
 30
0.0
  3
*Paper_Space
  1

  0
ENDBLK
  5
1D
100
AcDbEntity
  8
0
100
AcDbBlockEnd
  0
BLOCK
  5
214
100
AcDbEntity
  8
0
100
AcDbBlockBegin
  2
_FILLED
 70
64
 10
0.0
 20
0.0
  3
_FILLED
  1

  0
SOLID
  5
215
100
AcDbEntity
  8
0
  6
BYBLOCK
 62
0
100
AcDbTrace
 10
0.0
 20
0.0
 11
-1.0
 21
0.25
 12
-1.0
 22
-0.25
 13
-1.0
 23
-0.25
  0
ENDBLK
  5
216
100
AcDbEntity
  8
0
  6
BYBLOCK
 62
0
100
AcDbBlockEnd
  0
ENDSEC
  0
SECTION
  2
ENTITIES
  0
LINE
  5
217
100
AcDbEntity
  8
0
100
AcDbLine
 62
7
  6
BYLAYER
 10
4.8730398212
 20
5.8527358946
 11
29.3748217264
 21
5.8527358946
  0
LINE
  5
218
100
AcDbEntity
  8
0
100
AcDbLine
 62
7
  6
BYLAYER
 10
7.8739307738
 20
39.8527259723
 11
6.8239307738
 21
38.802724846
  0
LINE
  5
219
100
AcDbEntity
  8
0
100
AcDbLine
 62
7
  6
BYLAYER
 10
22.0714132509
 20
6.8265589463
 11
12.1764482968
 21
6.8265589463
  0
LINE
  5
21A
100
AcDbEntity
  8
0
100
AcDbLine
 62
7
  6
BYLAYER
 10
4.8730398227
 20
6.8352834882
 11
7.1771205305
 21
6.835283595
  0
LINE
  5
21B
100
AcDbEntity
  8
0
100
AcDbLine
 62
7
  6
BYLAYER
 10
27.0707407169
 20
6.8352835946
 11
29.3748217257
 21
6.8352834882
  0
LINE
  5
21C
100
AcDbEntity
  8
0
100
AcDbLine
 62
7
  6
BYLAYER
 10
3.8733824962
 20
6.8265589463
 11
3.6239307738
 21
16.3527358946
  0
LWPOLYLINE
  5
21D
100
AcDbEntity
  8
0
100
AcDbPolyline
 62
7
  6
BYLAYER
 90
3
 70
0
 10
24.291846171
 20
9.6576719312
 10
23.4249505059
 20
9.6572963216
 10
23.1205006883
 20
9.6562264125
  0
LINE
  5
21E
100
AcDbEntity
  8
0
100
AcDbLine
 62
7
  6
BYLAYER
 10
4.7991708328
 20
9.6562263759
 11
11.1273608592
 21
9.6562264186
  0
LINE
  5
21F
100
AcDbEntity
  8
0
100
AcDbLine
 62
7
  6
BYLAYER
 10
23.1205006877
 20
9.656226477
 11
29.4486907141
 21
9.6562263759
  0
LINE
  5
220
100
AcDbEntity
  8
0
100
AcDbLine
 62
7
  6
BYLAYER
 10
4.2812176995
 20
9.8527358946
 11
11.0448878771
 21
9.8527358946
  0
LINE
  5
221
100
AcDbEntity
  8
0
100
AcDbLine
 62
7
  6
BYLAYER
 10
23.20297551
 20
9.8527358946
 11
29.9666438481
 21
9.8527358946
  0
LINE
  5
222
100
AcDbEntity
  8
0
100
AcDbLine
 62
7
  6
BYLAYER
 10
4.781046362
 20
10.3396474204
 11
11.0448956141
 21
10.3396462716
  0
LINE
  5
223
100
AcDbEntity
  8
0
100
AcDbLine
 62
7
  6
BYLAYER
 10
23.2029659358
 20
10.3396462716
 11
29.4668151848
 21
10.3396474205
  0
LINE
  5
224
100
AcDbEntity
  8
0
100
AcDbLine
 62
7
  6
BYLAYER
 10
27.1198914709
 20
9.6562265418
 11
24.291846171
 21
9.6576719312
  0
LWPOLYLINE
  5
225
100
AcDbEntity
  8
0
100
AcDbPolyline
 62
7
  6
BYLAYER
 90
4
 70
0
 10
11.1273608592
 20
9.6562264186
 10
10.8229107903
 20
9.6572963258
 10
9.95601476
 20
9.6576719321
 10
7.1279700768
 20
9.6562265352
  0
LINE
  5
226
100
AcDbEntity
  8
0
100
AcDbLine
 62
7
  6
BYLAYER
 10
4.6235880988
 20
16.3527358946
 11
4.781046362
 21
10.3396474204
  0
LINE
  5
227
100
AcDbEntity
  8
0
100
AcDbLine
 62
7
  6
BYLAYER
 10
4.7991708328
 20
9.6562263759
 11
4.8730398227
 21
6.8352834882
  0
LINE
  5
228
100
AcDbEntity
  8
0
100
AcDbLine
 62
7
  6
BYLAYER
 10
4.7810463652
 20
9.8527358946
 11
4.7810463652
 21
10.339646846
  0
LINE
  5
229
100
AcDbEntity
  8
0
100
AcDbLine
 62
7
  6
BYLAYER
 10
4.7991708325
 20
9.6562263759
 11
4.7991708325
 21
9.8527358946
  0
LINE
  5
22A
100
AcDbEntity
  8
0
100
AcDbLine
 62
7
  6
BYLAYER
 10
4.8730398212
 20
5.8527358946
 11
4.8730398212
 21
6.8352835416
  0
LINE
  5
22B
100
AcDbEntity
  8
0
100
AcDbLine
 62
7
  6
BYLAYER
 10
4.9092364088
 20
32.4527358946
 11
4.9092364088
 21
31.8527358946
  0
LINE
  5
22C
100
AcDbEntity
  8
0
100
AcDbLine
 62
7
  6
BYLAYER
 10
3.6239307738
 20
16.3527358946
 11
4.0298125581
 21
31.8527358946
  0
LINE
  5
22D
100
AcDbEntity
  8
0
100
AcDbLine
 62
7
  6
BYLAYER
 10
5.0294698831
 20
31.8527358946
 11
4.6235880988
 21
16.3527358946
  0
LINE
  5
22E
100
AcDbEntity
  8
0
100
AcDbLine
 62
7
  6
BYLAYER
 10
7.1771205305
 20
6.835283595
 11
7.1279700796
 21
9.6562263759
  0
LINE
  5
22F
100
AcDbEntity
  8
0
100
AcDbLine
 62
7
  6
BYLAYER
 10
6.8239307738
 20
38.8027236921
 11
6.8239307738
 21
32.4527358946
  0
LINE
  5
230
100
AcDbEntity
  8
0
100
AcDbLine
 62
7
  6
BYLAYER
 10
7.1279700796
 20
9.8527358946
 11
7.1279700796
 21
9.6562263759
  0
LINE
  5
231
100
AcDbEntity
  8
0
100
AcDbLine
 62
7
  6
BYLAYER
 10
7.1772098208
 20
6.8352835416
 11
7.1772098208
 21
5.8527358946
  0
LINE
  5
232
100
AcDbEntity
  8
0
100
AcDbLine
 62
7
  6
BYLAYER
 10
7.3587261516
 20
32.4527358946
 11
7.3587261593
 21
31.8527358946
  0
LINE
  5
233
100
AcDbEntity
  8
0
100
AcDbLine
 62
7
  6
BYLAYER
 10
7.8739307738
 20
41.0527358946
 11
7.8739307738
 21
39.8527259723
  0
LINE
  5
234
100
AcDbEntity
  8
0
100
AcDbLine
 62
7
  6
BYLAYER
 10
3.6239307771
 20
16.3527357678
 11
30.6239307704
 21
16.3527357622
  0
LINE
  5
235
100
AcDbEntity
  8
0
100
AcDbLine
 62
7
  6
BYLAYER
 10
11.1766006015
 20
6.8352834882
 11
11.1273608602
 21
9.6562263759
  0
LINE
  5
236
100
AcDbEntity
  8
0
100
AcDbLine
 62
7
  6
BYLAYER
 10
9.9144205908
 20
42.6527358946
 11
9.9144205908
 21
41.0527358946
  0
LINE
  5
237
100
AcDbEntity
  8
0
100
AcDbLine
 62
7
  6
BYLAYER
 10
11.0448936059
 20
10.339646846
 11
11.0448936059
 21
9.8527358946
  0
LINE
  5
238
100
AcDbEntity
  8
0
100
AcDbLine
 62
7
  6
BYLAYER
 10
11.0689982657
 20
32.4527358946
 11
11.0689982657
 21
31.8527358946
  0
LINE
  5
239
100
AcDbEntity
  8
0
100
AcDbLine
 62
7
  6
BYLAYER
 10
12.1270269353
 20
9.6579714227
 11
12.1764482968
 21
6.8265589463
  0
LINE
  5
23A
100
AcDbEntity
  8
0
100
AcDbLine
 62
7
  6
BYLAYER
 10
11.3286341532
 20
41.0527358946
 11
11.3286341532
 21
42.6527358946
  0
LINE
  5
23B
100
AcDbEntity
  8
0
100
AcDbLine
 62
7
  6
BYLAYER
 10
12.1764482967
 20
5.8527358946
 11
12.1764482967
 21
6.8265589463
  0
LINE
  5
23C
100
AcDbEntity
  8
0
100
AcDbLine
 62
7
  6
BYLAYER
 10
12.4747036875
 20
42.6527358946
 11
12.4747036875
 21
41.0527358946
  0
LINE
  5
23D
100
AcDbEntity
  8
0
100
AcDbLine
 62
7
  6
BYLAYER
 10
21.7731578601
 20
42.6527358946
 11
21.7731578601
 21
41.0527358946
  0
LINE
  5
23E
100
AcDbEntity
  8
0
100
AcDbLine
 62
7
  6
BYLAYER
 10
22.071413251
 20
6.8265589463
 11
22.071413251
 21
5.8527358946
  0
LINE
  5
23F
100
AcDbEntity
  8
0
100
AcDbLine
 62
7
  6
BYLAYER
 10
22.9192273945
 20
42.6527358946
 11
22.9192273945
 21
41.0527358946
  0
LINE
  5
240
100
AcDbEntity
  8
0
100
AcDbLine
 62
7
  6
BYLAYER
 10
23.1788632819
 20
31.8527358946
 11
23.1788632819
 21
32.4527358946
  0
LINE
  5
241
100
AcDbEntity
  8
0
100
AcDbLine
 62
7
  6
BYLAYER
 10
23.2029538184
 20
10.339646846
 11
23.2029538184
 21
9.8527358946
  0
LINE
  5
242
100
AcDbEntity
  8
0
100
AcDbLine
 62
7
  6
BYLAYER
 10
22.0714132509
 20
6.8265589463
 11
22.1208346107
 21
9.6579713412
  0
LINE
  5
243
100
AcDbEntity
  8
0
100
AcDbLine
 62
7
  6
BYLAYER
 10
23.1205006874
 20
9.6562263759
 11
23.0712609461
 21
6.8352834882
  0
LINE
  5
244
100
AcDbEntity
  8
0
100
AcDbLine
 62
7
  6
BYLAYER
 10
24.3334409568
 20
41.0527358946
 11
24.3334409568
 21
42.6527358946
  0
LINE
  5
245
100
AcDbEntity
  8
0
100
AcDbLine
 62
7
  6
BYLAYER
 10
4.0298125581
 20
31.8527358946
 11
30.2180489895
 21
31.8527358946
  0
LINE
  5
246
100
AcDbEntity
  8
0
100
AcDbLine
 62
7
  6
BYLAYER
 10
26.3739307738
 20
41.0527358946
 11
26.3739307738
 21
39.8527259723
  0
LINE
  5
247
100
AcDbEntity
  8
0
100
AcDbLine
 62
7
  6
BYLAYER
 10
4.9092364088
 20
32.4527358946
 11
11.0689982657
 21
32.4527358946
  0
LINE
  5
248
100
AcDbEntity
  8
0
100
AcDbLine
 62
7
  6
BYLAYER
 10
23.1788632819
 20
32.4527358946
 11
29.3386251389
 21
32.4527358946
  0
LINE
  5
249
100
AcDbEntity
  8
0
100
AcDbLine
 62
7
  6
BYLAYER
 10
26.8891353961
 20
32.4527358946
 11
26.8891353884
 21
31.8527358946
  0
LINE
  5
24A
100
AcDbEntity
  8
0
100
AcDbLine
 62
7
  6
BYLAYER
 10
27.070651752
 20
5.8527358946
 11
27.070651752
 21
6.8352835414
  0
LINE
  5
24B
100
AcDbEntity
  8
0
100
AcDbLine
 62
7
  6
BYLAYER
 10
27.119891468
 20
9.6562263759
 11
27.119891468
 21
9.8527358946
  0
LINE
  5
24C
100
AcDbEntity
  8
0
100
AcDbLine
 62
7
  6
BYLAYER
 10
27.4239307738
 20
38.8027236921
 11
27.4239307738
 21
32.4527358946
  0
LINE
  5
24D
100
AcDbEntity
  8
0
100
AcDbLine
 62
7
  6
BYLAYER
 10
27.119891468
 20
9.6562263759
 11
27.0707407169
 21
6.8352835946
  0
LINE
  5
24E
100
AcDbEntity
  8
0
100
AcDbLine
 62
7
  6
BYLAYER
 10
29.6242734488
 20
16.3527358946
 11
29.2183916645
 21
31.8527358946
  0
LINE
  5
24F
100
AcDbEntity
  8
0
100
AcDbLine
 62
7
  6
BYLAYER
 10
29.3386251389
 20
31.8527358946
 11
29.3386251389
 21
32.4527358946
  0
LINE
  5
250
100
AcDbEntity
  8
0
100
AcDbLine
 62
7
  6
BYLAYER
 10
29.3748217264
 20
6.8352835414
 11
29.3748217264
 21
5.8527358946
  0
LINE
  5
251
100
AcDbEntity
  8
0
100
AcDbLine
 62
7
  6
BYLAYER
 10
29.4486907061
 20
9.8527358946
 11
29.4486907061
 21
9.6562263759
  0
LINE
  5
252
100
AcDbEntity
  8
0
100
AcDbLine
 62
7
  6
BYLAYER
 10
29.4668151849
 20
10.339646846
 11
29.4668151849
 21
9.8527358946
  0
LINE
  5
253
100
AcDbEntity
  8
0
100
AcDbLine
 62
7
  6
BYLAYER
 10
30.2180489895
 20
31.8527358946
 11
30.6239307738
 21
16.3527358946
  0
LINE
  5
254
100
AcDbEntity
  8
0
100
AcDbLine
 62
7
  6
BYLAYER
 10
29.3748217257
 20
6.8352834882
 11
29.4486907141
 21
9.6562263759
  0
LINE
  5
255
100
AcDbEntity
  8
0
100
AcDbLine
 62
7
  6
BYLAYER
 10
29.4668151848
 20
10.3396474205
 11
29.6242734488
 21
16.3527358946
  0
LINE
  5
256
100
AcDbEntity
  8
0
100
AcDbLine
 62
7
  6
BYLAYER
 10
30.6239307738
 20
16.3527358946
 11
30.3744790514
 21
6.8265589463
  0
LINE
  5
257
100
AcDbEntity
  8
0
100
AcDbLine
 62
7
  6
BYLAYER
 10
6.8239307738
 20
38.8027236921
 11
27.4239307738
 21
38.8027236921
  0
LINE
  5
258
100
AcDbEntity
  8
0
100
AcDbLine
 62
7
  6
BYLAYER
 10
26.3739307738
 20
39.8527259723
 11
7.8739307738
 21
39.8527259723
  0
LINE
  5
259
100
AcDbEntity
  8
0
100
AcDbLine
 62
7
  6
BYLAYER
 10
7.8739394976
 20
41.0527358946
 11
9.9144205908
 21
41.0527358946
  0
LINE
  5
25A
100
AcDbEntity
  8
0
100
AcDbLine
 62
7
  6
BYLAYER
 10
11.3286341532
 20
41.0527358946
 11
22.9192273945
 21
41.0527358946
  0
LINE
  5
25B
100
AcDbEntity
  8
0
100
AcDbLine
 62
7
  6
BYLAYER
 10
24.3334409568
 20
41.0527358946
 11
26.37392205
 21
41.0527358946
  0
LINE
  5
25C
100
AcDbEntity
  8
0
100
AcDbLine
 62
7
  6
BYLAYER
 10
9.9144205908
 20
42.6527358946
 11
12.4747036875
 21
42.6527358946
  0
LINE
  5
25D
100
AcDbEntity
  8
0
100
AcDbLine
 62
7
  6
BYLAYER
 10
21.7731578601
 20
42.6527358946
 11
24.3334409568
 21
42.6527358946
  0
LINE
  5
25E
100
AcDbEntity
  8
0
100
AcDbLine
 62
7
  6
BYLAYER
 10
26.3739307738
 20
39.8527259723
 11
27.4239307738
 21
38.802724846
  0
ARC
  5
25F
100
AcDbEntity
  8
0
100
AcDbCircle
 62
7
  6
BYLAYER
 10
29.3748217264
 20
6.8527358946
 40
1.0
100
AcDbArc
 50
270.0
 51
358.4999999997
  0
ARC
  5
260
100
AcDbEntity
  8
0
100
AcDbCircle
 62
7
  6
BYLAYER
 10
22.071413251
 20
6.8527358946
 40
1.0
100
AcDbArc
 50
270.0
 51
359.0000032045
  0
ARC
  5
261
100
AcDbEntity
  8
0
100
AcDbCircle
 62
7
  6
BYLAYER
 10
4.8730398212
 20
6.8527358946
 40
1.0
100
AcDbArc
 50
181.5000000003
 51
270.0
  0
ARC
  5
262
100
AcDbEntity
  8
0
100
AcDbCircle
 62
7
  6
BYLAYER
 10
12.1764482967
 20
6.8527358946
 40
1.0
100
AcDbArc
 50
180.9999967313
 51
270.0
  0
ARC
  5
263
100
AcDbEntity
  8
0
100
AcDbCircle
 62
7
  6
BYLAYER
 10
29.966776123
 20
10.3527356996
 40
0.4998392529
100
AcDbArc
 50
269.9848424171
 51
358.4995595871
  0
ARC
  5
264
100
AcDbEntity
  8
0
100
AcDbCircle
 62
7
  6
BYLAYER
 10
4.2810844988
 20
10.3527368081
 40
0.4998392526
100
AcDbArc
 50
181.5005701938
 51
270.0152636503
  0
ARC
  5
265
100
AcDbEntity
  8
0
100
AcDbCircle
 62
7
  6
BYLAYER
 10
23.320475599
 20
9.6527359864
 40
0.1999998879
100
AcDbArc
 50
90.0015391629
 51
179.0000531435
  0
ARC
  5
266
100
AcDbEntity
  8
0
100
AcDbCircle
 62
7
  6
BYLAYER
 10
10.9273859004
 20
9.6527359923
 40
0.1999998876
100
AcDbArc
 50
0.9999449188
 51
89.9984470109
  0
SPLINE
  5
267
100
AcDbEntity
  8
0
100
AcDbSpline
 62
7
  6
BYLAYER
 70
0
 71
3
 72
28
 73
24
 74
0
 42
0.0000001
 43
0.0000001
 44
0.0000000001
 40
0.0
 40
0.0
 40
0.0
 40
0.0
 40
0.1949444171
 40
0.3825415212
 40
0.4711946613
 40
0.5553096972
 40
0.6340977331
 40
0.7067942197
 40
0.7726668307
 40
0.8311102927
 40
0.8815526015
 40
0.903612268
 40
0.9235006418
 40
0.9411727113
 40
0.9565835981
 40
0.969688838
 40
0.9804553023
 40
0.9888676388
 40
0.9949142573
 40
0.9970490282
 40
0.9985934498
 40
0.9995573414
 40
1.0
 40
1.0
 40
1.0
 40
1.0
 10
29.4668151845
 20
10.3396473755
 30
0.0
 10
29.5317906289
 20
10.3387960528
 30
0.0
 10
29.659294859
 20
10.3372907442
 30
0.0
 10
29.8163522323
 20
10.335846514
 30
0.0
 10
29.9364703148
 20
10.3350134737
 30
0.0
 10
30.0203206735
 20
10.3345700321
 30
0.0
 10
30.0988528982
 20
10.3342992423
 30
0.0
 10
30.1713047706
 20
10.3342026251
 30
0.0
 10
30.2369752122
 20
10.3342818361
 30
0.0
 10
30.295227153
 20
10.3345338985
 30
0.0
 10
30.3388740221
 20
10.3348975084
 30
0.0
 10
30.369668122
 20
10.3352900147
 30
0.0
 10
30.389538832
 20
10.3356122159
 30
0.0
 10
30.4071920469
 20
10.3359741339
 30
0.0
 10
30.4225832963
 20
10.336374524
 30
0.0
 10
30.4356691124
 20
10.3368112433
 30
0.0
 10
30.4464235623
 20
10.3372829898
 30
0.0
 10
30.4548093367
 20
10.3377806847
 30
0.0
 10
30.4603386971
 20
10.3382569074
 30
0.0
 10
30.4635319938
 20
10.3386678298
 30
0.0
 10
30.4650909997
 20
10.3389729625
 30
0.0
 10
30.465970189
 20
10.3392015413
 30
0.0
 10
30.4664693414
 20
10.3394999027
 30
0.0
 10
30.4664725107
 20
10.3396474205
 30
0.0
  0
SPLINE
  5
268
100
AcDbEntity
  8
0
100
AcDbSpline
 62
7
  6
BYLAYER
 70
0
 71
3
 72
26
 73
22
 74
0
 42
0.0000001
 43
0.0000001
 44
0.0000000001
 40
0.0
 40
0.0
 40
0.0
 40
0.0
 40
0.0005230975
 40
0.0015244011
 40
0.0052375545
 40
0.0113016283
 40
0.0197232491
 40
0.0304945043
 40
0.0436019351
 40
0.0590133111
 40
0.0766845375
 40
0.11862741
 40
0.1690604553
 40
0.2274911741
 40
0.2933485125
 40
0.3660279634
 40
0.4447977958
 40
0.5288939682
 40
0.617528072
 40
0.8050884351
 40
1.0
 40
1.0
 40
1.0
 40
1.0
 10
30.3744790266
 20
6.8265579988
 30
0.0
 10
30.3744744666
 20
6.8263836467
 30
0.0
 10
30.3740277501
 20
6.8259858239
 30
0.0
 10
30.3724248417
 20
6.825448794
 30
0.0
 10
30.368820073
 20
6.8247987148
 30
0.0
 10
30.3628179503
 20
6.8241786646
 30
0.0
 10
30.354401848
 20
6.8235774546
 30
0.0
 10
30.3436508262
 20
6.823045405
 30
0.0
 10
30.3305567165
 20
6.8225754733
 30
0.0
 10
30.3151616921
 20
6.8221760248
 30
0.0
 10
30.2901504556
 20
6.8217110979
 30
0.0
 10
30.2534596944
 20
6.8213539885
 30
0.0
 10
30.2031773835
 20
6.8212320566
 30
0.0
 10
30.1449217003
 20
6.8214049198
 30
0.0
 10
30.0792500578
 20
6.821872124
 30
0.0
 10
30.0067992968
 20
6.8226334657
 30
0.0
 10
29.9282703209
 20
6.8236800721
 30
0.0
 10
29.8444252024
 20
6.8250032263
 30
0.0
 10
29.7243159679
 20
6.8271622096
 30
0.0
 10
29.5672734416
 20
6.8304602811
 30
0.0
 10
29.439787104
 20
6.8335818701
 30
0.0
 10
29.3748217014
 20
6.8352825309
 30
0.0
  0
SPLINE
  5
269
100
AcDbEntity
  8
0
100
AcDbSpline
 62
7
  6
BYLAYER
 70
0
 71
3
 72
20
 73
16
 74
0
 42
0.0000001
 43
0.0000001
 44
0.0000000001
 40
0.0
 40
0.0
 40
0.0
 40
0.0
 40
0.0236514678
 40
0.0509477852
 40
0.0837129644
 40
0.1228953877
 40
0.1689379266
 40
0.2219335906
 40
0.3480747589
 40
0.4968948803
 40
0.6608442788
 40
0.7469655471
 40
0.8353314619
 40
0.922595192
 40
1.0
 40
1.0
 40
1.0
 40
1.0
 10
30.4486012701
 20
9.6579712696
 30
0.0
 10
30.4487076153
 20
9.6621997274
 30
0.0
 10
30.4469492834
 20
9.6713984455
 30
0.0
 10
30.4393901063
 20
9.6845212097
 30
0.0
 10
30.4272668123
 20
9.6976229927
 30
0.0
 10
30.4106285463
 20
9.7106989522
 30
0.0
 10
30.3895929223
 20
9.7237450446
 30
0.0
 10
30.3538517773
 20
9.7423536747
 30
0.0
 10
30.2997751779
 20
9.7652436521
 30
0.0
 10
30.2260360473
 20
9.7921519753
 30
0.0
 10
30.1582751088
 20
9.8145550465
 30
0.0
 10
30.0999729646
 20
9.8308504426
 30
0.0
 10
30.0544023266
 20
9.8416468516
 30
0.0
 10
30.0098945003
 20
9.8498487817
 30
0.0
 10
29.9804742462
 20
9.8527354376
 30
0.0
 10
29.9666312807
 20
9.8527354498
 30
0.0
  0
SPLINE
  5
26A
100
AcDbEntity
  8
0
100
AcDbSpline
 62
7
  6
BYLAYER
 70
0
 71
3
 72
15
 73
11
 74
0
 42
0.0000001
 43
0.0000001
 44
0.0000000001
 40
0.0
 40
0.0
 40
0.0
 40
0.0
 40
0.0759046966
 40
0.1625178206
 40
0.2623890432
 40
0.378275719
 40
0.5121737108
 40
0.6628155536
 40
0.8273745109
 40
1.0
 40
1.0
 40
1.0
 40
1.0
 10
23.2030267035
 20
9.8527304456
 30
0.0
 10
23.1751873935
 20
9.8527298954
 30
0.0
 10
23.1155903151
 20
9.8479792634
 30
0.0
 10
23.020694681
 20
9.8317596212
 30
0.0
 10
22.9122381966
 20
9.8085514629
 30
0.0
 10
22.7870289923
 20
9.7808373873
 30
0.0
 10
22.6431834649
 20
9.7511837243
 30
0.0
 10
22.4813976344
 20
9.720229813
 30
0.0
 10
22.3051718406
 20
9.6892812936
 30
0.0
 10
22.1832403394
 20
9.6686321564
 30
0.0
 10
22.1208187222
 20
9.6580438699
 30
0.0
  0
SPLINE
  5
26B
100
AcDbEntity
  8
0
100
AcDbSpline
 62
7
  6
BYLAYER
 70
0
 71
3
 72
29
 73
25
 74
0
 42
0.0000001
 43
0.0000001
 44
0.0000000001
 40
0.0
 40
0.0
 40
0.0
 40
0.0
 40
0.0003306408
 40
0.0012504542
 40
0.0027700156
 40
0.004888559
 40
0.0076039693
 40
0.0109137598
 40
0.0193058745
 40
0.0300432614
 40
0.04310385
 40
0.0584654261
 40
0.0761057081
 40
0.0959950372
 40
0.1180743638
 40
0.1685373667
 40
0.2269633772
 40
0.2928209742
 40
0.3655361651
 40
0.4443647823
 40
0.5285201014
 40
0.6172153894
 40
0.8048712385
 40
1.0
 40
1.0
 40
1.0
 40
1.0
 10
23.1204784919
 20
9.6562264327
 30
0.0
 10
23.1204775098
 20
9.6563366091
 30
0.0
 10
23.119865004
 20
9.6563623862
 30
0.0
 10
23.1191370306
 20
9.6565299964
 30
0.0
 10
23.1175161304
 20
9.6566103915
 30
0.0
 10
23.1154486622
 20
9.6567411372
 30
0.0
 10
23.1127192983
 20
9.6568505824
 30
0.0
 10
23.1079262865
 20
9.6570181513
 30
0.0
 10
23.1004454829
 20
9.6572066068
 30
0.0
 10
23.0897230432
 20
9.6574148871
 30
0.0
 10
23.0766743342
 20
9.6576123495
 30
0.0
 10
23.0613261744
 20
9.6577997985
 30
0.0
 10
23.0437017836
 20
9.6579755158
 30
0.0
 10
23.0238387375
 20
9.6581389414
 30
0.0
 10
22.9930380383
 20
9.6583493831
 30
0.0
 10
22.9493954356
 20
9.6585710123
 30
0.0
 10
22.8911642081
 20
9.6587738909
 30
0.0
 10
22.8255176036
 20
9.6589203887
 30
0.0
 10
22.753072044
 20
9.6590079928
 30
0.0
 10
22.6745290106
 20
9.6590365135
 30
0.0
 10
22.5906608626
 20
9.6590056684
 30
0.0
 10
22.4705278065
 20
9.658882565
 30
0.0
 10
22.3134147995
 20
9.6585775966
 30
0.0
 10
22.1858583827
 20
9.6581980066
 30
0.0
 10
22.1208351841
 20
9.6579713071
 30
0.0
  0
SPLINE
  5
26C
100
AcDbEntity
  8
0
100
AcDbSpline
 62
7
  6
BYLAYER
 70
0
 71
3
 72
17
 73
13
 74
0
 42
0.0000001
 43
0.0000001
 44
0.0000000001
 40
0.0
 40
0.0
 40
0.0
 40
0.0
 40
0.1249616987
 40
0.1876737729
 40
0.2502719679
 40
0.3752501415
 40
0.5002702371
 40
0.6252409745
 40
0.7501672766
 40
0.8126657661
 40
0.8751401663
 40
1.0
 40
1.0
 40
1.0
 40
1.0
 10
11.0448956141
 20
10.3396462716
 30
0.0
 10
11.0999979792
 20
10.340680849
 30
0.0
 10
11.1831251985
 20
10.3321334757
 30
0.0
 10
11.2904920119
 20
10.3063580433
 30
0.0
 10
11.3956035021
 20
10.2722771084
 30
0.0
 10
11.5215274799
 20
10.2148474619
 30
0.0
 10
11.6614323651
 20
10.125844018
 30
0.0
 10
11.7898810765
 20
10.0212409649
 30
0.0
 10
11.8885913274
 20
9.9249694545
 30
0.0
 10
11.9647008881
 20
9.8452531692
 30
0.0
 10
12.0392055436
 20
9.7640712908
 30
0.0
 10
12.0927666011
 20
9.7010831451
 30
0.0
 10
12.1270269353
 20
9.6579714227
 30
0.0
  0
SPLINE
  5
26D
100
AcDbEntity
  8
0
100
AcDbSpline
 62
7
  6
BYLAYER
 70
0
 71
3
 72
18
 73
14
 74
0
 42
0.0000001
 43
0.0000001
 44
0.0000000001
 40
0.0
 40
0.0
 40
0.0
 40
0.0
 40
0.1249442981
 40
0.1876550025
 40
0.2502459133
 40
0.3127739967
 40
0.3752830342
 40
0.5002993843
 40
0.6252613228
 40
0.750183962
 40
0.8126786488
 40
0.8751484169
 40
1.0
 40
1.0
 40
1.0
 40
1.0
 10
23.2029659358
 20
10.3396462716
 30
0.0
 10
23.1478695928
 20
10.3408282064
 30
0.0
 10
23.0647259474
 20
10.3321744201
 30
0.0
 10
22.9573922978
 20
10.3063245348
 30
0.0
 10
22.878488084
 20
10.2807573931
 30
0.0
 10
22.8018528871
 20
10.2493228543
 30
0.0
 10
22.7030721278
 20
10.2000761917
 30
0.0
 10
22.586434477
 20
10.1258482589
 30
0.0
 10
22.4580348673
 20
10.021204419
 30
0.0
 10
22.3592905846
 20
9.9249587756
 30
0.0
 10
22.2831409133
 20
9.8452756929
 30
0.0
 10
22.2086368889
 20
9.7640899438
 30
0.0
 10
22.1550950489
 20
9.7010842257
 30
0.0
 10
22.1208346107
 20
9.6579713412
 30
0.0
  0
SPLINE
  5
26E
100
AcDbEntity
  8
0
100
AcDbSpline
 62
7
  6
BYLAYER
 70
0
 71
3
 72
29
 73
25
 74
0
 42
0.0000001
 43
0.0000001
 44
0.0000000001
 40
0.0
 40
0.0
 40
0.0
 40
0.0
 40
0.1951287457
 40
0.3827845693
 40
0.4714798532
 40
0.5556351741
 40
0.6344637962
 40
0.7071789924
 40
0.7730365931
 40
0.8314626065
 40
0.881925612
 40
0.9040049401
 40
0.923894271
 40
0.9415345552
 40
0.9568961338
 40
0.9699567252
 40
0.980694115
 40
0.9890862326
 40
0.9923960246
 40
0.9951114362
 40
0.997229981
 40
0.9987495437
 40
0.9996693582
 40
1.0
 40
1.0
 40
1.0
 40
1.0
 10
12.1270263671
 20
9.657971288
 30
0.0
 10
12.0620031732
 20
9.6581979874
 30
0.0
 10
11.9344467689
 20
9.6585775774
 30
0.0
 10
11.7773337755
 20
9.6588825458
 30
0.0
 10
11.6572007274
 20
9.6590056493
 30
0.0
 10
11.5733325778
 20
9.6590364943
 30
0.0
 10
11.4947895397
 20
9.6590079737
 30
0.0
 10
11.4223439747
 20
9.6589203696
 30
0.0
 10
11.3566973656
 20
9.6587738719
 30
0.0
 10
11.2984661344
 20
9.6585709934
 30
0.0
 10
11.254823529
 20
9.6583493642
 30
0.0
 10
11.2240228275
 20
9.6581389224
 30
0.0
 10
11.2041597793
 20
9.6579754969
 30
0.0
 10
11.1865353862
 20
9.6577997795
 30
0.0
 10
11.1711872238
 20
9.6576123305
 30
0.0
 10
11.1581385119
 20
9.6574148681
 30
0.0
 10
11.1474160692
 20
9.6572065877
 30
0.0
 10
11.1399352632
 20
9.6570181323
 30
0.0
 10
11.1351422494
 20
9.6568505633
 30
0.0
 10
11.1324128842
 20
9.6567411182
 30
0.0
 10
11.1303454142
 20
9.6566103723
 30
0.0
 10
11.1287245136
 20
9.6565299776
 30
0.0
 10
11.1279965377
 20
9.6563623666
 30
0.0
 10
11.1273840325
 20
9.6563365903
 30
0.0
 10
11.1273830495
 20
9.6562264136
 30
0.0
  0
SPLINE
  5
26F
100
AcDbEntity
  8
0
100
AcDbSpline
 62
7
  6
BYLAYER
 70
0
 71
3
 72
24
 73
20
 74
0
 42
0.0000001
 43
0.0000001
 44
0.0000000001
 40
0.0
 40
0.0
 40
0.0
 40
0.0
 40
0.1947684782
 40
0.3821941117
 40
0.4707667774
 40
0.5548068354
 40
0.6335269711
 40
0.7061643197
 40
0.7719884864
 40
0.8303964441
 40
0.8808190897
 40
0.9227667599
 40
0.9558738301
 40
0.9690040765
 40
0.979807888
 40
0.988276027
 40
0.9944096112
 40
0.9982405427
 40
1.0
 40
1.0
 40
1.0
 40
1.0
 10
22.0714126707
 20
6.8265579988
 30
0.0
 10
22.1363905704
 20
6.8254245816
 30
0.0
 10
22.2639025381
 20
6.8235239716
 30
0.0
 10
22.4209753218
 20
6.822003539
 30
0.0
 10
22.5411067781
 20
6.8213858165
 30
0.0
 10
22.6249682445
 20
6.8212305517
 30
0.0
 10
22.7035126819
 20
6.8213740725
 30
0.0
 10
22.7759778822
 20
6.8218129415
 30
0.0
 10
22.8416631044
 20
6.8225448158
 30
0.0
 10
22.8999308427
 20
6.82355727
 30
0.0
 10
22.950226355
 20
6.8248353454
 30
0.0
 10
22.9920635317
 20
6.8263644514
 30
0.0
 10
23.0214577066
 20
6.8279126915
 30
0.0
 10
23.0404261957
 20
6.8293362552
 30
0.0
 10
23.0512128299
 20
6.8303903738
 30
0.0
 10
23.0595608874
 20
6.8314234104
 30
0.0
 10
23.0657624755
 20
6.8326133498
 30
0.0
 10
23.0692615726
 20
6.8335061464
 30
0.0
 10
23.071250683
 20
6.8346955477
 30
0.0
 10
23.0712609294
 20
6.8352825309
 30
0.0
  0
SPLINE
  5
270
100
AcDbEntity
  8
0
100
AcDbSpline
 62
7
  6
BYLAYER
 70
0
 71
3
 72
36
 73
32
 74
0
 42
0.0000001
 43
0.0000001
 44
0.0000000001
 40
0.0
 40
0.0
 40
0.0
 40
0.0
 40
0.1950551746
 40
0.2902773565
 40
0.3826992894
 40
0.4713999668
 40
0.5555642697
 40
0.6344035519
 40
0.707129173
 40
0.7729955572
 40
0.8314293266
 40
0.8576932577
 40
0.8819001705
 40
0.9039837837
 40
0.9238778224
 40
0.9415232791
 40
0.9568901754
 40
0.9699558072
 40
0.9756185683
 40
0.9806975236
 40
0.9851898573
 40
0.9890927679
 40
0.9924034784
 40
0.9951192587
 40
0.9972374782
 40
0.9980717548
 40
0.9987558028
 40
0.9992894811
 40
0.999672903
 40
0.9999070915
 40
1.0
 40
1.0
 40
1.0
 40
1.0
 10
7.1772097755
 20
6.8352831895
 30
0.0
 10
7.4372524866
 20
6.8341493026
 30
0.0
 10
7.8242437897
 20
6.8326261245
 30
0.0
 10
8.3344510944
 20
6.8309543085
 30
0.0
 10
8.7028691639
 20
6.8299180973
 30
0.0
 10
9.0565455198
 20
6.8291018677
 30
0.0
 10
9.3921140747
 20
6.8285106364
 30
0.0
 10
9.7063851946
 20
6.8281484477
 30
0.0
 10
9.9962619399
 20
6.8280186115
 30
0.0
 10
10.2589343159
 20
6.8281252971
 30
0.0
 10
10.4596643654
 20
6.8284151555
 30
0.0
 10
10.6048542306
 20
6.8287772189
 30
0.0
 10
10.7015824368
 20
6.8290957847
 30
0.0
 10
10.7898181145
 20
6.8294700996
 30
0.0
 10
10.8693057792
 20
6.8298993232
 30
0.0
 10
10.9398383127
 20
6.8303827344
 30
0.0
 10
11.0012666276
 20
6.8309181331
 30
0.0
 10
11.0467192922
 20
6.8314256634
 30
0.0
 10
11.0784559111
 20
6.83186761
 30
0.0
 10
11.0987631194
 20
6.8321950079
 30
0.0
 10
11.116723663
 20
6.8325337849
 30
0.0
 10
11.1323258074
 20
6.8328835065
 30
0.0
 10
11.1455593781
 20
6.8332429634
 30
0.0
 10
11.1564099274
 20
6.8336115774
 30
0.0
 10
11.1639636722
 20
6.8339439049
 30
0.0
 10
11.1687977487
 20
6.8342272695
 30
0.0
 10
11.1715388973
 20
6.8344251325
 30
0.0
 10
11.1736324509
 20
6.8346193674
 30
0.0
 10
11.175229128
 20
6.8348186735
 30
0.0
 10
11.1760262099
 20
6.8349906039
 30
0.0
 10
11.1765904492
 20
6.8351595444
 30
0.0
 10
11.1765906065
 20
6.8352834088
 30
0.0
  0
SPLINE
  5
271
100
AcDbEntity
  8
0
100
AcDbSpline
 62
7
  6
BYLAYER
 70
0
 71
3
 72
24
 73
20
 74
0
 42
0.0000001
 43
0.0000001
 44
0.0000000001
 40
0.0
 40
0.0
 40
0.0
 40
0.0
 40
0.1947684781
 40
0.3821941116
 40
0.4707667772
 40
0.5548068352
 40
0.6335269709
 40
0.7061643194
 40
0.7719884862
 40
0.8303964439
 40
0.8808190893
 40
0.9227667592
 40
0.9558738295
 40
0.9690040763
 40
0.9798078883
 40
0.9882760278
 40
0.9944096122
 40
0.9982405434
 40
1.0
 40
1.0
 40
1.0
 40
1.0
 10
12.1764488769
 20
6.8265579988
 30
0.0
 10
12.1114709772
 20
6.8254245816
 30
0.0
 10
11.9839590095
 20
6.8235239716
 30
0.0
 10
11.8268862258
 20
6.822003539
 30
0.0
 10
11.7067547696
 20
6.8213858165
 30
0.0
 10
11.6228933031
 20
6.8212305517
 30
0.0
 10
11.5443488658
 20
6.8213740725
 30
0.0
 10
11.4718836654
 20
6.8218129415
 30
0.0
 10
11.4061984432
 20
6.8225448158
 30
0.0
 10
11.3479307049
 20
6.82355727
 30
0.0
 10
11.2976351927
 20
6.8248353454
 30
0.0
 10
11.2557980162
 20
6.8263644514
 30
0.0
 10
11.2264038412
 20
6.8279126915
 30
0.0
 10
11.2074353517
 20
6.8293362552
 30
0.0
 10
11.1966487171
 20
6.8303903739
 30
0.0
 10
11.1883006592
 20
6.8314234103
 30
0.0
 10
11.1820990708
 20
6.83261335
 30
0.0
 10
11.1785999742
 20
6.8335061458
 30
0.0
 10
11.1766108639
 20
6.834695548
 30
0.0
 10
11.1766006182
 20
6.8352825309
 30
0.0
  0
SPLINE
  5
272
100
AcDbEntity
  8
0
100
AcDbSpline
 62
7
  6
BYLAYER
 70
0
 71
3
 72
16
 73
12
 74
0
 42
0.0000001
 43
0.0000001
 44
0.0000000001
 40
0.0
 40
0.0
 40
0.0
 40
0.0
 40
0.2759397965
 40
0.4087277844
 40
0.5359323451
 40
0.6572552668
 40
0.7735686427
 40
0.8301519582
 40
0.885881728
 40
0.9416641469
 40
1.0
 40
1.0
 40
1.0
 40
1.0
 10
12.1270311218
 20
9.6579712714
 30
0.0
 10
12.0271368521
 20
9.6742102436
 30
0.0
 10
11.8794726862
 20
9.7001027097
 30
0.0
 10
11.6861067012
 20
9.7354095472
 30
0.0
 10
11.5488728698
 20
9.7623871744
 30
0.0
 10
11.4179911748
 20
9.7902515487
 30
0.0
 10
11.3126784868
 20
9.813796148
 30
0.0
 10
11.2305222787
 20
9.8305978507
 30
0.0
 10
11.1698731863
 20
9.8417034053
 30
0.0
 10
11.1081653269
 20
9.85048352
 30
0.0
 10
11.0662836986
 20
9.8527354393
 30
0.0
 10
11.0448880395
 20
9.8527354498
 30
0.0
  0
SPLINE
  5
273
100
AcDbEntity
  8
0
100
AcDbSpline
 62
7
  6
BYLAYER
 70
0
 71
3
 72
19
 73
15
 74
0
 42
0.0000001
 43
0.0000001
 44
0.0000000001
 40
0.0
 40
0.0
 40
0.0
 40
0.0
 40
0.1087738198
 40
0.2401831889
 40
0.3908219447
 40
0.5497180948
 40
0.628173433
 40
0.7033434276
 40
0.7731370816
 40
0.8355779967
 40
0.8891198207
 40
0.93345828
 40
0.9694421907
 40
1.0
 40
1.0
 40
1.0
 40
1.0
 10
4.2811558427
 20
9.8527304456
 30
0.0
 10
4.2617122003
 20
9.852729867
 30
0.0
 10
4.2188386683
 20
9.8475926241
 30
0.0
 10
4.1507774531
 20
9.8317786707
 30
0.0
 10
4.0750518329
 20
9.8097700539
 30
0.0
 10
4.0092965216
 20
9.7876662953
 30
0.0
 10
3.9568993774
 20
9.7682792968
 30
0.0
 10
3.9198450598
 20
9.7533623348
 30
0.0
 10
3.8860202678
 20
9.7381504258
 30
0.0
 10
3.856549615
 20
9.7227881852
 30
0.0
 10
3.8323688623
 20
9.7072965379
 30
0.0
 10
3.814129165
 20
9.6916426316
 30
0.0
 10
3.8021317419
 20
9.6755244459
 30
0.0
 10
3.799133391
 20
9.6635047716
 30
0.0
 10
3.7992584029
 20
9.6580439034
 30
0.0
  0
SPLINE
  5
274
100
AcDbEntity
  8
0
100
AcDbSpline
 62
7
  6
BYLAYER
 70
0
 71
3
 72
31
 73
27
 74
0
 42
0.0000001
 43
0.0000001
 44
0.0000000001
 40
0.0
 40
0.0
 40
0.0
 40
0.0
 40
0.1951022186
 40
0.3827269772
 40
0.4714152034
 40
0.5555699855
 40
0.6344033409
 40
0.7071272911
 40
0.7729964015
 40
0.8314354059
 40
0.8819115965
 40
0.9039971752
 40
0.9238923017
 40
0.9415377669
 40
0.9569038326
 40
0.9699681429
 40
0.9807083716
 40
0.9851999977
 40
0.9891022655
 40
0.9924124198
 40
0.9951277349
 40
0.997245549
 40
0.9987633656
 40
0.9996792919
 40
0.9999120372
 40
1.0
 40
1.0
 40
1.0
 40
1.0
 10
4.7991708464
 20
9.656226465
 30
0.0
 10
4.7341414722
 20
9.6565666209
 30
0.0
 10
4.6065747998
 20
9.6571905109
 30
0.0
 10
4.4494469733
 20
9.6578506369
 30
0.0
 10
4.3292988599
 20
9.6582820759
 30
0.0
 10
4.2454120663
 20
9.6585466023
 30
0.0
 10
4.166846248
 20
9.6587561048
 30
0.0
 10
4.0943751766
 20
9.6589085144
 30
0.0
 10
4.0287017283
 20
9.6590019075
 30
0.0
 10
3.9704437082
 20
9.6590361534
 30
0.0
 10
3.9267793329
 20
9.6590154528
 30
0.0
 10
3.8959622097
 20
9.6589648242
 30
0.0
 10
3.8760880487
 20
9.6589137156
 30
0.0
 10
3.8584536382
 20
9.6588478427
 30
0.0
 10
3.8430961534
 20
9.6587676839
 30
0.0
 10
3.8300402964
 20
9.658673686
 30
0.0
 10
3.82060944
 20
9.6585799676
 30
0.0
 10
3.8142319978
 20
9.6584950386
 30
0.0
 10
3.8103321651
 20
9.6584317534
 30
0.0
 10
3.8070214604
 20
9.6583661233
 30
0.0
 10
3.8043144392
 20
9.6582958675
 30
0.0
 10
3.8021822818
 20
9.6582284136
 30
0.0
 10
3.8007041893
 20
9.6581485226
 30
0.0
 10
3.7997535143
 20
9.6580962502
 30
0.0
 10
3.7994081087
 20
9.6580253253
 30
0.0
 10
3.799260959
 20
9.6580006505
 30
0.0
 10
3.7992602696
 20
9.6579713394
 30
0.0
  0
SPLINE
  5
275
100
AcDbEntity
  8
0
100
AcDbSpline
 62
7
  6
BYLAYER
 70
0
 71
3
 72
36
 73
32
 74
0
 42
0.0000001
 43
0.0000001
 44
0.0000000001
 40
0.0
 40
0.0
 40
0.0
 40
0.0
 40
0.0000929093
 40
0.0003270983
 40
0.0007105201
 40
0.001244198
 40
0.0019282451
 40
0.0027625203
 40
0.0048807363
 40
0.0075965118
 40
0.0109072164
 40
0.0148101203
 40
0.0193024467
 40
0.0243813944
 40
0.0300441477
 40
0.0431097639
 40
0.0584766464
 40
0.0761220925
 40
0.0960161252
 40
0.1180997356
 40
0.1423066473
 40
0.1685705773
 40
0.227004338
 40
0.2928706937
 40
0.3655962624
 40
0.4444354994
 40
0.5285998052
 40
0.6173005735
 40
0.7097226962
 40
0.804945057
 40
1.0
 40
1.0
 40
1.0
 40
1.0
 10
23.0712710062
 20
6.8352834576
 30
0.0
 10
23.0712711661
 20
6.8351595921
 30
0.0
 10
23.0718354038
 20
6.8349906536
 30
0.0
 10
23.0726324906
 20
6.8348187202
 30
0.0
 10
23.0742291654
 20
6.8346194148
 30
0.0
 10
23.0763227181
 20
6.8344251789
 30
0.0
 10
23.0790638627
 20
6.8342273157
 30
0.0
 10
23.0838979316
 20
6.8339439506
 30
0.0
 10
23.0914516632
 20
6.8336116228
 30
0.0
 10
23.1023021933
 20
6.8332430085
 30
0.0
 10
23.1155357406
 20
6.8328835516
 30
0.0
 10
23.1311378584
 20
6.8325338302
 30
0.0
 10
23.1490983729
 20
6.8321950535
 30
0.0
 10
23.1694055505
 20
6.831867656
 30
0.0
 10
23.2011421274
 20
6.8314257101
 30
0.0
 10
23.2465947416
 20
6.8309181807
 30
0.0
 10
23.3080230024
 20
6.8303827832
 30
0.0
 10
23.378555494
 20
6.8298993731
 30
0.0
 10
23.4580431316
 20
6.8294701501
 30
0.0
 10
23.5462787946
 20
6.8290958356
 30
0.0
 10
23.6430069926
 20
6.8287772698
 30
0.0
 10
23.7881968407
 20
6.8284152061
 30
0.0
 10
23.9889268359
 20
6.8281253468
 30
0.0
 10
24.251599088
 20
6.8280186598
 30
0.0
 10
24.5414756605
 20
6.8281484945
 30
0.0
 10
24.8557466487
 20
6.8285106822
 30
0.0
 10
25.1913152631
 20
6.8291019135
 30
0.0
 10
25.544991991
 20
6.8299181446
 30
0.0
 10
25.9134106672
 20
6.8309543584
 30
0.0
 10
26.4236181461
 20
6.8326261752
 30
0.0
 10
26.8106093725
 20
6.8341493517
 30
0.0
 10
27.0706517705
 20
6.8352832376
 30
0.0
  0
SPLINE
  5
276
100
AcDbEntity
  8
0
100
AcDbSpline
 62
7
  6
BYLAYER
 70
0
 71
3
 72
28
 73
24
 74
0
 42
0.0000001
 43
0.0000001
 44
0.0000000001
 40
0.0
 40
0.0
 40
0.0
 40
0.0
 40
0.0004426822
 40
0.001406585
 40
0.0029510118
 40
0.0050857842
 40
0.0111323984
 40
0.0195447256
 40
0.03031118
 40
0.0434164134
 40
0.0588272976
 40
0.0764993675
 40
0.0963877432
 40
0.118447412
 40
0.1688897233
 40
0.2273331847
 40
0.2932057938
 40
0.365902279
 40
0.4446903145
 40
0.5288053495
 40
0.617458488
 40
0.8050555867
 40
1.0
 40
1.0
 40
1.0
 40
1.0
 10
3.7813890382
 20
10.3396473755
 30
0.0
 10
3.781392213
 20
10.33949985
 30
0.0
 10
3.7818913555
 20
10.3392014698
 30
0.0
 10
3.7827705692
 20
10.3389728778
 30
0.0
 10
3.7843295724
 20
10.3386677389
 30
0.0
 10
3.7875228747
 20
10.3382568155
 30
0.0
 10
3.7930522288
 20
10.3377806056
 30
0.0
 10
3.8014379984
 20
10.3372829329
 30
0.0
 10
3.8121924402
 20
10.3368112102
 30
0.0
 10
3.8252782509
 20
10.3363745066
 30
0.0
 10
3.8406694976
 20
10.3359741238
 30
0.0
 10
3.8583227127
 20
10.3356122074
 30
0.0
 10
3.8781934244
 20
10.3352900043
 30
0.0
 10
3.908987527
 20
10.3348974934
 30
0.0
 10
3.9526343981
 20
10.3345338824
 30
0.0
 10
4.0108863396
 20
10.3342818268
 30
0.0
 10
4.0765567808
 20
10.3342026256
 30
0.0
 10
4.1490086529
 20
10.3342992526
 30
0.0
 10
4.2275408776
 20
10.3345700484
 30
0.0
 10
4.3113912364
 20
10.3350134881
 30
0.0
 10
4.431509318
 20
10.3358465148
 30
0.0
 10
4.5885666894
 20
10.3372908009
 30
0.0
 10
4.716070917
 20
10.33879617
 30
0.0
 10
4.781046362
 20
10.3396474205
 30
0.0
  0
SPLINE
  5
277
100
AcDbEntity
  8
0
100
AcDbSpline
 62
7
  6
BYLAYER
 70
0
 71
3
 72
26
 73
22
 74
0
 42
0.0000001
 43
0.0000001
 44
0.0000000001
 40
0.0
 40
0.0
 40
0.0
 40
0.0
 40
0.0005230975
 40
0.0015244011
 40
0.0052375545
 40
0.0113016283
 40
0.0197232491
 40
0.0304945043
 40
0.0436019351
 40
0.0590133111
 40
0.0766845375
 40
0.11862741
 40
0.1690604553
 40
0.2274911741
 40
0.2933485125
 40
0.3660279634
 40
0.4447977958
 40
0.5288939682
 40
0.617528072
 40
0.8050884351
 40
1.0
 40
1.0
 40
1.0
 40
1.0
 10
3.8733825211
 20
6.8265579988
 30
0.0
 10
3.873387081
 20
6.8263836467
 30
0.0
 10
3.8738337976
 20
6.8259858239
 30
0.0
 10
3.875436706
 20
6.825448794
 30
0.0
 10
3.8790414747
 20
6.8247987148
 30
0.0
 10
3.8850435973
 20
6.8241786646
 30
0.0
 10
3.8934596997
 20
6.8235774546
 30
0.0
 10
3.9042107215
 20
6.823045405
 30
0.0
 10
3.9173048311
 20
6.8225754733
 30
0.0
 10
3.9326998555
 20
6.8221760248
 30
0.0
 10
3.957711092
 20
6.8217110979
 30
0.0
 10
3.9944018532
 20
6.8213539885
 30
0.0
 10
4.0446841641
 20
6.8212320566
 30
0.0
 10
4.1029398473
 20
6.8214049198
 30
0.0
 10
4.1686114898
 20
6.821872124
 30
0.0
 10
4.2410622509
 20
6.8226334657
 30
0.0
 10
4.3195912267
 20
6.8236800721
 30
0.0
 10
4.4034363452
 20
6.8250032263
 30
0.0
 10
4.5235455797
 20
6.8271622096
 30
0.0
 10
4.680588106
 20
6.8304602811
 30
0.0
 10
4.8080744437
 20
6.8335818702
 30
0.0
 10
4.8730398463
 20
6.8352825309
 30
0.0
  0
SPLINE
  5
278
100
AcDbEntity
  8
0
100
AcDbSpline
 62
7
  6
BYLAYER
 70
0
 71
3
 72
31
 73
27
 74
0
 42
0.0000001
 43
0.0000001
 44
0.0000000001
 40
0.0
 40
0.0
 40
0.0
 40
0.0
 40
0.0000879626
 40
0.0003207075
 40
0.0012366328
 40
0.0027544484
 40
0.0048722612
 40
0.0075875748
 40
0.0108977276
 40
0.0147999938
 40
0.0192916181
 40
0.0300318435
 40
0.0430961505
 40
0.0584622134
 40
0.0761076763
 40
0.0960028009
 40
0.118088378
 40
0.1685645658
 40
0.2270035675
 40
0.2928726747
 40
0.3655966207
 40
0.4444299723
 40
0.528584753
 40
0.6172729825
 40
0.8048977627
 40
1.0
 40
1.0
 40
1.0
 40
1.0
 10
30.4486012697
 20
9.6579712863
 30
0.0
 10
30.4486005805
 20
9.6580005973
 30
0.0
 10
30.4484534309
 20
9.6580252723
 30
0.0
 10
30.4481080261
 20
9.6580961969
 30
0.0
 10
30.4471573516
 20
9.6581484696
 30
0.0
 10
30.4456792605
 20
9.6582283604
 30
0.0
 10
30.4435471042
 20
9.6582958144
 30
0.0
 10
30.4408400845
 20
9.6583660702
 30
0.0
 10
30.4375293813
 20
9.6584317002
 30
0.0
 10
30.4336295503
 20
9.6584949855
 30
0.0
 10
30.4272521103
 20
9.6585799144
 30
0.0
 10
30.4178212569
 20
9.6586736328
 30
0.0
 10
30.4047654031
 20
9.6587676308
 30
0.0
 10
30.3894079213
 20
9.6588477896
 30
0.0
 10
30.3717735133
 20
9.6589136624
 30
0.0
 10
30.3518993544
 20
9.6589647711
 30
0.0
 10
30.3210822336
 20
9.6590153997
 30
0.0
 10
30.277417861
 20
9.6590361002
 30
0.0
 10
30.2191598443
 20
9.6590018544
 30
0.0
 10
30.1534863999
 20
9.6589084613
 30
0.0
 10
30.0810153329
 20
9.6587560518
 30
0.0
 10
30.0024495185
 20
9.6585465493
 30
0.0
 10
29.9185627263
 20
9.6582820229
 30
0.0
 10
29.798414606
 20
9.6578505839
 30
0.0
 10
29.6412867663
 20
9.6571904578
 30
0.0
 10
29.5137200817
 20
9.6565665678
 30
0.0
 10
29.4486907018
 20
9.6562264119
 30
0.0
  0
ENDSEC
  0
SECTION
  2
OBJECTS
  0
DICTIONARY
  5
C
100
AcDbDictionary
280
0
281
1
  3
ACAD_GROUP
350
D
  3
ACAD_MLINESTYLE
350
17
  3
ACAD_LAYOUT
350
1A
  3
ACAD_PLOTSETTINGS
350
19
  3
ACAD_PLOTSTYLENAME
350
E
  0
DICTIONARY
  5
D
102
{ACAD_REACTORS
330
C
102
}
100
AcDbDictionary
280
0
281
1
  0
ACDBDICTIONARYWDFLT
  5
E
102
{ACAD_REACTORS
330
C
102
}
100
AcDbDictionary
281
1
  3
Normal
350
F
100
AcDbDictionaryWithDefault
340
F
  0
DICTIONARY
  5
17
102
{ACAD_REACTORS
330
C
102
}
100
AcDbDictionary
280
0
281
1
  3
Standard
350
18
  0
DICTIONARY
  5
19
102
{ACAD_REACTORS
330
C
102
}
100
AcDbDictionary
281
1
  0
DICTIONARY
  5
1A
102
{ACAD_REACTORS
330
C
102
}
100
AcDbDictionary
281
1
  3
Model
350
279
  3
Layout1
350
27A
  0
ACDBPLACEHOLDER
  5
F
102
{ACAD_REACTORS
330
E
102
}
  0
MLINESTYLE
  5
18
102
{ACAD_REACTORS
330
17
102
}
100
AcDbMlineStyle
  2
STANDARD
 70
0
  3

 62
256
 51
90.0
 52
90.0
 71
2
 49
0.5
 62
256
  6
BYLAYER
 49
-0.5
 62
256
  6
BYLAYER
  0
LAYOUT
  5
279
102
{ACAD_REACTORS
330
1A
102
}
100
AcDbPlotSettings
  1

  2
none_device
  4

  6

 40
0.0
 41
0.0
 42
0.0
 43
0.0
 44
210.0
 45
297.0
 46
0.0
 47
0.0
 48
0.0
 49
0.0
140
0.0
141
0.0
142
1.0
143
1.0
 70
1024
 72
1
 73
0
 74
0
  7

 75
0
147
1.0
148
0.0
149
0.0
100
AcDbLayout
  1
Model
 70
0
 71
0
 10
0.0
 20
0.0
 11
210.0
 21
297.0
 12
0.0
 22
0.0
 32
0.0
 14
0.0
 24
0.0
 34
0.0
 15
0.0
 25
0.0
 35
0.0
146
0.0
 13
0.0
 23
0.0
 33
0.0
 16
1.0
 26
0.0
 36
0.0
 17
0.0
 27
1.0
 37
0.0
 76
0
330
210
345
0
346
0
  0
LAYOUT
  5
27A
102
{ACAD_REACTORS
330
1A
102
}
100
AcDbPlotSettings
  1

  2
none_device
  4

  6

 40
0.0
 41
0.0
 42
0.0
 43
0.0
 44
210.0
 45
297.0
 46
0.0
 47
0.0
 48
0.0
 49
0.0
140
0.0
141
0.0
142
1.0
143
1.0
 70
0
 72
1
 73
0
 74
0
  7

 75
0
147
1.0
148
0.0
149
0.0
100
AcDbLayout
  1
Layout1
 70
0
 71
1
 10
0.0
 20
0.0
 11
210.0
 21
297.0
 12
0.0
 22
0.0
 32
0.0
 14
0.0
 24
0.0
 34
0.0
 15
0.0
 25
0.0
 35
0.0
146
0.0
 13
0.0
 23
0.0
 33
0.0
 16
1.0
 26
0.0
 36
0.0
 17
0.0
 27
1.0
 37
0.0
 76
0
330
211
345
0
346
0
  0
ENDSEC
  0
EOF
