999
DXF file: C:\Users\sesa63760\Dev\_Creo\CAD\MCADID0004808_3D-CAD\drw0001_1.dxf
999
Pro/ENGINEER 2019471 by Parametric Technology Corporation
  0
SECTION
  2
HEADER
  9
$ACADVER
  1
AC1024
  9
$DWGCODEPAGE
  3
ANSI_1252
  9
$EXTMAX
 10
185.9115921473
 20
262.932108894
 30
0.0
  9
$EXTMIN
 10
0.0
 20
0.0
 30
0.0
  9
$LIMMIN
 10
0.0
 20
0.0
  9
$LIMMAX
 10
185.9115921473
 20
262.932108894
  9
$VIEWCTR
 10
92.9557960737
 20
131.466054447
  9
$VIEWSIZE
 40
262.932108894
  9
$CLAYER
  8
0
  9
$LTSCALE
 40
17.1392782094
  9
$CELTYPE
  6
BYLAYER
  9
$DIMSCALE
 40
1.0
  9
$DIMASZ
 40
2.2132332398
  9
$DIMEXO
 40
1.0
  9
$DIMDLI
 40
11.8416831265
  9
$DIMEXE
 40
1.0
  9
$DIMCEN
 40
2.8046091615
  9
$DIMLFAC
 40
1.0
  9
$DIMBLK
  1
_FILLED
  9
$DIMALT
 70
0
  9
$DIMALTF
 40
0.0393700787
  9
$DIMTXT
 40
3.0985265358
  9
$DIMTOL
 70
1
  9
$DIMLIM
 70
0
  9
$DIMTFAC
 40
1.0
  9
$DIMTP
 40
0.01
  9
$DIMTM
 40
0.01
  9
$DIMGAP
 40
0.625
  9
$DIMDSEP
 70
46
  9
$AUNITS
 70
0
  9
$PDMODE
 70
3
  9
$PDSIZE
 40
0.3125
  9
$HANDSEED
  5
25F
  9
$TILEMODE
 70
1
  9
$MEASUREMENT
 70
1
  9
$INSUNITS
 70
4
  0
ENDSEC
  0
SECTION
  2
CLASSES
  0
CLASS
  1
ACDBDICTIONARYWDFLT
  2
AcDbDictionaryWithDefault
  3
AutoCAD 2000
 90
0
 91
1
280
0
281
0
  0
CLASS
  1
ACDBPLACEHOLDER
  2
AcDbPlaceHolder
  3
AutoCAD 2000
 90
0
 91
1
280
0
281
0
  0
CLASS
  1
LAYOUT
  2
AcDbLayout
  3
AutoCAD 2000
 90
0
 91
0
280
0
281
0
  0
ENDSEC
  0
SECTION
  2
TABLES
  0
TABLE
  2
VPORT
  5
8
100
AcDbSymbolTable
 70
2
  0
VPORT
  5
1F4
100
AcDbSymbolTableRecord
100
AcDbViewportTableRecord
  2
*ACTIVE
 70
0
 10
0.0
 20
0.0
 11
1.0
 21
1.0
 12
92.9557960737
 22
131.466054447
 13
0.0
 23
0.0
 14
1.0
 24
1.0
 15
0.0
 25
0.0
 16
0.0
 26
0.0
 36
1.0
 17
0.0
 27
0.0
 37
0.0
 40
262.932108894
 41
0.7070707071
 42
50.0
 43
0.0
 44
0.0
 50
0.0
 51
0.0
 71
0
 72
100
 73
1
 74
1
 75
0
 76
0
 77
0
 78
0
  0
ENDTAB
  0
TABLE
  2
LTYPE
  5
5
100
AcDbSymbolTable
 70
6
  0
LTYPE
  5
14
100
AcDbSymbolTableRecord
100
AcDbLinetypeTableRecord
  2
BYBLOCK
 70
0
  3

 72
65
 73
0
 40
0.0
  0
LTYPE
  5
15
100
AcDbSymbolTableRecord
100
AcDbLinetypeTableRecord
  2
BYLAYER
 70
0
  3

 72
65
 73
0
 40
0.0
  0
LTYPE
  5
16
100
AcDbSymbolTableRecord
100
AcDbLinetypeTableRecord
  2
CONTINUOUS
 70
64
  3
Solid line
 72
65
 73
0
 40
0.0
  0
LTYPE
  5
1F5
100
AcDbSymbolTableRecord
100
AcDbLinetypeTableRecord
  2
CENTER
 70
64
  3
____ _ ____ _ ____ _ ____ _ ____ _ ____ _ ____
 72
65
 73
4
 40
0.6
 49
0.375
 74
0
 49
-0.075
 74
0
 49
0.075
 74
0
 49
-0.075
 74
0
  0
LTYPE
  5
1F6
100
AcDbSymbolTableRecord
100
AcDbLinetypeTableRecord
  2
HIDDEN
 70
64
  3
- - - - - - - - - - - - - - - - - - - -
 72
65
 73
2
 40
0.2
 49
0.1
 74
0
 49
-0.1
 74
0
  0
LTYPE
  5
1F7
100
AcDbSymbolTableRecord
100
AcDbLinetypeTableRecord
  2
PHANTOM
 70
64
  3
_____ _ _ _____ _ _ _____ _ _ _____
 72
65
 73
6
 40
0.8
 49
0.45
 74
0
 49
-0.05
 74
0
 49
0.1
 74
0
 49
-0.05
 74
0
 49
0.1
 74
0
 49
-0.05
 74
0
  0
LTYPE
  5
1F8
100
AcDbSymbolTableRecord
100
AcDbLinetypeTableRecord
  2
DOT
 70
64
  3
. . . . . . . . . . . . . . . . . . . .
 72
65
 73
2
 40
0.2
 49
0.1
 74
0
 49
-0.1
 74
0
  0
LTYPE
  5
1F9
100
AcDbSymbolTableRecord
100
AcDbLinetypeTableRecord
  2
DASHED
 70
64
  3
- - - - - - - - - - - - - - - - - - - -
 72
65
 73
2
 40
0.2
 49
0.1
 74
0
 49
-0.1
 74
0
  0
ENDTAB
  0
TABLE
  2
LAYER
  5
2
100
AcDbSymbolTable
 70
36
  0
LAYER
  5
10
100
AcDbSymbolTableRecord
100
AcDbLayerTableRecord
  2
0
 70
0
 62
7
  6
CONTINUOUS
370
-3
390
F
  0
LAYER
  5
1FA
100
AcDbSymbolTableRecord
100
AcDbLayerTableRecord
  2
DEFAULT_1
 70
0
 62
7
  6
CENTER
370
-3
390
F
  0
LAYER
  5
1FB
100
AcDbSymbolTableRecord
100
AcDbLayerTableRecord
  2
DEFAULT_2
 70
0
 62
7
  6
HIDDEN
370
-3
390
F
  0
LAYER
  5
1FC
100
AcDbSymbolTableRecord
100
AcDbLayerTableRecord
  2
DEFAULT_3
 70
0
 62
7
  6
PHANTOM
370
-3
390
F
  0
LAYER
  5
1FD
100
AcDbSymbolTableRecord
100
AcDbLayerTableRecord
  2
00_COMPONENTS
 70
0
 62
7
  6
CONTINUOUS
370
-3
390
F
  0
LAYER
  5
1FE
100
AcDbSymbolTableRecord
100
AcDbLayerTableRecord
  2
01_1_DEFAULT_DATUMS
 70
0
 62
7
  6
CONTINUOUS
370
-3
390
F
  0
LAYER
  5
1FF
100
AcDbSymbolTableRecord
100
AcDbLayerTableRecord
  2
01_PLANES
 70
0
 62
7
  6
CONTINUOUS
370
-3
390
F
  0
LAYER
  5
200
100
AcDbSymbolTableRecord
100
AcDbLayerTableRecord
  2
02_COORD_SYS
 70
0
 62
7
  6
CONTINUOUS
370
-3
390
F
  0
LAYER
  5
201
100
AcDbSymbolTableRecord
100
AcDbLayerTableRecord
  2
03_AXES
 70
0
 62
7
  6
CONTINUOUS
370
-3
390
F
  0
LAYER
  5
202
100
AcDbSymbolTableRecord
100
AcDbLayerTableRecord
  2
04_POINTS
 70
0
 62
7
  6
CONTINUOUS
370
-3
390
F
  0
LAYER
  5
203
100
AcDbSymbolTableRecord
100
AcDbLayerTableRecord
  2
05_CURVES
 70
0
 62
7
  6
CONTINUOUS
370
-3
390
F
  0
LAYER
  5
204
100
AcDbSymbolTableRecord
100
AcDbLayerTableRecord
  2
06_SURFS
 70
0
 62
7
  6
CONTINUOUS
370
-3
390
F
  0
LAYER
  5
205
100
AcDbSymbolTableRecord
100
AcDbLayerTableRecord
  2
07_COSMETICS
 70
0
 62
7
  6
CONTINUOUS
370
-3
390
F
  0
LAYER
  5
206
100
AcDbSymbolTableRecord
100
AcDbLayerTableRecord
  2
10_NOTES
 70
0
 62
7
  6
CONTINUOUS
370
-3
390
F
  0
LAYER
  5
207
100
AcDbSymbolTableRecord
100
AcDbLayerTableRecord
  2
11_NOTES_PUB
 70
0
 62
7
  6
CONTINUOUS
370
-3
390
F
  0
LAYER
  5
208
100
AcDbSymbolTableRecord
100
AcDbLayerTableRecord
  2
13_REF_GTOL
 70
0
 62
7
  6
CONTINUOUS
370
-3
390
F
  0
LAYER
  5
209
100
AcDbSymbolTableRecord
100
AcDbLayerTableRecord
  2
16_MISC
 70
0
 62
7
  6
CONTINUOUS
370
-3
390
F
  0
LAYER
  5
20A
100
AcDbSymbolTableRecord
100
AcDbLayerTableRecord
  2
17_NO_PRINT
 70
0
 62
7
  6
CONTINUOUS
370
-3
390
F
  0
LAYER
  5
20B
100
AcDbSymbolTableRecord
100
AcDbLayerTableRecord
  2
18_DATUM_CAMS_JOINTS
 70
0
 62
7
  6
CONTINUOUS
370
-3
390
F
  0
LAYER
  5
20C
100
AcDbSymbolTableRecord
100
AcDbLayerTableRecord
  2
19_DATUM_FUNCTIONAL
 70
0
 62
7
  6
CONTINUOUS
370
-3
390
F
  0
LAYER
  5
20D
100
AcDbSymbolTableRecord
100
AcDbLayerTableRecord
  2
20_DATUM_KINEMATIC_SCHEME
 70
0
 62
7
  6
CONTINUOUS
370
-3
390
F
  0
ENDTAB
  0
TABLE
  2
STYLE
  5
3
100
AcDbSymbolTable
 70
1
  0
STYLE
  5
11
100
AcDbSymbolTableRecord
100
AcDbTextStyleTableRecord
  2
STANDARD
 70
0
 40
0.0
 41
1.0
 50
0.0
 71
0
 42
0.2
  3
ARIAL.TTF
  4

  0
STYLE
  5
20E
100
AcDbSymbolTableRecord
100
AcDbTextStyleTableRecord
  2
TEXTSTYLE_1
 70
0
 40
0.0
 41
0.8
 50
0.0
 71
0
 42
0.2
  3
gdt
  4

  0
ENDTAB
  0
TABLE
  2
VIEW
  5
6
100
AcDbSymbolTable
 70
0
  0
ENDTAB
  0
TABLE
  2
UCS
  5
7
100
AcDbSymbolTable
 70
0
  0
ENDTAB
  0
TABLE
  2
APPID
  5
9
100
AcDbSymbolTable
 70
1
  0
APPID
  5
20F
100
AcDbSymbolTableRecord
100
AcDbRegAppTableRecord
  2
ACAD
 70
0
  0
ENDTAB
  0
TABLE
  2
BLOCK_RECORD
  5
1
100
AcDbSymbolTable
 70
0
  0
BLOCK_RECORD
  5
210
100
AcDbSymbolTableRecord
100
AcDbBlockTableRecord
  2
*Model_Space
  0
BLOCK_RECORD
  5
211
100
AcDbSymbolTableRecord
100
AcDbBlockTableRecord
  2
*Paper_Space
  0
BLOCK_RECORD
  5
212
100
AcDbSymbolTableRecord
100
AcDbBlockTableRecord
  2
_FILLED
  0
ENDTAB
  0
TABLE
  2
DIMSTYLE
  5
A
100
AcDbSymbolTable
 70
1
100
AcDbDimStyleTable
 71
0
  0
DIMSTYLE
105
213
100
AcDbSymbolTableRecord
100
AcDbDimStyleTableRecord
  2
STANDARD
 70
0
  3

  4

 40
1.0
 41
2.2132332398
 42
1.0
 43
0.38
 44
1.0
 45
0.0
 46
0.0
 47
0.01
 48
0.01
140
3.0985265358
141
0.09
142
0.0
143
25.4
144
1.0
145
0.0
146
1.0
147
0.625
 71
1
 72
0
 73
0
 74
0
 75
0
 76
0
 77
1
 78
8
 79
2
170
0
171
1
172
0
173
0
174
0
175
0
176
0
177
0
178
0
270
2
179
2
271
2
272
2
273
2
274
2
275
0
280
0
281
0
282
0
283
1
284
8
285
0
286
0
287
3
288
0
340
11
278
46
341
212
342
212
343
212
344
212
  0
ENDTAB
  0
ENDSEC
  0
SECTION
  2
BLOCKS
  0
BLOCK
  5
20
100
AcDbEntity
  8
0
100
AcDbBlockBegin
  2
*Model_Space
 70
0
 10
0.0
 20
0.0
 30
0.0
  3
*Model_Space
  1

  0
ENDBLK
  5
21
100
AcDbEntity
  8
0
100
AcDbBlockEnd
  0
BLOCK
  5
1C
100
AcDbEntity
  8
0
100
AcDbBlockBegin
  2
*Paper_Space
 70
0
 10
0.0
 20
0.0
 30
0.0
  3
*Paper_Space
  1

  0
ENDBLK
  5
1D
100
AcDbEntity
  8
0
100
AcDbBlockEnd
  0
BLOCK
  5
214
100
AcDbEntity
  8
0
100
AcDbBlockBegin
  2
_FILLED
 70
64
 10
0.0
 20
0.0
  3
_FILLED
  1

  0
SOLID
  5
215
100
AcDbEntity
  8
0
  6
BYBLOCK
 62
0
100
AcDbTrace
 10
0.0
 20
0.0
 11
-1.0
 21
0.25
 12
-1.0
 22
-0.25
 13
-1.0
 23
-0.25
  0
ENDBLK
  5
216
100
AcDbEntity
  8
0
  6
BYBLOCK
 62
0
100
AcDbBlockEnd
  0
ENDSEC
  0
SECTION
  2
ENTITIES
  0
LINE
  5
217
100
AcDbEntity
  8
0
100
AcDbLine
 62
7
  6
BYLAYER
 10
127.6492298446
 20
159.1236235986
 11
129.4483769755
 21
160.1623554786
  0
LINE
  5
218
100
AcDbEntity
  8
0
100
AcDbLine
 62
7
  6
BYLAYER
 10
128.5998453053
 20
158.8559390663
 11
127.7294780683
 21
158.3534353073
  0
LINE
  5
219
100
AcDbEntity
  8
0
100
AcDbLine
 62
7
  6
BYLAYER
 10
129.4483769755
 20
158.3660501609
 11
127.6492298446
 21
157.3273182809
  0
LINE
  5
21A
100
AcDbEntity
  8
0
100
AcDbLine
 62
7
  6
BYLAYER
 10
121.0416859399
 20
153.5124738004
 11
120.9074094881
 21
153.4349497176
  0
LINE
  5
21B
100
AcDbEntity
  8
0
100
AcDbLine
 62
7
  6
BYLAYER
 10
163.6099869863
 20
175.2089866732
 11
133.332663645
 21
157.7284702364
  0
LINE
  5
21C
100
AcDbEntity
  8
0
100
AcDbLine
 62
7
  6
BYLAYER
 10
115.8390400645
 20
147.6285822413
 11
22.1892195435
 21
93.5601558989
  0
LINE
  5
21D
100
AcDbEntity
  8
0
100
AcDbLine
 62
7
  6
BYLAYER
 10
117.106632961
 20
148.1140076855
 11
116.3301653155
 21
147.6657165573
  0
LINE
  5
21E
100
AcDbEntity
  8
0
100
AcDbLine
 62
7
  6
BYLAYER
 10
166.6099735556
 20
170.0128264963
 11
131.3744203145
 21
149.6696917796
  0
LINE
  5
21F
100
AcDbEntity
  8
0
100
AcDbLine
 62
7
  6
BYLAYER
 10
119.5773134192
 20
142.8586695943
 11
25.1892061129
 21
88.363995722
  0
LINE
  5
220
100
AcDbEntity
  8
0
100
AcDbLine
 62
7
  6
BYLAYER
 10
130.4768522087
 20
145.2834589721
 11
121.961745119
 21
140.3672889473
  0
LINE
  5
221
100
AcDbEntity
  8
0
100
AcDbLine
 62
7
  6
BYLAYER
 10
118.6118895658
 20
142.3012851998
 11
121.961745119
 21
140.3672889473
  0
LINE
  5
222
100
AcDbEntity
  8
0
100
AcDbLine
 62
7
  6
BYLAYER
 10
114.2800514722
 20
146.7285051306
 11
112.4888552946
 21
153.4134337564
  0
LINE
  5
223
100
AcDbEntity
  8
0
100
AcDbLine
 62
7
  6
BYLAYER
 10
121.6625807544
 20
146.6087069191
 11
121.3443813781
 21
146.7924152586
  0
LINE
  5
224
100
AcDbEntity
  8
0
100
AcDbLine
 62
7
  6
BYLAYER
 10
112.4888552946
 20
153.4134337563
 11
115.2112277364
 21
151.8417068514
  0
LINE
  5
225
100
AcDbEntity
  8
0
100
AcDbLine
 62
7
  6
BYLAYER
 10
116.2718923242
 20
151.2293457197
 11
119.559952546
 21
149.3310262116
  0
LINE
  5
226
100
AcDbEntity
  8
0
100
AcDbLine
 62
7
  6
BYLAYER
 10
115.2112277364
 20
151.8417068514
 11
116.3301653155
 21
147.6657165573
  0
LINE
  5
227
100
AcDbEntity
  8
0
100
AcDbLine
 62
7
  6
BYLAYER
 10
117.3512911384
 20
147.2009181683
 11
116.2718923242
 21
151.2293457197
  0
LINE
  5
228
100
AcDbEntity
  8
0
100
AcDbLine
 62
7
  6
BYLAYER
 10
119.5599525457
 20
149.3310262125
 11
121.961745119
 21
140.3672889473
  0
LINE
  5
229
100
AcDbEntity
  8
0
100
AcDbLine
 62
7
  6
BYLAYER
 10
123.5676436713
 20
149.9765700674
 11
123.5676436713
 21
152.0540697271
  0
LINE
  5
22A
100
AcDbEntity
  8
0
100
AcDbLine
 62
7
  6
BYLAYER
 10
124.274740443
 20
152.3611570293
 11
124.274740443
 21
151.3645961113
  0
LINE
  5
22B
100
AcDbEntity
  8
0
100
AcDbLine
 62
7
  6
BYLAYER
 10
125.1232721132
 20
160.7659265842
 11
125.1232721132
 21
160.582027672
  0
LINE
  5
22C
100
AcDbEntity
  8
0
100
AcDbLine
 62
7
  6
BYLAYER
 10
125.1232721132
 20
152.9522068656
 11
125.1232721132
 21
150.8747072059
  0
LINE
  5
22D
100
AcDbEntity
  8
0
100
AcDbLine
 62
7
  6
BYLAYER
 10
130.4768522087
 20
145.2834589721
 11
132.2861908863
 21
154.1253291504
  0
LINE
  5
22E
100
AcDbEntity
  8
0
100
AcDbLine
 62
7
  6
BYLAYER
 10
125.1232721132
 20
150.8747072059
 11
124.274740443
 21
151.3645961113
  0
LINE
  5
22F
100
AcDbEntity
  8
0
100
AcDbLine
 62
7
  6
BYLAYER
 10
120.9323028549
 20
153.5756247253
 11
121.0416859399
 21
153.5124738005
  0
LINE
  5
230
100
AcDbEntity
  8
0
100
AcDbLine
 62
7
  6
BYLAYER
 10
116.7318940509
 20
160.0873565934
 11
117.7925586387
 21
159.4749954616
  0
LINE
  5
231
100
AcDbEntity
  8
0
100
AcDbLine
 62
7
  6
BYLAYER
 10
125.1232721132
 20
160.582027672
 11
124.9849368423
 21
160.6618937711
  0
LINE
  5
232
100
AcDbEntity
  8
0
100
AcDbLine
 62
7
  6
BYLAYER
 10
128.5998453053
 20
158.8559390663
 11
129.4483769755
 21
158.3660501609
  0
LINE
  5
233
100
AcDbEntity
  8
0
100
AcDbLine
 62
7
  6
BYLAYER
 10
131.4124153259
 20
163.496297802
 11
124.0231186981
 21
167.7624136867
  0
SPLINE
  5
234
100
AcDbEntity
  8
0
100
AcDbSpline
 62
7
  6
BYLAYER
 70
0
 71
3
 72
9
 73
5
 74
0
 42
0.0000001
 43
0.0000001
 44
0.0000000001
 40
0.0
 40
0.0
 40
0.0
 40
0.0
 40
0.5412365453
 40
1.0
 40
1.0
 40
1.0
 40
1.0
 10
116.3301653155
 20
147.6657165573
 30
0.0
 10
116.2409424328
 20
147.6820089982
 30
0.0
 10
116.0725140823
 20
147.6975620497
 30
0.0
 10
115.904474362
 20
147.6649962318
 30
0.0
 10
115.8333602794
 20
147.6357905853
 30
0.0
  0
SPLINE
  5
235
100
AcDbEntity
  8
0
100
AcDbSpline
 62
7
  6
BYLAYER
 70
0
 71
3
 72
9
 73
5
 74
0
 42
0.0000001
 43
0.0000001
 44
0.0000000001
 40
0.0
 40
0.0
 40
0.0
 40
0.0
 40
0.253041379
 40
1.0
 40
1.0
 40
1.0
 40
1.0
 10
115.8333602794
 20
147.6357905853
 30
0.0
 10
115.8275402106
 20
147.6334003574
 30
0.0
 10
115.8046941029
 20
147.623583856
 30
0.0
 10
115.7824905731
 20
147.6122636991
 30
0.0
 10
115.7664061598
 20
147.6029770721
 30
0.0
  0
SPLINE
  5
236
100
AcDbEntity
  8
0
100
AcDbSpline
 62
7
  6
BYLAYER
 70
0
 71
3
 72
9
 73
5
 74
0
 42
0.0000001
 43
0.0000001
 44
0.0000000001
 40
0.0
 40
0.0
 40
0.0
 40
0.0
 40
0.2347625268
 40
1.0
 40
1.0
 40
1.0
 40
1.0
 10
122.285551444
 20
154.3428898117
 30
0.0
 10
122.338867839
 20
154.3546952954
 30
0.0
 10
122.5636544991
 20
154.4154338628
 30
0.0
 10
122.7770850471
 20
154.5143727427
 30
0.0
 10
122.9312384419
 20
154.6033727155
 30
0.0
  0
SPLINE
  5
237
100
AcDbEntity
  8
0
100
AcDbSpline
 62
7
  6
BYLAYER
 70
0
 71
3
 72
21
 73
17
 74
0
 42
0.0000001
 43
0.0000001
 44
0.0000000001
 40
0.0
 40
0.0
 40
0.0
 40
0.0
 40
0.042826446
 40
0.0874213032
 40
0.1352181047
 40
0.1871419557
 40
0.2436039577
 40
0.304578103
 40
0.3696942905
 40
0.438321388
 40
0.5825526986
 40
0.7295898087
 40
0.8015986589
 40
0.8712167786
 40
0.9375960961
 40
1.0
 40
1.0
 40
1.0
 40
1.0
 10
122.7954886068
 20
153.6333623337
 30
0.0
 10
122.719064179
 20
153.6774944689
 30
0.0
 10
122.5741727855
 20
153.7883669054
 30
0.0
 10
122.3998289222
 20
154.0088421579
 30
0.0
 10
122.2695530051
 20
154.2784643207
 30
0.0
 10
122.1851976332
 20
154.5906550298
 30
0.0
 10
122.1476355109
 20
154.938833302
 30
0.0
 10
122.1572291352
 20
155.3158390515
 30
0.0
 10
122.2135706979
 20
155.7139214496
 30
0.0
 10
122.3516613707
 20
156.2706876981
 30
0.0
 10
122.6312094978
 20
156.9620730484
 30
0.0
 10
123.0251307582
 20
157.6030438833
 30
0.0
 10
123.3999593806
 20
158.0658021014
 30
0.0
 10
123.6994888118
 20
158.3733589706
 30
0.0
 10
124.0128306762
 20
158.6370291382
 30
0.0
 10
124.2340916892
 20
158.7849092691
 30
0.0
 10
124.3454578922
 20
158.8492061926
 30
0.0
  0
SPLINE
  5
238
100
AcDbEntity
  8
0
100
AcDbSpline
 62
7
  6
BYLAYER
 70
0
 71
3
 72
25
 73
21
 74
0
 42
0.0000001
 43
0.0000001
 44
0.0000000001
 40
0.0
 40
0.0
 40
0.0
 40
0.0
 40
0.0213321564
 40
0.0428926269
 40
0.0648980762
 40
0.0875427614
 40
0.1353178582
 40
0.1872187471
 40
0.2436563973
 40
0.3046042866
 40
0.3696920607
 40
0.4382893925
 40
0.5095759187
 40
0.582600214
 40
0.6563317565
 40
0.7297088238
 40
0.8016851459
 40
0.8712776715
 40
0.9376167997
 40
1.0
 40
1.0
 40
1.0
 40
1.0
 10
122.3875729833
 20
147.8644586823
 30
0.0
 10
122.2856028638
 20
147.9233361283
 30
0.0
 10
122.0879247781
 20
148.0550041133
 30
0.0
 10
121.8166214428
 20
148.2902681036
 30
0.0
 10
121.5712848306
 20
148.5623616826
 30
0.0
 10
121.2754605238
 20
148.9792118507
 30
0.0
 10
120.9793247104
 20
149.5917544451
 30
0.0
 10
120.7535880334
 20
150.4274689335
 30
0.0
 10
120.652987831
 20
151.3597335036
 30
0.0
 10
120.6786880416
 20
152.3691384431
 30
0.0
 10
120.8295438058
 20
153.4349311654
 30
0.0
 10
121.1021965722
 20
154.5348177539
 30
0.0
 10
121.4907990938
 20
155.6455973814
 30
0.0
 10
121.9870751394
 20
156.7436831232
 30
0.0
 10
122.580444733
 20
157.8056785292
 30
0.0
 10
123.2582526591
 20
158.8089319964
 30
0.0
 10
124.0060359057
 20
159.7320397374
 30
0.0
 10
124.8079633497
 20
160.5554040731
 30
0.0
 10
125.6468860239
 20
161.2614124027
 30
0.0
 10
126.2392925514
 20
161.6573044312
 30
0.0
 10
126.5374980402
 20
161.8294724227
 30
0.0
  0
SPLINE
  5
239
100
AcDbEntity
  8
0
100
AcDbSpline
 62
7
  6
BYLAYER
 70
0
 71
3
 72
14
 73
10
 74
0
 42
0.0000001
 43
0.0000001
 44
0.0000000001
 40
0.0
 40
0.0
 40
0.0
 40
0.0
 40
0.1033365362
 40
0.2140508654
 40
0.3319242578
 40
0.4564007841
 40
0.5866213478
 40
0.7215016462
 40
1.0
 40
1.0
 40
1.0
 40
1.0
 10
116.2718923242
 20
151.2293457197
 30
0.0
 10
116.1955487762
 20
151.5142677041
 30
0.0
 10
116.0809239191
 20
152.1166343715
 30
0.0
 10
116.0197493874
 20
153.0640654276
 30
0.0
 10
116.0638163098
 20
154.0727078749
 30
0.0
 10
116.2122234476
 20
155.1272552067
 30
0.0
 10
116.4627105008
 20
156.2121319828
 30
0.0
 10
116.9324415085
 20
157.6922155661
 30
0.0
 10
117.4174207836
 20
158.7741044463
 30
0.0
 10
117.7925586387
 20
159.4749954616
 30
0.0
  0
SPLINE
  5
23A
100
AcDbEntity
  8
0
100
AcDbSpline
 62
7
  6
BYLAYER
 70
0
 71
3
 72
16
 73
12
 74
0
 42
0.0000001
 43
0.0000001
 44
0.0000000001
 40
0.0
 40
0.0
 40
0.0
 40
0.0
 40
0.1189625201
 40
0.2485064819
 40
0.3846068685
 40
0.5224252663
 40
0.6569329117
 40
0.7834795996
 40
0.8426320078
 40
0.8985553512
 40
1.0
 40
1.0
 40
1.0
 40
1.0
 10
122.9312384419
 20
154.6033727155
 30
0.0
 10
123.1123749624
 20
154.7079513101
 30
0.0
 10
123.4680312101
 20
154.9667227663
 30
0.0
 10
123.9447177353
 20
155.449586928
 30
0.0
 10
124.3677621241
 20
156.0218519788
 30
0.0
 10
124.714493245
 20
156.6531570205
 30
0.0
 10
124.9665625601
 20
157.3099380006
 30
0.0
 10
125.0894826893
 20
157.8620545699
 30
0.0
 10
125.1259933366
 20
158.2859854516
 30
0.0
 10
125.1217261766
 20
158.6668377124
 30
0.0
 10
125.0745510886
 20
158.9433212027
 30
0.0
 10
125.0185239345
 20
159.1126513547
 30
0.0
  0
SPLINE
  5
23B
100
AcDbEntity
  8
0
100
AcDbSpline
 62
7
  6
BYLAYER
 70
0
 71
3
 72
15
 73
11
 74
0
 42
0.0000001
 43
0.0000001
 44
0.0000000001
 40
0.0
 40
0.0
 40
0.0
 40
0.0
 40
0.1080127864
 40
0.218062042
 40
0.3319993638
 40
0.4513584888
 40
0.577277815
 40
0.7104927127
 40
0.851415505
 40
1.0
 40
1.0
 40
1.0
 40
1.0
 10
121.662587534
 20
146.6087186595
 30
0.0
 10
121.8224387592
 20
146.5164300857
 30
0.0
 10
122.1618287029
 20
146.3574945147
 30
0.0
 10
122.7109822564
 20
146.2056416292
 30
0.0
 10
123.2963944042
 20
146.1403578435
 30
0.0
 10
123.9118297039
 20
146.1617683588
 30
0.0
 10
124.5513507377
 20
146.2690496895
 30
0.0
 10
125.2090278069
 20
146.460776828
 30
0.0
 10
125.8786221118
 20
146.7348474958
 30
0.0
 10
126.3176041875
 20
146.9646487763
 30
0.0
 10
126.5374980402
 20
147.0916037935
 30
0.0
  0
SPLINE
  5
23C
100
AcDbEntity
  8
0
100
AcDbSpline
 62
7
  6
BYLAYER
 70
0
 71
3
 72
15
 73
11
 74
0
 42
0.0000001
 43
0.0000001
 44
0.0000000001
 40
0.0
 40
0.0
 40
0.0
 40
0.0
 40
0.1485858723
 40
0.289506365
 40
0.4227207006
 40
0.5486403326
 40
0.6679993099
 40
0.7819370358
 40
0.8919867925
 40
1.0
 40
1.0
 40
1.0
 40
1.0
 10
119.1482014124
 20
167.2795168123
 30
0.0
 10
119.3680972806
 20
167.4064729932
 30
0.0
 10
119.8070770785
 20
167.6362751754
 30
0.0
 10
120.4766700918
 20
167.9103425292
 30
0.0
 10
121.1343430842
 20
168.1020666292
 30
0.0
 10
121.7738622897
 20
168.2093544114
 30
0.0
 10
122.3892991229
 20
168.2307617694
 30
0.0
 10
122.9747113317
 20
168.1654747485
 30
0.0
 10
123.5238703722
 20
168.0136310572
 30
0.0
 10
123.8632583432
 20
167.8546878409
 30
0.0
 10
124.0231116123
 20
167.7624014063
 30
0.0
  0
SPLINE
  5
23D
100
AcDbEntity
  8
0
100
AcDbSpline
 62
7
  6
BYLAYER
 70
0
 71
3
 72
20
 73
16
 74
0
 42
0.0000001
 43
0.0000001
 44
0.0000000001
 40
0.0
 40
0.0
 40
0.0
 40
0.0
 40
0.0501355252
 40
0.103591578
 40
0.1602892743
 40
0.2200284161
 40
0.2824782599
 40
0.3472202531
 40
0.4814846964
 40
0.6184593756
 40
0.7533953483
 40
0.8187046531
 40
0.8818526786
 40
0.94240883
 40
1.0
 40
1.0
 40
1.0
 40
1.0
 10
112.4888552946
 20
153.4134337564
 30
0.0
 10
112.4184886713
 20
153.6760492424
 30
0.0
 10
112.309993284
 20
154.2289921813
 30
0.0
 10
112.2418900616
 20
155.0971238274
 30
0.0
 10
112.2637690461
 20
156.0196342119
 30
0.0
 10
112.3751342813
 20
156.9845067672
 30
0.0
 10
112.5745106493
 20
157.9795361418
 30
0.0
 10
112.9588390247
 20
159.3454633488
 30
0.0
 10
113.641382436
 20
161.0416582493
 30
0.0
 10
114.7277788887
 20
162.9643901054
 30
0.0
 10
115.8315832884
 20
164.4302603298
 30
0.0
 10
116.8080388951
 20
165.4741911828
 30
0.0
 10
117.5631427065
 20
166.1689370771
 30
0.0
 10
118.3388913673
 20
166.7746640235
 30
0.0
 10
118.8777322477
 20
167.1233622993
 30
0.0
 10
119.1482014124
 20
167.2795168123
 30
0.0
  0
SPLINE
  5
23E
100
AcDbEntity
  8
0
100
AcDbSpline
 62
7
  6
BYLAYER
 70
0
 71
3
 72
21
 73
17
 74
0
 42
0.0000001
 43
0.0000001
 44
0.0000000001
 40
0.0
 40
0.0
 40
0.0
 40
0.0
 40
0.0328843463
 40
0.0670102173
 40
0.1049915291
 40
0.1484525881
 40
0.1981310534
 40
0.2541501503
 40
0.3162278171
 40
0.383801426
 40
0.456098394
 40
0.5321749933
 40
0.6911206458
 40
0.8506753032
 40
0.9272976815
 40
1.0
 40
1.0
 40
1.0
 40
1.0
 10
119.5702433802
 20
142.8709184519
 30
0.0
 10
119.6208242484
 20
142.9001215628
 30
0.0
 10
119.7146418412
 20
142.9778563687
 30
0.0
 10
119.8108150966
 20
143.1411692062
 30
0.0
 10
119.8616229004
 20
143.3422213136
 30
0.0
 10
119.8693815466
 20
143.5762694674
 30
0.0
 10
119.8355586178
 20
143.839892122
 30
0.0
 10
119.7611876389
 20
144.1290665953
 30
0.0
 10
119.6475649215
 20
144.4391195274
 30
0.0
 10
119.4964847203
 20
144.7648156144
 30
0.0
 10
119.3103371489
 20
145.1005043155
 30
0.0
 10
119.0150932862
 20
145.55996425
 30
0.0
 10
118.5833783567
 20
146.1141021511
 30
0.0
 10
118.0914374689
 20
146.6170584928
 30
0.0
 10
117.6724023715
 20
146.9716370124
 30
0.0
 10
117.4583867549
 20
147.1287780547
 30
0.0
 10
117.3512911384
 20
147.2009181683
 30
0.0
  0
SPLINE
  5
23F
100
AcDbEntity
  8
0
100
AcDbSpline
 62
7
  6
BYLAYER
 70
0
 71
3
 72
10
 73
6
 74
0
 42
0.0000001
 43
0.0000001
 44
0.0000000001
 40
0.0
 40
0.0
 40
0.0
 40
0.0
 40
0.2711367023
 40
0.5289925485
 40
1.0
 40
1.0
 40
1.0
 40
1.0
 10
127.6492298446
 20
157.3273182809
 30
0.0
 10
127.6785269381
 20
157.487925001
 30
0.0
 10
127.7232092542
 20
157.8038642488
 30
0.0
 10
127.7540919793
 20
158.405412577
 30
0.0
 10
127.7130850244
 20
158.847302557
 30
0.0
 10
127.6492298446
 20
159.1236235986
 30
0.0
  0
SPLINE
  5
240
100
AcDbEntity
  8
0
100
AcDbSpline
 62
7
  6
BYLAYER
 70
0
 71
3
 72
9
 73
5
 74
0
 42
0.0000001
 43
0.0000001
 44
0.0000000001
 40
0.0
 40
0.0
 40
0.0
 40
0.0
 40
0.2405064792
 40
1.0
 40
1.0
 40
1.0
 40
1.0
 10
124.3454578922
 20
152.3988370973
 30
0.0
 10
124.4117839953
 20
152.4371302622
 30
0.0
 10
124.6835011627
 20
152.6033457999
 30
0.0
 10
124.9389227881
 20
152.7956567627
 30
0.0
 10
125.1232721132
 20
152.9522068656
 30
0.0
  0
SPLINE
  5
241
100
AcDbEntity
  8
0
100
AcDbSpline
 62
7
  6
BYLAYER
 70
0
 71
3
 72
9
 73
5
 74
0
 42
0.0000001
 43
0.0000001
 44
0.0000000001
 40
0.0
 40
0.0
 40
0.0
 40
0.0
 40
0.2383006536
 40
1.0
 40
1.0
 40
1.0
 40
1.0
 10
123.5676436713
 20
152.0540697271
 30
0.0
 10
123.6323572058
 20
152.0738390704
 30
0.0
 10
123.901186197
 20
152.1656937937
 30
0.0
 10
124.1581486405
 20
152.2906946959
 30
0.0
 10
124.3454578922
 20
152.3988370973
 30
0.0
  0
SPLINE
  5
242
100
AcDbEntity
  8
0
100
AcDbSpline
 62
7
  6
BYLAYER
 70
0
 71
3
 72
12
 73
8
 74
0
 42
0.0000001
 43
0.0000001
 44
0.0000000001
 40
0.0
 40
0.0
 40
0.0
 40
0.0
 40
0.2895858601
 40
0.5486313214
 40
0.7816375894
 40
0.8918381906
 40
1.0
 40
1.0
 40
1.0
 40
1.0
 10
124.3454578922
 20
158.8492061926
 30
0.0
 10
124.4815306049
 20
158.927767341
 30
0.0
 10
124.7521507044
 20
159.0565254842
 30
0.0
 10
125.1678099961
 20
159.1570129269
 30
0.0
 10
125.4997180374
 20
159.1482123823
 30
0.0
 10
125.7366810334
 20
159.0825991389
 30
0.0
 10
125.8446058343
 20
159.0320824149
 30
0.0
 10
125.8954271777
 20
159.0027350654
 30
0.0
  0
SPLINE
  5
243
100
AcDbEntity
  8
0
100
AcDbSpline
 62
7
  6
BYLAYER
 70
0
 71
3
 72
15
 73
11
 74
0
 42
0.0000001
 43
0.0000001
 44
0.0000000001
 40
0.0
 40
0.0
 40
0.0
 40
0.0
 40
0.148579108
 40
0.2895079156
 40
0.4227229072
 40
0.5486396842
 40
0.6679999502
 40
0.7819374742
 40
0.891986465
 40
1.0
 40
1.0
 40
1.0
 40
1.0
 10
126.5374980402
 20
161.8294724227
 30
0.0
 10
126.7246828877
 20
161.9375429997
 30
0.0
 10
127.0983838004
 20
162.1331637207
 30
0.0
 10
127.6683944011
 20
162.3664837003
 30
0.0
 10
128.2282677811
 20
162.529702529
 30
0.0
 10
128.7726805547
 20
162.6210143267
 30
0.0
 10
129.2965861514
 20
162.6392544328
 30
0.0
 10
129.7949410853
 20
162.5836824434
 30
0.0
 10
130.2624178927
 20
162.4543905663
 30
0.0
 10
130.5513471679
 20
162.3191161455
 30
0.0
 10
130.6874230971
 20
162.2405460388
 30
0.0
  0
SPLINE
  5
244
100
AcDbEntity
  8
0
100
AcDbSpline
 62
7
  6
BYLAYER
 70
0
 71
3
 72
25
 73
21
 74
0
 42
0.0000001
 43
0.0000001
 44
0.0000000001
 40
0.0
 40
0.0
 40
0.0
 40
0.0
 40
0.0623835838
 40
0.1287213068
 40
0.1983139691
 40
0.2702900342
 40
0.3436672837
 40
0.4173989729
 40
0.4904233932
 40
0.561709997
 40
0.6303075035
 40
0.6953954706
 40
0.7563434769
 40
0.812781197
 40
0.8646821508
 40
0.9124572732
 40
0.9351021655
 40
0.957107428
 40
0.9786679713
 40
1.0
 40
1.0
 40
1.0
 40
1.0
 10
126.5374980402
 20
147.0916037935
 30
0.0
 10
126.8878018007
 20
147.2938505567
 30
0.0
 10
127.5836975578
 20
147.7588979759
 30
0.0
 10
128.5691699242
 20
148.5882466508
 30
0.0
 10
129.5111923072
 20
149.5554384306
 30
0.0
 10
130.389610378
 20
150.6398142489
 30
0.0
 10
131.1858339528
 20
151.8183328689
 30
0.0
 10
131.8828660381
 20
153.0658601177
 30
0.0
 10
132.4658431506
 20
154.3557814555
 30
0.0
 10
132.9223354279
 20
155.6606149872
 30
0.0
 10
133.2426217387
 20
156.9526530122
 30
0.0
 10
133.4198325374
 20
158.2046413318
 30
0.0
 10
133.4500232176
 20
159.3903908493
 30
0.0
 10
133.3318465039
 20
160.4855213104
 30
0.0
 10
133.0666783484
 20
161.4672388482
 30
0.0
 10
132.7187928143
 20
162.1867826365
 30
0.0
 10
132.3713142144
 20
162.6764764174
 30
0.0
 10
132.0830943616
 20
162.9960838188
 30
0.0
 10
131.7644152442
 20
163.2724682863
 30
0.0
 10
131.5321950373
 20
163.4271284783
 30
0.0
 10
131.4124085463
 20
163.4962860615
 30
0.0
  0
SPLINE
  5
245
100
AcDbEntity
  8
0
100
AcDbSpline
 62
7
  6
BYLAYER
 70
0
 71
3
 72
11
 73
7
 74
0
 42
0.0000001
 43
0.0000001
 44
0.0000000001
 40
0.0
 40
0.0
 40
0.0
 40
0.0
 40
0.2238928818
 40
0.4640399417
 40
0.7225676981
 40
1.0
 40
1.0
 40
1.0
 40
1.0
 10
121.470644892
 20
148.7500222911
 30
0.0
 10
121.6956393368
 20
148.7339456754
 30
0.0
 10
122.166051456
 20
148.7473370113
 30
0.0
 10
122.8825099156
 20
148.891273726
 30
0.0
 10
123.6207813784
 20
149.1559580538
 30
0.0
 10
124.1033964272
 20
149.4013252196
 30
0.0
 10
124.3454578922
 20
149.5410786374
 30
0.0
  0
SPLINE
  5
246
100
AcDbEntity
  8
0
100
AcDbSpline
 62
7
  6
BYLAYER
 70
0
 71
3
 72
15
 73
11
 74
0
 42
0.0000001
 43
0.0000001
 44
0.0000000001
 40
0.0
 40
0.0
 40
0.0
 40
0.0
 40
0.1080127864
 40
0.218062042
 40
0.3319993638
 40
0.4513584888
 40
0.577277815
 40
0.7104927127
 40
0.851415505
 40
1.0
 40
1.0
 40
1.0
 40
1.0
 10
131.4124085463
 20
163.4962860615
 30
0.0
 10
131.2525573212
 20
163.5885746353
 30
0.0
 10
130.9131673775
 20
163.7475102064
 30
0.0
 10
130.364013824
 20
163.8993630919
 30
0.0
 10
129.7786016762
 20
163.9646468775
 30
0.0
 10
129.1631663765
 20
163.9432363623
 30
0.0
 10
128.5236453427
 20
163.8359550315
 30
0.0
 10
127.8659682734
 20
163.644227893
 30
0.0
 10
127.1963739686
 20
163.3701572252
 30
0.0
 10
126.7573918929
 20
163.1403559448
 30
0.0
 10
126.5374980402
 20
163.0134009275
 30
0.0
  0
SPLINE
  5
247
100
AcDbEntity
  8
0
100
AcDbSpline
 62
7
  6
BYLAYER
 70
0
 71
3
 72
9
 73
5
 74
0
 42
0.0000001
 43
0.0000001
 44
0.0000000001
 40
0.0
 40
0.0
 40
0.0
 40
0.0
 40
0.2441242934
 40
1.0
 40
1.0
 40
1.0
 40
1.0
 10
123.5676614683
 20
150.8888685482
 30
0.0
 10
123.6273239297
 20
150.9242588135
 30
0.0
 10
123.8695633558
 20
151.0728426878
 30
0.0
 10
124.1031883208
 20
151.2353565573
 30
0.0
 10
124.274740443
 20
151.3645961113
 30
0.0
  0
SPLINE
  5
248
100
AcDbEntity
  8
0
100
AcDbSpline
 62
7
  6
BYLAYER
 70
0
 71
3
 72
21
 73
17
 74
0
 42
0.0000001
 43
0.0000001
 44
0.0000000001
 40
0.0
 40
0.0
 40
0.0
 40
0.0
 40
0.042826446
 40
0.0874213032
 40
0.1352181047
 40
0.1871419557
 40
0.2436039577
 40
0.304578103
 40
0.3696942905
 40
0.438321388
 40
0.5825526986
 40
0.7295898087
 40
0.8015986589
 40
0.8712167786
 40
0.9375960961
 40
1.0
 40
1.0
 40
1.0
 40
1.0
 10
125.8954271777
 20
159.0027350654
 30
0.0
 10
125.9718516054
 20
158.9586029302
 30
0.0
 10
126.1167429989
 20
158.8477304936
 30
0.0
 10
126.2910868623
 20
158.6272552412
 30
0.0
 10
126.4213627794
 20
158.3576330784
 30
0.0
 10
126.5057181513
 20
158.0454423692
 30
0.0
 10
126.5432802735
 20
157.697264097
 30
0.0
 10
126.5336866493
 20
157.3202583476
 30
0.0
 10
126.4773450866
 20
156.9221759495
 30
0.0
 10
126.3392544137
 20
156.365409701
 30
0.0
 10
126.0597062866
 20
155.6740243507
 30
0.0
 10
125.6657850262
 20
155.0330535158
 30
0.0
 10
125.2909564039
 20
154.5702952977
 30
0.0
 10
124.9914269727
 20
154.2627384285
 30
0.0
 10
124.6780851083
 20
153.9990682609
 30
0.0
 10
124.4568240953
 20
153.85118813
 30
0.0
 10
124.3454578922
 20
153.7868912064
 30
0.0
  0
SPLINE
  5
249
100
AcDbEntity
  8
0
100
AcDbSpline
 62
7
  6
BYLAYER
 70
0
 71
3
 72
11
 73
7
 74
0
 42
0.0000001
 43
0.0000001
 44
0.0000000001
 40
0.0
 40
0.0
 40
0.0
 40
0.0
 40
0.2324893856
 40
0.4726404339
 40
0.7269401125
 40
1.0
 40
1.0
 40
1.0
 40
1.0
 10
121.3443829733
 20
146.7924180216
 30
0.0
 10
121.130908485
 20
146.9156638949
 30
0.0
 10
120.7244377176
 20
147.2173177388
 30
0.0
 10
120.2183183382
 20
147.8059289861
 30
0.0
 10
119.819158599
 20
148.5204734676
 30
0.0
 10
119.6348828418
 20
149.0513786297
 30
0.0
 10
119.5599525457
 20
149.3310262125
 30
0.0
  0
SPLINE
  5
24A
100
AcDbEntity
  8
0
100
AcDbSpline
 62
7
  6
BYLAYER
 70
0
 71
3
 72
9
 73
5
 74
0
 42
0.0000001
 43
0.0000001
 44
0.0000000001
 40
0.0
 40
0.0
 40
0.0
 40
0.0
 40
0.2557257667
 40
1.0
 40
1.0
 40
1.0
 40
1.0
 10
120.978503565
 20
153.8795861198
 30
0.0
 10
120.9822159501
 20
153.8480415337
 30
0.0
 10
120.9983163022
 20
153.7248832351
 30
0.0
 10
121.0208719587
 20
153.6025423115
 30
0.0
 10
121.0416859399
 20
153.5124738004
 30
0.0
  0
SPLINE
  5
24B
100
AcDbEntity
  8
0
100
AcDbSpline
 62
7
  6
BYLAYER
 70
0
 71
3
 72
9
 73
5
 74
0
 42
0.0000001
 43
0.0000001
 44
0.0000000001
 40
0.0
 40
0.0
 40
0.0
 40
0.0
 40
0.4811375985
 40
1.0
 40
1.0
 40
1.0
 40
1.0
 10
129.4483769755
 20
160.1623554786
 30
0.0
 10
129.4892167957
 20
159.8765480427
 30
0.0
 10
129.5268295609
 20
159.2753224079
 30
0.0
 10
129.4862812698
 20
158.6750818884
 30
0.0
 10
129.4483769755
 20
158.3660501609
 30
0.0
  0
SPLINE
  5
24C
100
AcDbEntity
  8
0
100
AcDbSpline
 62
7
  6
BYLAYER
 70
0
 71
3
 72
14
 73
10
 74
0
 42
0.0000001
 43
0.0000001
 44
0.0000000001
 40
0.0
 40
0.0
 40
0.0
 40
0.0
 40
0.2784983538
 40
0.4133786522
 40
0.5435992159
 40
0.6680757422
 40
0.7859491346
 40
0.8966634638
 40
1.0
 40
1.0
 40
1.0
 40
1.0
 10
116.7318940509
 20
160.0873565934
 30
0.0
 10
116.3567561958
 20
159.3864655781
 30
0.0
 10
115.8717769208
 20
158.3045766979
 30
0.0
 10
115.4020459131
 20
156.8244931146
 30
0.0
 10
115.1515588599
 20
155.7396163385
 30
0.0
 10
115.0031517221
 20
154.6850690067
 30
0.0
 10
114.9590847997
 20
153.6764265594
 30
0.0
 10
115.0202593314
 20
152.7289955033
 30
0.0
 10
115.1348841885
 20
152.1266288358
 30
0.0
 10
115.2112277364
 20
151.8417068514
 30
0.0
  0
SPLINE
  5
24D
100
AcDbEntity
  8
0
100
AcDbSpline
 62
7
  6
BYLAYER
 70
0
 71
3
 72
9
 73
5
 74
0
 42
0.0000001
 43
0.0000001
 44
0.0000000001
 40
0.0
 40
0.0
 40
0.0
 40
0.0
 40
0.2435541581
 40
1.0
 40
1.0
 40
1.0
 40
1.0
 10
125.1232721132
 20
160.582027672
 30
0.0
 10
125.0892237887
 20
160.5716262464
 30
0.0
 10
124.9501676434
 20
160.5265099369
 30
0.0
 10
124.8141789399
 20
160.4720878676
 30
0.0
 10
124.7133981515
 20
160.4265926616
 30
0.0
  0
SPLINE
  5
24E
100
AcDbEntity
  8
0
100
AcDbSpline
 62
7
  6
BYLAYER
 70
0
 71
3
 72
9
 73
5
 74
0
 42
0.0000001
 43
0.0000001
 44
0.0000000001
 40
0.0
 40
0.0
 40
0.0
 40
0.0
 40
0.2565057359
 40
1.0
 40
1.0
 40
1.0
 40
1.0
 10
125.1232721132
 20
150.8747072059
 30
0.0
 10
125.059463969
 20
150.8266370568
 30
0.0
 10
124.8080765431
 20
150.6427675807
 30
0.0
 10
124.5459963428
 20
150.4733612918
 30
0.0
 10
124.3454578922
 20
150.3575810545
 30
0.0
  0
SPLINE
  5
24F
100
AcDbEntity
  8
0
100
AcDbSpline
 62
7
  6
BYLAYER
 70
0
 71
3
 72
9
 73
5
 74
0
 42
0.0000001
 43
0.0000001
 44
0.0000000001
 40
0.0
 40
0.0
 40
0.0
 40
0.0
 40
0.2576253869
 40
1.0
 40
1.0
 40
1.0
 40
1.0
 10
124.3454578922
 20
150.3575810545
 30
0.0
 10
124.2810146662
 20
150.3203749627
 30
0.0
 10
124.0285607244
 20
150.1800303724
 30
0.0
 10
123.7666425625
 20
150.0564361232
 30
0.0
 10
123.5676436713
 20
149.9765700674
 30
0.0
  0
SPLINE
  5
250
100
AcDbEntity
  8
0
100
AcDbSpline
 62
7
  6
BYLAYER
 70
0
 71
3
 72
9
 73
5
 74
0
 42
0.0000001
 43
0.0000001
 44
0.0000000001
 40
0.0
 40
0.0
 40
0.0
 40
0.0
 40
0.2558134001
 40
1.0
 40
1.0
 40
1.0
 40
1.0
 10
128.5998453053
 20
158.8559390663
 30
0.0
 10
128.6086943641
 20
158.9280849797
 30
0.0
 10
128.6396487128
 20
159.2105367378
 30
0.0
 10
128.6558057477
 20
159.4946729802
 30
0.0
 10
128.6582998696
 20
159.7061107491
 30
0.0
  0
SPLINE
  5
251
100
AcDbEntity
  8
0
100
AcDbSpline
 62
7
  6
BYLAYER
 70
0
 71
3
 72
12
 73
8
 74
0
 42
0.0000001
 43
0.0000001
 44
0.0000000001
 40
0.0
 40
0.0
 40
0.0
 40
0.0
 40
0.2895858601
 40
0.5486313214
 40
0.7816375894
 40
0.8918381906
 40
1.0
 40
1.0
 40
1.0
 40
1.0
 10
124.3454578922
 20
153.7868912064
 30
0.0
 10
124.2093851795
 20
153.7083300581
 30
0.0
 10
123.9387650801
 20
153.5795719149
 30
0.0
 10
123.5231057883
 20
153.4790844722
 30
0.0
 10
123.1911977471
 20
153.4878850168
 30
0.0
 10
122.9542347511
 20
153.5534982602
 30
0.0
 10
122.8463099502
 20
153.6040149842
 30
0.0
 10
122.7954886068
 20
153.6333623337
 30
0.0
  0
SPLINE
  5
252
100
AcDbEntity
  8
0
100
AcDbSpline
 62
7
  6
BYLAYER
 70
0
 71
3
 72
23
 73
19
 74
0
 42
0.0000001
 43
0.0000001
 44
0.0000000001
 40
0.0
 40
0.0
 40
0.0
 40
0.0
 40
0.0598338909
 40
0.1231096866
 40
0.1893098031
 40
0.2578143144
 40
0.3279037895
 40
0.398806488
 40
0.4697200587
 40
0.5398425699
 40
0.6083994715
 40
0.6746726315
 40
0.7380311654
 40
0.7979660626
 40
0.8541303837
 40
0.9063866487
 40
0.9548613143
 40
1.0
 40
1.0
 40
1.0
 40
1.0
 10
124.3454578922
 20
149.5410786374
 30
0.0
 10
124.6089544035
 20
149.693207511
 30
0.0
 10
125.1332256499
 20
150.0378906759
 30
0.0
 10
125.8821257478
 20
150.6448454246
 30
0.0
 10
126.6050476431
 20
151.3473334538
 30
0.0
 10
127.2898132412
 20
152.133414393
 30
0.0
 10
127.9249742643
 20
152.9899745777
 30
0.0
 10
128.4998522699
 20
153.9025715875
 30
0.0
 10
129.0047628429
 20
154.8558538724
 30
0.0
 10
129.4312039123
 20
155.8337644011
 30
0.0
 10
129.7719977671
 20
156.8198578833
 30
0.0
 10
130.0214144082
 20
157.7975920728
 30
0.0
 10
130.1752477249
 20
158.7506342378
 30
0.0
 10
130.2308337649
 20
159.6631777246
 30
0.0
 10
130.1870515817
 20
160.5201776237
 30
0.0
 10
130.0440717399
 20
161.3077258998
 30
0.0
 10
129.8036115933
 20
162.0125670547
 30
0.0
 10
129.5725263386
 20
162.4325385012
 30
0.0
 10
129.4418854448
 20
162.6212668357
 30
0.0
  0
SPLINE
  5
253
100
AcDbEntity
  8
0
100
AcDbSpline
 62
7
  6
BYLAYER
 70
0
 71
3
 72
15
 73
11
 74
0
 42
0.0000001
 43
0.0000001
 44
0.0000000001
 40
0.0
 40
0.0
 40
0.0
 40
0.0
 40
0.148579108
 40
0.2895079156
 40
0.4227229072
 40
0.5486396842
 40
0.6679999502
 40
0.7819374742
 40
0.891986465
 40
1.0
 40
1.0
 40
1.0
 40
1.0
 10
126.5374980402
 20
148.2755322984
 30
0.0
 10
126.3503131927
 20
148.1674617214
 30
0.0
 10
125.97661228
 20
147.9718410004
 30
0.0
 10
125.4066016792
 20
147.7385210208
 30
0.0
 10
124.8467282992
 20
147.575302192
 30
0.0
 10
124.3023155256
 20
147.4839903943
 30
0.0
 10
123.778409929
 20
147.4657502883
 30
0.0
 10
123.2800549951
 20
147.5213222776
 30
0.0
 10
122.8125781877
 20
147.6506141547
 30
0.0
 10
122.5236489125
 20
147.7858885756
 30
0.0
 10
122.3875729833
 20
147.8644586823
 30
0.0
  0
SPLINE
  5
254
100
AcDbEntity
  8
0
100
AcDbSpline
 62
7
  6
BYLAYER
 70
0
 71
3
 72
25
 73
21
 74
0
 42
0.0000001
 43
0.0000001
 44
0.0000000001
 40
0.0
 40
0.0
 40
0.0
 40
0.0
 40
0.0213321564
 40
0.0428926269
 40
0.0648980762
 40
0.0875427614
 40
0.1353178582
 40
0.1872187471
 40
0.2436563973
 40
0.3046042866
 40
0.3696920607
 40
0.4382893925
 40
0.5095759187
 40
0.582600214
 40
0.6563317565
 40
0.7297088238
 40
0.8016851459
 40
0.8712776715
 40
0.9376167997
 40
1.0
 40
1.0
 40
1.0
 40
1.0
 10
130.6874230971
 20
162.2405460388
 30
0.0
 10
130.7893932165
 20
162.1816685928
 30
0.0
 10
130.9870713023
 20
162.0500006078
 30
0.0
 10
131.2583746376
 20
161.8147366174
 30
0.0
 10
131.5037112498
 20
161.5426430384
 30
0.0
 10
131.7995355566
 20
161.1257928703
 30
0.0
 10
132.0956713699
 20
160.513250276
 30
0.0
 10
132.321408047
 20
159.6775357875
 30
0.0
 10
132.4220082493
 20
158.7452712175
 30
0.0
 10
132.3963080387
 20
157.735866278
 30
0.0
 10
132.2454522746
 20
156.6700735557
 30
0.0
 10
131.9727995082
 20
155.5701869671
 30
0.0
 10
131.5841969865
 20
154.4594073396
 30
0.0
 10
131.087920941
 20
153.3613215978
 30
0.0
 10
130.4945513474
 20
152.2993261918
 30
0.0
 10
129.8167434213
 20
151.2960727246
 30
0.0
 10
129.0689601747
 20
150.3729649836
 30
0.0
 10
128.2670327307
 20
149.549600648
 30
0.0
 10
127.4281100565
 20
148.8435923184
 30
0.0
 10
126.835703529
 20
148.4477002899
 30
0.0
 10
126.5374980402
 20
148.2755322984
 30
0.0
  0
SPLINE
  5
255
100
AcDbEntity
  8
0
100
AcDbSpline
 62
7
  6
BYLAYER
 70
0
 71
3
 72
25
 73
21
 74
0
 42
0.0000001
 43
0.0000001
 44
0.0000000001
 40
0.0
 40
0.0
 40
0.0
 40
0.0
 40
0.0623835838
 40
0.1287213068
 40
0.1983139691
 40
0.2702900342
 40
0.3436672837
 40
0.4173989729
 40
0.4904233932
 40
0.561709997
 40
0.6303075035
 40
0.6953954706
 40
0.7563434769
 40
0.812781197
 40
0.8646821508
 40
0.9124572732
 40
0.9351021655
 40
0.957107428
 40
0.9786679713
 40
1.0
 40
1.0
 40
1.0
 40
1.0
 10
126.5374980402
 20
163.0134009275
 30
0.0
 10
126.1871942797
 20
162.8111541643
 30
0.0
 10
125.4912985226
 20
162.3461067451
 30
0.0
 10
124.5058261562
 20
161.5167580703
 30
0.0
 10
123.5638037732
 20
160.5495662904
 30
0.0
 10
122.6853857024
 20
159.4651904721
 30
0.0
 10
121.8891621276
 20
158.2866718521
 30
0.0
 10
121.1921300423
 20
157.0391446033
 30
0.0
 10
120.6091529298
 20
155.7492232656
 30
0.0
 10
120.1526606525
 20
154.4443897338
 30
0.0
 10
119.8323743417
 20
153.1523517088
 30
0.0
 10
119.655163543
 20
151.9003633892
 30
0.0
 10
119.6249728628
 20
150.7146138717
 30
0.0
 10
119.7431495765
 20
149.6194834107
 30
0.0
 10
120.008317732
 20
148.6377658728
 30
0.0
 10
120.3562032661
 20
147.9182220845
 30
0.0
 10
120.703681866
 20
147.4285283036
 30
0.0
 10
120.9919017188
 20
147.1089209022
 30
0.0
 10
121.3105808362
 20
146.8325364347
 30
0.0
 10
121.5428010431
 20
146.6778762428
 30
0.0
 10
121.662587534
 20
146.6087186595
 30
0.0
  0
SPLINE
  5
256
100
AcDbEntity
  8
0
100
AcDbSpline
 62
7
  6
BYLAYER
 70
0
 71
3
 72
13
 73
9
 74
0
 42
0.0000001
 43
0.0000001
 44
0.0000000001
 40
0.0
 40
0.0
 40
0.0
 40
0.0
 40
0.118123106
 40
0.2421519737
 40
0.5002402563
 40
0.7581968665
 40
0.8820653213
 40
1.0
 40
1.0
 40
1.0
 40
1.0
 10
124.0346522471
 20
158.5935112804
 30
0.0
 10
124.0158516652
 20
158.4480061138
 30
0.0
 10
123.9593578388
 20
158.1518316932
 30
0.0
 10
123.779844287
 20
157.5561202504
 30
0.0
 10
123.4414809876
 20
156.831481021
 30
0.0
 10
122.9814295377
 20
156.177535908
 30
0.0
 10
122.5543355215
 20
155.7259296109
 30
0.0
 10
122.3257648521
 20
155.5299477066
 30
0.0
 10
122.2090108358
 20
155.4414881295
 30
0.0
  0
SPLINE
  5
257
100
AcDbEntity
  8
0
100
AcDbSpline
 62
7
  6
BYLAYER
 70
0
 71
3
 72
16
 73
12
 74
0
 42
0.0000001
 43
0.0000001
 44
0.0000000001
 40
0.0
 40
0.0
 40
0.0
 40
0.0
 40
0.128744776
 40
0.2703971998
 40
0.4176131979
 40
0.5620174334
 40
0.6957476677
 40
0.8130627022
 40
0.912470568
 40
0.9571203641
 40
1.0
 40
1.0
 40
1.0
 40
1.0
 10
21.5678836528
 20
92.186798074
 30
0.0
 10
21.5678836528
 20
91.9303733429
 30
0.0
 10
21.6396267329
 20
91.391200688
 30
0.0
 10
21.9073474411
 20
90.5995497274
 30
0.0
 10
22.3200134829
 20
89.836928738
 30
0.0
 10
22.8439851358
 20
89.1659412007
 30
0.0
 10
23.4379948145
 20
88.6405194227
 30
0.0
 10
24.0559721421
 20
88.3015411323
 30
0.0
 10
24.5805759627
 20
88.1991022562
 30
0.0
 10
24.9521768649
 20
88.2535690482
 30
0.0
 10
25.1152287843
 20
88.3213185755
 30
0.0
 10
25.1891744993
 20
88.3640500737
 30
0.0
  0
SPLINE
  5
258
100
AcDbEntity
  8
0
100
AcDbSpline
 62
7
  6
BYLAYER
 70
0
 71
3
 72
11
 73
7
 74
0
 42
0.0000001
 43
0.0000001
 44
0.0000000001
 40
0.0
 40
0.0
 40
0.0
 40
0.0
 40
0.2896413964
 40
0.5491107671
 40
0.7822355978
 40
1.0
 40
1.0
 40
1.0
 40
1.0
 10
167.2313094464
 20
171.3861843212
 30
0.0
 10
167.2313094464
 20
171.2342126735
 30
0.0
 10
167.2082096998
 20
170.9451266281
 30
0.0
 10
167.0912055758
 20
170.547931693
 30
0.0
 10
166.8941125646
 20
170.2255515188
 30
0.0
 10
166.7088746681
 20
170.070041697
 30
0.0
 10
166.6099466455
 20
170.0128729141
 30
0.0
  0
SPLINE
  5
259
100
AcDbEntity
  8
0
100
AcDbSpline
 62
7
  6
BYLAYER
 70
0
 71
3
 72
11
 73
7
 74
0
 42
0.0000001
 43
0.0000001
 44
0.0000000001
 40
0.0
 40
0.0
 40
0.0
 40
0.0
 40
0.2177660095
 40
0.4508968553
 40
0.7103699668
 40
1.0
 40
1.0
 40
1.0
 40
1.0
 10
22.1892511571
 20
93.5601015472
 30
0.0
 10
22.090322288
 20
93.502932869
 30
0.0
 10
21.9050727744
 20
93.3474305259
 30
0.0
 10
21.7079855786
 20
93.0250378974
 30
0.0
 10
21.5909834369
 20
92.6278453793
 30
0.0
 10
21.5678836528
 20
92.338763543
 30
0.0
 10
21.5678836528
 20
92.186798074
 30
0.0
  0
SPLINE
  5
25A
100
AcDbEntity
  8
0
100
AcDbSpline
 62
7
  6
BYLAYER
 70
0
 71
3
 72
16
 73
12
 74
0
 42
0.0000001
 43
0.0000001
 44
0.0000000001
 40
0.0
 40
0.0
 40
0.0
 40
0.0
 40
0.0428765743
 40
0.0875234667
 40
0.186928609
 40
0.3042403422
 40
0.4379658104
 40
0.582370771
 40
0.729593422
 40
0.8712541043
 40
1.0
 40
1.0
 40
1.0
 40
1.0
 10
163.6100138964
 20
175.2089402554
 30
0.0
 10
163.6839542062
 20
175.2516690738
 30
0.0
 10
163.8469998369
 20
175.3194006854
 30
0.0
 10
164.2185769693
 20
175.3738967672
 30
0.0
 10
164.7431691529
 20
175.2714608144
 30
0.0
 10
165.3611339331
 20
174.9325107449
 30
0.0
 10
165.9551456321
 20
174.4071101945
 30
0.0
 10
166.4791313123
 20
173.7361264606
 30
0.0
 10
166.8918267478
 20
172.9734844146
 30
0.0
 10
167.1595615251
 20
172.181803015
 30
0.0
 10
167.2313094464
 20
171.6426115144
 30
0.0
 10
167.2313094464
 20
171.3861843212
 30
0.0
  0
SPLINE
  5
25B
100
AcDbEntity
  8
0
100
AcDbSpline
 62
7
  6
BYLAYER
 70
0
 71
3
 72
16
 73
12
 74
0
 42
0.0000001
 43
0.0000001
 44
0.0000000001
 40
0.0
 40
0.0
 40
0.0
 40
0.0
 40
0.128744776
 40
0.2703971998
 40
0.4176131979
 40
0.5620174334
 40
0.6957476677
 40
0.8130627022
 40
0.912470568
 40
0.9571203641
 40
1.0
 40
1.0
 40
1.0
 40
1.0
 10
25.8105420036
 20
89.7373535469
 30
0.0
 10
25.8105420036
 20
89.993778278
 30
0.0
 10
25.7387989235
 20
90.5329509329
 30
0.0
 10
25.4710782153
 20
91.3246018936
 30
0.0
 10
25.0584121735
 20
92.087222883
 30
0.0
 10
24.5344405206
 20
92.7582104202
 30
0.0
 10
23.9404308419
 20
93.2836321982
 30
0.0
 10
23.3224535143
 20
93.6226104886
 30
0.0
 10
22.7978496936
 20
93.7250493647
 30
0.0
 10
22.4262487915
 20
93.6705825727
 30
0.0
 10
22.2631968721
 20
93.6028330454
 30
0.0
 10
22.1892511571
 20
93.5601015472
 30
0.0
  0
SPLINE
  5
25C
100
AcDbEntity
  8
0
100
AcDbSpline
 62
7
  6
BYLAYER
 70
0
 71
3
 72
11
 73
7
 74
0
 42
0.0000001
 43
0.0000001
 44
0.0000000001
 40
0.0
 40
0.0
 40
0.0
 40
0.0
 40
0.2177660095
 40
0.4508968553
 40
0.7103699668
 40
1.0
 40
1.0
 40
1.0
 40
1.0
 10
25.1891744993
 20
88.3640500737
 30
0.0
 10
25.2881033683
 20
88.4212187519
 30
0.0
 10
25.473352882
 20
88.576721095
 30
0.0
 10
25.6704400778
 20
88.8991137235
 30
0.0
 10
25.7874422195
 20
89.2963062416
 30
0.0
 10
25.8105420036
 20
89.5853880779
 30
0.0
 10
25.8105420036
 20
89.7373535469
 30
0.0
  0
ENDSEC
  0
SECTION
  2
OBJECTS
  0
DICTIONARY
  5
C
100
AcDbDictionary
280
0
281
1
  3
ACAD_GROUP
350
D
  3
ACAD_MLINESTYLE
350
17
  3
ACAD_LAYOUT
350
1A
  3
ACAD_PLOTSETTINGS
350
19
  3
ACAD_PLOTSTYLENAME
350
E
  0
DICTIONARY
  5
D
102
{ACAD_REACTORS
330
C
102
}
100
AcDbDictionary
280
0
281
1
  0
ACDBDICTIONARYWDFLT
  5
E
102
{ACAD_REACTORS
330
C
102
}
100
AcDbDictionary
281
1
  3
Normal
350
F
100
AcDbDictionaryWithDefault
340
F
  0
DICTIONARY
  5
17
102
{ACAD_REACTORS
330
C
102
}
100
AcDbDictionary
280
0
281
1
  3
Standard
350
18
  0
DICTIONARY
  5
19
102
{ACAD_REACTORS
330
C
102
}
100
AcDbDictionary
281
1
  0
DICTIONARY
  5
1A
102
{ACAD_REACTORS
330
C
102
}
100
AcDbDictionary
281
1
  3
Model
350
25D
  3
Layout1
350
25E
  0
ACDBPLACEHOLDER
  5
F
102
{ACAD_REACTORS
330
E
102
}
  0
MLINESTYLE
  5
18
102
{ACAD_REACTORS
330
17
102
}
100
AcDbMlineStyle
  2
STANDARD
 70
0
  3

 62
256
 51
90.0
 52
90.0
 71
2
 49
0.5
 62
256
  6
BYLAYER
 49
-0.5
 62
256
  6
BYLAYER
  0
LAYOUT
  5
25D
102
{ACAD_REACTORS
330
1A
102
}
100
AcDbPlotSettings
  1

  2
none_device
  4

  6

 40
0.0
 41
0.0
 42
0.0
 43
0.0
 44
210.0
 45
297.0
 46
0.0
 47
0.0
 48
0.0
 49
0.0
140
0.0
141
0.0
142
1.0
143
1.0
 70
1024
 72
1
 73
0
 74
0
  7

 75
0
147
1.0
148
0.0
149
0.0
100
AcDbLayout
  1
Model
 70
0
 71
0
 10
0.0
 20
0.0
 11
210.0
 21
297.0
 12
0.0
 22
0.0
 32
0.0
 14
0.0
 24
0.0
 34
0.0
 15
0.0
 25
0.0
 35
0.0
146
0.0
 13
0.0
 23
0.0
 33
0.0
 16
1.0
 26
0.0
 36
0.0
 17
0.0
 27
1.0
 37
0.0
 76
0
330
210
345
0
346
0
  0
LAYOUT
  5
25E
102
{ACAD_REACTORS
330
1A
102
}
100
AcDbPlotSettings
  1

  2
none_device
  4

  6

 40
0.0
 41
0.0
 42
0.0
 43
0.0
 44
210.0
 45
297.0
 46
0.0
 47
0.0
 48
0.0
 49
0.0
140
0.0
141
0.0
142
1.0
143
1.0
 70
0
 72
1
 73
0
 74
0
  7

 75
0
147
1.0
148
0.0
149
0.0
100
AcDbLayout
  1
Layout1
 70
0
 71
1
 10
0.0
 20
0.0
 11
210.0
 21
297.0
 12
0.0
 22
0.0
 32
0.0
 14
0.0
 24
0.0
 34
0.0
 15
0.0
 25
0.0
 35
0.0
146
0.0
 13
0.0
 23
0.0
 33
0.0
 16
1.0
 26
0.0
 36
0.0
 17
0.0
 27
1.0
 37
0.0
 76
0
330
211
345
0
346
0
  0
ENDSEC
  0
EOF
