999
DXF file: C:\Users\sesa63760\Dev\_Creo\CAD\MCADID0004786_3D-CAD\drw0001_1.dxf
999
Pro/ENGINEER 2019471 by Parametric Technology Corporation
  0
SECTION
  2
HEADER
  9
$ACADVER
  1
AC1024
  9
$DWGCODEPAGE
  3
ANSI_1252
  9
$EXTMAX
 10
113.460700332
 20
160.4658476124
 30
0.0
  9
$EXTMIN
 10
0.0
 20
0.0
 30
0.0
  9
$LIMMIN
 10
0.0
 20
0.0
  9
$LIMMAX
 10
113.460700332
 20
160.4658476124
  9
$VIEWCTR
 10
56.730350166
 20
80.2329238062
  9
$VIEWSIZE
 40
160.4658476124
  9
$CLAYER
  8
0
  9
$LTSCALE
 40
10.4599959925
  9
$CELTYPE
  6
BYLAYER
  9
$DIMSCALE
 40
1.0
  9
$DIMASZ
 40
1.350722623
  9
$DIMEXO
 40
1.0
  9
$DIMDLI
 40
7.2269063221
  9
$DIMEXE
 40
1.0
  9
$DIMCEN
 40
1.7116357079
  9
$DIMLFAC
 40
1.0
  9
$DIMBLK
  1
_FILLED
  9
$DIMALT
 70
0
  9
$DIMALTF
 40
0.0393700787
  9
$DIMTXT
 40
1.8910116722
  9
$DIMTOL
 70
1
  9
$DIMLIM
 70
0
  9
$DIMTFAC
 40
1.0
  9
$DIMTP
 40
0.01
  9
$DIMTM
 40
0.01
  9
$DIMGAP
 40
0.625
  9
$DIMDSEP
 70
46
  9
$AUNITS
 70
0
  9
$PDMODE
 70
3
  9
$PDSIZE
 40
0.3125
  9
$HANDSEED
  5
29F
  9
$TILEMODE
 70
1
  9
$MEASUREMENT
 70
1
  9
$INSUNITS
 70
4
  0
ENDSEC
  0
SECTION
  2
CLASSES
  0
CLASS
  1
ACDBDICTIONARYWDFLT
  2
AcDbDictionaryWithDefault
  3
AutoCAD 2000
 90
0
 91
1
280
0
281
0
  0
CLASS
  1
ACDBPLACEHOLDER
  2
AcDbPlaceHolder
  3
AutoCAD 2000
 90
0
 91
1
280
0
281
0
  0
CLASS
  1
LAYOUT
  2
AcDbLayout
  3
AutoCAD 2000
 90
0
 91
0
280
0
281
0
  0
ENDSEC
  0
SECTION
  2
TABLES
  0
TABLE
  2
VPORT
  5
8
100
AcDbSymbolTable
 70
2
  0
VPORT
  5
1F4
100
AcDbSymbolTableRecord
100
AcDbViewportTableRecord
  2
*ACTIVE
 70
0
 10
0.0
 20
0.0
 11
1.0
 21
1.0
 12
56.730350166
 22
80.2329238062
 13
0.0
 23
0.0
 14
1.0
 24
1.0
 15
0.0
 25
0.0
 16
0.0
 26
0.0
 36
1.0
 17
0.0
 27
0.0
 37
0.0
 40
160.4658476124
 41
0.7070707071
 42
50.0
 43
0.0
 44
0.0
 50
0.0
 51
0.0
 71
0
 72
100
 73
1
 74
1
 75
0
 76
0
 77
0
 78
0
  0
ENDTAB
  0
TABLE
  2
LTYPE
  5
5
100
AcDbSymbolTable
 70
6
  0
LTYPE
  5
14
100
AcDbSymbolTableRecord
100
AcDbLinetypeTableRecord
  2
BYBLOCK
 70
0
  3

 72
65
 73
0
 40
0.0
  0
LTYPE
  5
15
100
AcDbSymbolTableRecord
100
AcDbLinetypeTableRecord
  2
BYLAYER
 70
0
  3

 72
65
 73
0
 40
0.0
  0
LTYPE
  5
16
100
AcDbSymbolTableRecord
100
AcDbLinetypeTableRecord
  2
CONTINUOUS
 70
64
  3
Solid line
 72
65
 73
0
 40
0.0
  0
LTYPE
  5
1F5
100
AcDbSymbolTableRecord
100
AcDbLinetypeTableRecord
  2
CENTER
 70
64
  3
____ _ ____ _ ____ _ ____ _ ____ _ ____ _ ____
 72
65
 73
4
 40
0.6
 49
0.375
 74
0
 49
-0.075
 74
0
 49
0.075
 74
0
 49
-0.075
 74
0
  0
LTYPE
  5
1F6
100
AcDbSymbolTableRecord
100
AcDbLinetypeTableRecord
  2
HIDDEN
 70
64
  3
- - - - - - - - - - - - - - - - - - - -
 72
65
 73
2
 40
0.2
 49
0.1
 74
0
 49
-0.1
 74
0
  0
LTYPE
  5
1F7
100
AcDbSymbolTableRecord
100
AcDbLinetypeTableRecord
  2
PHANTOM
 70
64
  3
_____ _ _ _____ _ _ _____ _ _ _____
 72
65
 73
6
 40
0.8
 49
0.45
 74
0
 49
-0.05
 74
0
 49
0.1
 74
0
 49
-0.05
 74
0
 49
0.1
 74
0
 49
-0.05
 74
0
  0
LTYPE
  5
1F8
100
AcDbSymbolTableRecord
100
AcDbLinetypeTableRecord
  2
DOT
 70
64
  3
. . . . . . . . . . . . . . . . . . . .
 72
65
 73
2
 40
0.2
 49
0.1
 74
0
 49
-0.1
 74
0
  0
LTYPE
  5
1F9
100
AcDbSymbolTableRecord
100
AcDbLinetypeTableRecord
  2
DASHED
 70
64
  3
- - - - - - - - - - - - - - - - - - - -
 72
65
 73
2
 40
0.2
 49
0.1
 74
0
 49
-0.1
 74
0
  0
ENDTAB
  0
TABLE
  2
LAYER
  5
2
100
AcDbSymbolTable
 70
36
  0
LAYER
  5
10
100
AcDbSymbolTableRecord
100
AcDbLayerTableRecord
  2
0
 70
0
 62
7
  6
CONTINUOUS
370
-3
390
F
  0
LAYER
  5
1FA
100
AcDbSymbolTableRecord
100
AcDbLayerTableRecord
  2
DEFAULT_1
 70
0
 62
7
  6
CENTER
370
-3
390
F
  0
LAYER
  5
1FB
100
AcDbSymbolTableRecord
100
AcDbLayerTableRecord
  2
DEFAULT_2
 70
0
 62
7
  6
HIDDEN
370
-3
390
F
  0
LAYER
  5
1FC
100
AcDbSymbolTableRecord
100
AcDbLayerTableRecord
  2
DEFAULT_3
 70
0
 62
7
  6
PHANTOM
370
-3
390
F
  0
LAYER
  5
1FD
100
AcDbSymbolTableRecord
100
AcDbLayerTableRecord
  2
00_COMPONENTS
 70
0
 62
7
  6
CONTINUOUS
370
-3
390
F
  0
LAYER
  5
1FE
100
AcDbSymbolTableRecord
100
AcDbLayerTableRecord
  2
01_1_DEFAULT_DATUMS
 70
0
 62
7
  6
CONTINUOUS
370
-3
390
F
  0
LAYER
  5
1FF
100
AcDbSymbolTableRecord
100
AcDbLayerTableRecord
  2
01_PLANES
 70
0
 62
7
  6
CONTINUOUS
370
-3
390
F
  0
LAYER
  5
200
100
AcDbSymbolTableRecord
100
AcDbLayerTableRecord
  2
02_COORD_SYS
 70
0
 62
7
  6
CONTINUOUS
370
-3
390
F
  0
LAYER
  5
201
100
AcDbSymbolTableRecord
100
AcDbLayerTableRecord
  2
03_AXES
 70
0
 62
7
  6
CONTINUOUS
370
-3
390
F
  0
LAYER
  5
202
100
AcDbSymbolTableRecord
100
AcDbLayerTableRecord
  2
04_POINTS
 70
0
 62
7
  6
CONTINUOUS
370
-3
390
F
  0
LAYER
  5
203
100
AcDbSymbolTableRecord
100
AcDbLayerTableRecord
  2
05_CURVES
 70
0
 62
7
  6
CONTINUOUS
370
-3
390
F
  0
LAYER
  5
204
100
AcDbSymbolTableRecord
100
AcDbLayerTableRecord
  2
06_SURFS
 70
0
 62
7
  6
CONTINUOUS
370
-3
390
F
  0
LAYER
  5
205
100
AcDbSymbolTableRecord
100
AcDbLayerTableRecord
  2
07_COSMETICS
 70
0
 62
7
  6
CONTINUOUS
370
-3
390
F
  0
LAYER
  5
206
100
AcDbSymbolTableRecord
100
AcDbLayerTableRecord
  2
10_NOTES
 70
0
 62
7
  6
CONTINUOUS
370
-3
390
F
  0
LAYER
  5
207
100
AcDbSymbolTableRecord
100
AcDbLayerTableRecord
  2
11_NOTES_PUB
 70
0
 62
7
  6
CONTINUOUS
370
-3
390
F
  0
LAYER
  5
208
100
AcDbSymbolTableRecord
100
AcDbLayerTableRecord
  2
13_REF_GTOL
 70
0
 62
7
  6
CONTINUOUS
370
-3
390
F
  0
LAYER
  5
209
100
AcDbSymbolTableRecord
100
AcDbLayerTableRecord
  2
16_MISC
 70
0
 62
7
  6
CONTINUOUS
370
-3
390
F
  0
LAYER
  5
20A
100
AcDbSymbolTableRecord
100
AcDbLayerTableRecord
  2
17_NO_PRINT
 70
0
 62
7
  6
CONTINUOUS
370
-3
390
F
  0
LAYER
  5
20B
100
AcDbSymbolTableRecord
100
AcDbLayerTableRecord
  2
18_DATUM_CAMS_JOINTS
 70
0
 62
7
  6
CONTINUOUS
370
-3
390
F
  0
LAYER
  5
20C
100
AcDbSymbolTableRecord
100
AcDbLayerTableRecord
  2
19_DATUM_FUNCTIONAL
 70
0
 62
7
  6
CONTINUOUS
370
-3
390
F
  0
LAYER
  5
20D
100
AcDbSymbolTableRecord
100
AcDbLayerTableRecord
  2
20_DATUM_KINEMATIC_SCHEME
 70
0
 62
7
  6
CONTINUOUS
370
-3
390
F
  0
ENDTAB
  0
TABLE
  2
STYLE
  5
3
100
AcDbSymbolTable
 70
1
  0
STYLE
  5
11
100
AcDbSymbolTableRecord
100
AcDbTextStyleTableRecord
  2
STANDARD
 70
0
 40
0.0
 41
1.0
 50
0.0
 71
0
 42
0.2
  3
ARIAL.TTF
  4

  0
STYLE
  5
20E
100
AcDbSymbolTableRecord
100
AcDbTextStyleTableRecord
  2
TEXTSTYLE_1
 70
0
 40
0.0
 41
0.8
 50
0.0
 71
0
 42
0.2
  3
gdt
  4

  0
ENDTAB
  0
TABLE
  2
VIEW
  5
6
100
AcDbSymbolTable
 70
0
  0
ENDTAB
  0
TABLE
  2
UCS
  5
7
100
AcDbSymbolTable
 70
0
  0
ENDTAB
  0
TABLE
  2
APPID
  5
9
100
AcDbSymbolTable
 70
1
  0
APPID
  5
20F
100
AcDbSymbolTableRecord
100
AcDbRegAppTableRecord
  2
ACAD
 70
0
  0
ENDTAB
  0
TABLE
  2
BLOCK_RECORD
  5
1
100
AcDbSymbolTable
 70
0
  0
BLOCK_RECORD
  5
210
100
AcDbSymbolTableRecord
100
AcDbBlockTableRecord
  2
*Model_Space
  0
BLOCK_RECORD
  5
211
100
AcDbSymbolTableRecord
100
AcDbBlockTableRecord
  2
*Paper_Space
  0
BLOCK_RECORD
  5
212
100
AcDbSymbolTableRecord
100
AcDbBlockTableRecord
  2
_FILLED
  0
ENDTAB
  0
TABLE
  2
DIMSTYLE
  5
A
100
AcDbSymbolTable
 70
1
100
AcDbDimStyleTable
 71
0
  0
DIMSTYLE
105
213
100
AcDbSymbolTableRecord
100
AcDbDimStyleTableRecord
  2
STANDARD
 70
0
  3

  4

 40
1.0
 41
1.350722623
 42
1.0
 43
0.38
 44
1.0
 45
0.0
 46
0.0
 47
0.01
 48
0.01
140
1.8910116722
141
0.09
142
0.0
143
25.4
144
1.0
145
0.0
146
1.0
147
0.625
 71
1
 72
0
 73
0
 74
0
 75
0
 76
0
 77
1
 78
8
 79
2
170
0
171
1
172
0
173
0
174
0
175
0
176
0
177
0
178
0
270
2
179
2
271
2
272
2
273
2
274
2
275
0
280
0
281
0
282
0
283
1
284
8
285
0
286
0
287
3
288
0
340
11
278
46
341
212
342
212
343
212
344
212
  0
ENDTAB
  0
ENDSEC
  0
SECTION
  2
BLOCKS
  0
BLOCK
  5
20
100
AcDbEntity
  8
0
100
AcDbBlockBegin
  2
*Model_Space
 70
0
 10
0.0
 20
0.0
 30
0.0
  3
*Model_Space
  1

  0
ENDBLK
  5
21
100
AcDbEntity
  8
0
100
AcDbBlockEnd
  0
BLOCK
  5
1C
100
AcDbEntity
  8
0
100
AcDbBlockBegin
  2
*Paper_Space
 70
0
 10
0.0
 20
0.0
 30
0.0
  3
*Paper_Space
  1

  0
ENDBLK
  5
1D
100
AcDbEntity
  8
0
100
AcDbBlockEnd
  0
BLOCK
  5
214
100
AcDbEntity
  8
0
100
AcDbBlockBegin
  2
_FILLED
 70
64
 10
0.0
 20
0.0
  3
_FILLED
  1

  0
SOLID
  5
215
100
AcDbEntity
  8
0
  6
BYBLOCK
 62
0
100
AcDbTrace
 10
0.0
 20
0.0
 11
-1.0
 21
0.25
 12
-1.0
 22
-0.25
 13
-1.0
 23
-0.25
  0
ENDBLK
  5
216
100
AcDbEntity
  8
0
  6
BYBLOCK
 62
0
100
AcDbBlockEnd
  0
ENDSEC
  0
SECTION
  2
ENTITIES
  0
LINE
  5
217
100
AcDbEntity
  8
0
100
AcDbLine
 62
7
  6
BYLAYER
 10
13.1627466349
 20
80.0185815527
 11
13.1627466349
 21
86.5506008898
  0
LINE
  5
218
100
AcDbEntity
  8
0
100
AcDbLine
 62
7
  6
BYLAYER
 10
13.1627466349
 20
100.431141981
 11
13.1627466349
 21
106.963161318
  0
LINE
  5
219
100
AcDbEntity
  8
0
100
AcDbLine
 62
7
  6
BYLAYER
 10
36.7434282019
 20
120.291529797
 11
31.0268993372
 21
117.0604101657
  0
LINE
  5
21A
100
AcDbEntity
  8
0
100
AcDbLine
 62
7
  6
BYLAYER
 10
18.8792754996
 20
110.1942809493
 11
13.1627466349
 21
106.963161318
  0
LINE
  5
21B
100
AcDbEntity
  8
0
100
AcDbLine
 62
7
  6
BYLAYER
 10
14.8738599103
 20
73.5517896888
 11
14.8738599103
 21
86.6974786045
  0
LINE
  5
21C
100
AcDbEntity
  8
0
100
AcDbLine
 62
7
  6
BYLAYER
 10
14.9453602425
 20
87.2131274129
 11
14.9453602425
 21
99.6239641533
  0
LINE
  5
21D
100
AcDbEntity
  8
0
100
AcDbLine
 62
7
  6
BYLAYER
 10
17.7079740109
 20
102.7465210851
 11
17.7079740109
 21
100.1337133502
  0
LINE
  5
21E
100
AcDbEntity
  8
0
100
AcDbLine
 62
7
  6
BYLAYER
 10
17.8848301068
 20
103.4036947328
 11
17.8848301068
 21
104.1784553181
  0
LINE
  5
21F
100
AcDbEntity
  8
0
100
AcDbLine
 62
7
  6
BYLAYER
 10
22.3771151084
 20
108.1315357641
 11
34.524738946
 21
114.9976649806
  0
LINE
  5
220
100
AcDbEntity
  8
0
100
AcDbLine
 62
7
  6
BYLAYER
 10
17.8848301068
 20
104.1784553181
 11
21.5291172581
 21
106.238294083
  0
LINE
  5
221
100
AcDbEntity
  8
0
100
AcDbLine
 62
7
  6
BYLAYER
 10
37.1066584145
 20
115.0430950782
 11
41.4655116738
 21
117.506823797
  0
LINE
  5
222
100
AcDbEntity
  8
0
100
AcDbLine
 62
7
  6
BYLAYER
 10
19.4600264754
 20
103.4319523452
 11
19.4600264754
 21
104.6567059709
  0
LINE
  5
223
100
AcDbEntity
  8
0
100
AcDbLine
 62
7
  6
BYLAYER
 10
21.1365363502
 20
95.9729051756
 11
21.1365363502
 21
98.3407621852
  0
LINE
  5
224
100
AcDbEntity
  8
0
100
AcDbLine
 62
7
  6
BYLAYER
 10
21.5291172581
 20
106.238294083
 11
21.5291172581
 21
105.0276795722
  0
LINE
  5
225
100
AcDbEntity
  8
0
100
AcDbLine
 62
7
  6
BYLAYER
 10
22.1509098367
 20
83.943675232
 11
22.1509098367
 21
82.9638723315
  0
LINE
  5
226
100
AcDbEntity
  8
0
100
AcDbLine
 62
7
  6
BYLAYER
 10
21.2650653015
 20
99.979621197
 11
21.1365363502
 21
98.3407621852
  0
LINE
  5
227
100
AcDbEntity
  8
0
100
AcDbLine
 62
7
  6
BYLAYER
 10
14.9453602425
 20
99.6239641533
 11
17.7079740109
 21
101.1854599126
  0
LINE
  5
228
100
AcDbEntity
  8
0
100
AcDbLine
 62
7
  6
BYLAYER
 10
22.9432512879
 20
104.9230404318
 11
22.9432512879
 21
106.2296349999
  0
LINE
  5
229
100
AcDbEntity
  8
0
100
AcDbLine
 62
7
  6
BYLAYER
 10
25.5666309946
 20
104.682576111
 11
25.5666309946
 21
103.1725245752
  0
LINE
  5
22A
100
AcDbEntity
  8
0
100
AcDbLine
 62
7
  6
BYLAYER
 10
25.7079740109
 20
102.7465210851
 11
25.7079740109
 21
102.4908600783
  0
LINE
  5
22B
100
AcDbEntity
  8
0
100
AcDbLine
 62
7
  6
BYLAYER
 10
21.2650653015
 20
99.979621197
 11
51.6341248953
 21
117.1449442381
  0
LINE
  5
22C
100
AcDbEntity
  8
0
100
AcDbLine
 62
7
  6
BYLAYER
 10
54.4044530581
 20
115.5112269389
 11
24.0353934642
 21
98.3459038978
  0
LINE
  5
22D
100
AcDbEntity
  8
0
100
AcDbLine
 62
7
  6
BYLAYER
 10
24.4594839786
 20
98.3815851813
 11
54.8285435724
 21
115.5469082224
  0
LINE
  5
22E
100
AcDbEntity
  8
0
100
AcDbLine
 62
7
  6
BYLAYER
 10
28.918023061
 20
100.4976778978
 11
51.0695724118
 21
113.0182664689
  0
LINE
  5
22F
100
AcDbEntity
  8
0
100
AcDbLine
 62
7
  6
BYLAYER
 10
29.1654600691
 20
100.3517594011
 11
51.0695724118
 21
112.7324906229
  0
LINE
  5
230
100
AcDbEntity
  8
0
100
AcDbLine
 62
7
  6
BYLAYER
 10
31.0268993372
 20
117.0604101657
 11
31.0268993372
 21
113.0206018896
  0
LINE
  5
231
100
AcDbEntity
  8
0
100
AcDbLine
 62
7
  6
BYLAYER
 10
14.8738599103
 20
86.6974786045
 11
15.3518223243
 21
86.9734286857
  0
LINE
  5
232
100
AcDbEntity
  8
0
100
AcDbLine
 62
7
  6
BYLAYER
 10
13.1627466349
 20
86.5506008898
 11
14.9453602425
 21
87.5581769834
  0
LINE
  5
233
100
AcDbEntity
  8
0
100
AcDbLine
 62
7
  6
BYLAYER
 10
72.0083257022
 20
40.5659367235
 11
14.8738599103
 21
73.5517896888
  0
LINE
  5
234
100
AcDbEntity
  8
0
100
AcDbLine
 62
7
  6
BYLAYER
 10
14.8738599103
 20
79.0095042179
 11
13.1627466349
 21
80.0185815527
  0
LINE
  5
235
100
AcDbEntity
  8
0
100
AcDbLine
 62
7
  6
BYLAYER
 10
41.4655116738
 20
112.5546935432
 11
41.4655116738
 21
117.506823797
  0
LINE
  5
236
100
AcDbEntity
  8
0
100
AcDbLine
 62
7
  6
BYLAYER
 10
14.8738599103
 20
86.6974786045
 11
56.876177584
 21
62.447977786
  0
LINE
  5
237
100
AcDbEntity
  8
0
100
AcDbLine
 62
7
  6
BYLAYER
 10
71.7370330414
 20
53.8682529866
 11
72.0083257022
 21
53.7116256393
  0
LINE
  5
238
100
AcDbEntity
  8
0
100
AcDbLine
 62
7
  6
BYLAYER
 10
13.1627466349
 20
86.5506008898
 11
14.8738599103
 21
85.5415235549
  0
LINE
  5
239
100
AcDbEntity
  8
0
100
AcDbLine
 62
7
  6
BYLAYER
 10
56.876177584
 20
62.4856952683
 11
14.9453602425
 21
87.2131274129
  0
LINE
  5
23A
100
AcDbEntity
  8
0
100
AcDbLine
 62
7
  6
BYLAYER
 10
63.1106116563
 20
58.8091262135
 11
71.6103619058
 21
53.7966554136
  0
LINE
  5
23B
100
AcDbEntity
  8
0
100
AcDbLine
 62
7
  6
BYLAYER
 10
74.619573335
 20
55.8578099745
 11
75.1726153737
 21
55.5385182279
  0
LINE
  5
23C
100
AcDbEntity
  8
0
100
AcDbLine
 62
7
  6
BYLAYER
 10
56.876177584
 20
63.4654981689
 11
22.1509098367
 21
83.943675232
  0
LINE
  5
23D
100
AcDbEntity
  8
0
100
AcDbLine
 62
7
  6
BYLAYER
 10
56.876177584
 20
69.4698985734
 11
63.1106116563
 21
65.8705278121
  0
LINE
  5
23E
100
AcDbEntity
  8
0
100
AcDbLine
 62
7
  6
BYLAYER
 10
51.0695724118
 20
112.7324906229
 11
51.0695724118
 21
113.0182664689
  0
LINE
  5
23F
100
AcDbEntity
  8
0
100
AcDbLine
 62
7
  6
BYLAYER
 10
79.0522892825
 20
96.5163049878
 11
56.9007399317
 21
83.9957164166
  0
LINE
  5
240
100
AcDbEntity
  8
0
100
AcDbLine
 62
7
  6
BYLAYER
 10
13.1627466349
 20
100.431141981
 11
14.9453602425
 21
99.3798994864
  0
LINE
  5
241
100
AcDbEntity
  8
0
100
AcDbLine
 62
7
  6
BYLAYER
 10
21.1365363502
 20
95.9729051756
 11
14.9453602425
 21
99.6239641533
  0
LINE
  5
242
100
AcDbEntity
  8
0
100
AcDbLine
 62
7
  6
BYLAYER
 10
56.4647163995
 20
63.7081449658
 11
56.4647163995
 21
79.2216908913
  0
LINE
  5
243
100
AcDbEntity
  8
0
100
AcDbLine
 62
7
  6
BYLAYER
 10
56.876177584
 20
69.4698985734
 11
56.876177584
 21
62.447977786
  0
LINE
  5
244
100
AcDbEntity
  8
0
100
AcDbLine
 62
7
  6
BYLAYER
 10
53.1417687711
 20
81.4670746631
 11
83.510828365
 21
98.6323977043
  0
LINE
  5
245
100
AcDbEntity
  8
0
100
AcDbLine
 62
7
  6
BYLAYER
 10
83.9349188793
 20
98.0965272958
 11
53.5658592854
 21
80.9312042547
  0
LINE
  5
246
100
AcDbEntity
  8
0
100
AcDbLine
 62
7
  6
BYLAYER
 10
60.930754575
 20
81.7460031032
 11
56.4647163995
 21
79.2216908913
  0
LINE
  5
247
100
AcDbEntity
  8
0
100
AcDbLine
 62
7
  6
BYLAYER
 10
82.3677378178
 20
93.8627017204
 11
86.8337759934
 21
96.3870139324
  0
LINE
  5
248
100
AcDbEntity
  8
0
100
AcDbLine
 62
7
  6
BYLAYER
 10
24.0353934642
 20
98.3459038978
 11
21.2650653015
 21
99.979621197
  0
LINE
  5
249
100
AcDbEntity
  8
0
100
AcDbLine
 62
7
  6
BYLAYER
 10
53.5658592854
 20
80.9312042547
 11
56.4647163995
 21
79.2216908913
  0
LINE
  5
24A
100
AcDbEntity
  8
0
100
AcDbLine
 62
7
  6
BYLAYER
 10
63.1106116563
 20
75.3024750395
 11
71.6103619058
 21
70.2900042396
  0
LINE
  5
24B
100
AcDbEntity
  8
0
100
AcDbLine
 62
7
  6
BYLAYER
 10
24.4594839786
 20
98.3815851813
 11
53.1417687711
 21
81.4670746631
  0
LINE
  5
24C
100
AcDbEntity
  8
0
100
AcDbLine
 62
7
  6
BYLAYER
 10
17.8848301068
 20
104.1784553181
 11
13.1627466349
 21
106.963161318
  0
LINE
  5
24D
100
AcDbEntity
  8
0
100
AcDbLine
 62
7
  6
BYLAYER
 10
53.5658592854
 20
80.9312042547
 11
53.1417687711
 21
81.4670746631
  0
LINE
  5
24E
100
AcDbEntity
  8
0
100
AcDbLine
 62
7
  6
BYLAYER
 10
60.930754575
 20
81.7460031032
 11
60.930754575
 21
71.8107957173
  0
LINE
  5
24F
100
AcDbEntity
  8
0
100
AcDbLine
 62
7
  6
BYLAYER
 10
23.3745770709
 20
101.1719679956
 11
18.3993707196
 21
104.0443397401
  0
LINE
  5
250
100
AcDbEntity
  8
0
100
AcDbLine
 62
7
  6
BYLAYER
 10
19.4600264754
 20
104.6567059709
 11
24.4464865624
 21
101.7778370261
  0
LINE
  5
251
100
AcDbEntity
  8
0
100
AcDbLine
 62
7
  6
BYLAYER
 10
82.9092111701
 20
70.0145071547
 11
83.3750198854
 21
69.7455784515
  0
LINE
  5
252
100
AcDbEntity
  8
0
100
AcDbLine
 62
7
  6
BYLAYER
 10
56.9007399317
 20
83.9957164166
 11
28.918023061
 21
100.4976778978
  0
LINE
  5
253
100
AcDbEntity
  8
0
100
AcDbLine
 62
7
  6
BYLAYER
 10
63.1106116563
 20
58.8091262135
 11
63.1106116563
 21
75.3024750395
  0
LINE
  5
254
100
AcDbEntity
  8
0
100
AcDbLine
 62
7
  6
BYLAYER
 10
63.1106116563
 20
75.3024750395
 11
67.5766498318
 21
77.8267872514
  0
LINE
  5
255
100
AcDbEntity
  8
0
100
AcDbLine
 62
7
  6
BYLAYER
 10
89.0136330746
 20
89.9434858687
 11
93.4796712502
 21
92.4677980806
  0
LINE
  5
256
100
AcDbEntity
  8
0
100
AcDbLine
 62
7
  6
BYLAYER
 10
22.9432512879
 20
106.2296349999
 11
25.5666309946
 21
104.682576111
  0
LINE
  5
257
100
AcDbEntity
  8
0
100
AcDbLine
 62
7
  6
BYLAYER
 10
18.8792754996
 20
110.1942809493
 11
22.3771151084
 21
108.1315357641
  0
LINE
  5
258
100
AcDbEntity
  8
0
100
AcDbLine
 62
7
  6
BYLAYER
 10
61.2955765666
 20
72.021424535
 11
56.876177584
 21
69.4698985734
  0
LINE
  5
259
100
AcDbEntity
  8
0
100
AcDbLine
 62
7
  6
BYLAYER
 10
98.8959491122
 20
69.2351095903
 11
90.2631929365
 21
74.2193634723
  0
LINE
  5
25A
100
AcDbEntity
  8
0
100
AcDbLine
 62
7
  6
BYLAYER
 10
90.6392573642
 20
74.4319241334
 11
99.2855072721
 21
69.4393133284
  0
LINE
  5
25B
100
AcDbEntity
  8
0
100
AcDbLine
 62
7
  6
BYLAYER
 10
71.6103619058
 20
53.7966554136
 11
71.6103619058
 21
70.2900042396
  0
LINE
  5
25C
100
AcDbEntity
  8
0
100
AcDbLine
 62
7
  6
BYLAYER
 10
72.0083257022
 20
53.7116256393
 11
72.0083257022
 21
40.5659367235
  0
LINE
  5
25D
100
AcDbEntity
  8
0
100
AcDbLine
 62
7
  6
BYLAYER
 10
56.876177584
 20
63.9407127254
 11
56.4647163995
 21
63.7081449658
  0
LINE
  5
25E
100
AcDbEntity
  8
0
100
AcDbLine
 62
7
  6
BYLAYER
 10
71.6103619058
 20
70.2900042396
 11
101.9794214996
 21
87.4553272807
  0
LINE
  5
25F
100
AcDbEntity
  8
0
100
AcDbLine
 62
7
  6
BYLAYER
 10
101.9794214996
 20
71.108661004
 11
102.0602387838
 21
71.0620021788
  0
LINE
  5
260
100
AcDbEntity
  8
0
100
AcDbLine
 62
7
  6
BYLAYER
 10
31.0268993372
 20
117.0604101657
 11
34.524738946
 21
114.9976649806
  0
LINE
  5
261
100
AcDbEntity
  8
0
100
AcDbLine
 62
7
  6
BYLAYER
 10
37.1066584145
 20
115.0430950782
 11
41.2580846945
 21
112.5949169087
  0
LINE
  5
262
100
AcDbEntity
  8
0
100
AcDbLine
 62
7
  6
BYLAYER
 10
81.6906984527
 20
90.4376515476
 11
81.6906914825
 21
90.4333894427
  0
LINE
  5
263
100
AcDbEntity
  8
0
100
AcDbLine
 62
7
  6
BYLAYER
 10
81.6916563295
 20
90.4376505154
 11
81.690647598
 21
90.4333894433
  0
LINE
  5
264
100
AcDbEntity
  8
0
100
AcDbLine
 62
7
  6
BYLAYER
 10
90.6935446005
 20
73.9709054441
 11
83.3750198854
 21
69.7455784515
  0
LINE
  5
265
100
AcDbEntity
  8
0
100
AcDbLine
 62
7
  6
BYLAYER
 10
82.9505260412
 20
70.0860682294
 11
90.6392573642
 21
74.4319241334
  0
LINE
  5
266
100
AcDbEntity
  8
0
100
AcDbLine
 62
7
  6
BYLAYER
 10
24.4594839786
 20
98.3815851813
 11
24.0353934642
 21
98.3459038978
  0
LINE
  5
267
100
AcDbEntity
  8
0
100
AcDbLine
 62
7
  6
BYLAYER
 10
86.6428956517
 20
89.2712819303
 11
82.3820821549
 21
91.7312080987
  0
LINE
  5
268
100
AcDbEntity
  8
0
100
AcDbLine
 62
7
  6
BYLAYER
 10
83.4427379107
 20
92.3435743295
 11
88.1374757565
 21
89.633127489
  0
LINE
  5
269
100
AcDbEntity
  8
0
100
AcDbLine
 62
7
  6
BYLAYER
 10
41.4655116738
 20
117.506823797
 11
36.7434282019
 21
120.291529797
  0
LINE
  5
26A
100
AcDbEntity
  8
0
100
AcDbLine
 62
7
  6
BYLAYER
 10
82.3677378178
 20
91.7133482297
 11
82.3677378178
 21
93.8627017204
  0
LINE
  5
26B
100
AcDbEntity
  8
0
100
AcDbLine
 62
7
  6
BYLAYER
 10
83.4427379107
 20
91.1188207038
 11
83.4427379107
 21
92.3435743295
  0
LINE
  5
26C
100
AcDbEntity
  8
0
100
AcDbLine
 62
7
  6
BYLAYER
 10
83.3750198854
 20
69.7455784515
 11
75.1726153737
 21
55.5385182279
  0
LINE
  5
26D
100
AcDbEntity
  8
0
100
AcDbLine
 62
7
  6
BYLAYER
 10
74.3042761333
 20
55.3193205398
 11
82.9505260412
 21
70.0860682294
  0
LINE
  5
26E
100
AcDbEntity
  8
0
100
AcDbLine
 62
7
  6
BYLAYER
 10
51.0695724118
 20
112.7324906229
 11
78.8048522744
 21
96.3764476384
  0
LINE
  5
26F
100
AcDbEntity
  8
0
100
AcDbLine
 62
7
  6
BYLAYER
 10
51.0695724118
 20
113.0182664689
 11
79.0522892825
 21
96.5163049878
  0
LINE
  5
270
100
AcDbEntity
  8
0
100
AcDbLine
 62
7
  6
BYLAYER
 10
89.6138433671
 20
90.6650411422
 11
89.9448568479
 21
90.4698359469
  0
LINE
  5
271
100
AcDbEntity
  8
0
100
AcDbLine
 62
7
  6
BYLAYER
 10
86.8337759934
 20
92.6216302343
 11
86.8337759934
 21
96.3870139324
  0
LINE
  5
272
100
AcDbEntity
  8
0
100
AcDbLine
 62
7
  6
BYLAYER
 10
72.0083257022
 20
53.7116256393
 11
75.1726153737
 21
55.5385182279
  0
LINE
  5
273
100
AcDbEntity
  8
0
100
AcDbLine
 62
7
  6
BYLAYER
 10
98.8959491122
 20
69.2351095903
 11
99.2675761763
 21
69.449667295
  0
LINE
  5
274
100
AcDbEntity
  8
0
100
AcDbLine
 62
7
  6
BYLAYER
 10
101.9794214996
 20
71.0153425766
 11
102.0602387838
 21
71.0620021788
  0
LINE
  5
275
100
AcDbEntity
  8
0
100
AcDbLine
 62
7
  6
BYLAYER
 10
71.6103619058
 20
53.7966554136
 11
74.3042761333
 21
55.3193205398
  0
LINE
  5
276
100
AcDbEntity
  8
0
100
AcDbLine
 62
7
  6
BYLAYER
 10
99.2855072721
 20
69.4393133284
 11
101.9794214996
 21
70.9619784547
  0
LINE
  5
277
100
AcDbEntity
  8
0
100
AcDbLine
 62
7
  6
BYLAYER
 10
54.4044530581
 20
115.5112269389
 11
51.6341248953
 21
117.1449442382
  0
LINE
  5
278
100
AcDbEntity
  8
0
100
AcDbLine
 62
7
  6
BYLAYER
 10
83.9349188793
 20
98.0965272958
 11
86.8337759934
 21
96.3870139324
  0
LINE
  5
279
100
AcDbEntity
  8
0
100
AcDbLine
 62
7
  6
BYLAYER
 10
93.4796712502
 20
92.4677980806
 11
101.9794214996
 21
87.4553272807
  0
LINE
  5
27A
100
AcDbEntity
  8
0
100
AcDbLine
 62
7
  6
BYLAYER
 10
83.510828365
 20
98.6323977043
 11
54.8285435724
 21
115.5469082224
  0
LINE
  5
27B
100
AcDbEntity
  8
0
100
AcDbLine
 62
7
  6
BYLAYER
 10
83.510828365
 20
98.6323977043
 11
83.9349188793
 21
98.0965272958
  0
LINE
  5
27C
100
AcDbEntity
  8
0
100
AcDbLine
 62
7
  6
BYLAYER
 10
54.4044530581
 20
115.5112269389
 11
54.8285435724
 21
115.5469082224
  0
LINE
  5
27D
100
AcDbEntity
  8
0
100
AcDbLine
 62
7
  6
BYLAYER
 10
72.0083257022
 20
40.5659367235
 11
102.0602387838
 21
57.9163132631
  0
LINE
  5
27E
100
AcDbEntity
  8
0
100
AcDbLine
 62
7
  6
BYLAYER
 10
101.9794214996
 20
70.9619784547
 11
101.9794214996
 21
87.4553272807
  0
LINE
  5
27F
100
AcDbEntity
  8
0
100
AcDbLine
 62
7
  6
BYLAYER
 10
102.0602387838
 20
71.0620021788
 11
102.0602387838
 21
57.9163132631
  0
ARC
  5
280
100
AcDbEntity
  8
0
100
AcDbCircle
 62
7
  6
BYLAYER
 10
87.5078284453
 20
58.6834460578
 40
7.6781991575
100
AcDbArc
 50
182.7807132177
 51
184.804543731
  0
ARC
  5
281
100
AcDbEntity
  8
0
100
AcDbCircle
 62
7
  6
BYLAYER
 10
90.1813001074
 20
63.3632068536
 40
7.6498082746
100
AcDbArc
 50
113.7982321404
 51
117.1995741452
  0
ARC
  5
282
100
AcDbEntity
  8
0
100
AcDbCircle
 62
7
  6
BYLAYER
 10
87.1959276872
 20
58.6575750533
 40
7.3652274837
100
AcDbArc
 50
184.8072176932
 51
185.883905199
  0
ARC
  5
283
100
AcDbEntity
  8
0
100
AcDbCircle
 62
7
  6
BYLAYER
 10
24.3495812398
 20
102.7480754123
 40
1.3583876239
100
AcDbArc
 50
347.2661349537
 51
359.9344396628
  0
ARC
  5
284
100
AcDbEntity
  8
0
100
AcDbCircle
 62
7
  6
BYLAYER
 10
88.3516409536
 20
90.4335644008
 40
1.3390384677
100
AcDbArc
 50
354.6582092085
 51
359.9925138485
  0
SPLINE
  5
285
100
AcDbEntity
  8
0
100
AcDbSpline
 62
7
  6
BYLAYER
 70
0
 71
3
 72
18
 73
14
 74
0
 42
0.0000001
 43
0.0000001
 44
0.0000000001
 40
0.0
 40
0.0
 40
0.0
 40
0.0
 40
0.1566516691
 40
0.3074070421
 40
0.4495013085
 40
0.5808384749
 40
0.7003076825
 40
0.7556873439
 40
0.808345162
 40
0.8585984108
 40
0.906896502
 40
0.9538083208
 40
1.0
 40
1.0
 40
1.0
 40
1.0
 10
21.1296976474
 20
97.848611576
 30
0.0
 10
20.897512741
 20
97.8681940565
 30
0.0
 10
20.4434448805
 20
97.9300497181
 30
0.0
 10
19.7934098747
 20
98.0923113942
 30
0.0
 10
19.2023354246
 20
98.3180937207
 30
0.0
 10
18.6884447353
 20
98.6006335559
 30
0.0
 10
18.3283413522
 20
98.8841509219
 30
0.0
 10
18.0975847747
 20
99.1324892651
 30
0.0
 10
17.9573332818
 20
99.322298112
 30
0.0
 10
17.8468153357
 20
99.5189069556
 30
0.0
 10
17.7670083268
 20
99.7208010802
 30
0.0
 10
17.718776055
 20
99.9262902138
 30
0.0
 10
17.7079767716
 20
100.0650061868
 30
0.0
 10
17.7079811651
 20
100.1337133251
 30
0.0
  0
SPLINE
  5
286
100
AcDbEntity
  8
0
100
AcDbSpline
 62
7
  6
BYLAYER
 70
0
 71
3
 72
23
 73
19
 74
0
 42
0.0000001
 43
0.0000001
 44
0.0000000001
 40
0.0
 40
0.0
 40
0.0
 40
0.0
 40
0.042807286
 40
0.0871219819
 40
0.1342046913
 40
0.1849296967
 40
0.2397615675
 40
0.2988008313
 40
0.3618514209
 40
0.4284851581
 40
0.4980968131
 40
0.5699505897
 40
0.6432199909
 40
0.7170234852
 40
0.7904640315
 40
0.8626488879
 40
0.9327541056
 40
1.0
 40
1.0
 40
1.0
 40
1.0
 10
25.7079679745
 20
102.7465210861
 30
0.0
 10
25.7079719604
 20
102.8512029985
 30
0.0
 10
25.6823950539
 20
103.0650343654
 30
0.0
 10
25.5694719284
 20
103.3758315399
 30
0.0
 10
25.3853022753
 20
103.67313372
 30
0.0
 10
25.134378024
 20
103.9517379174
 30
0.0
 10
24.8217312384
 20
104.2073414802
 30
0.0
 10
24.4531036704
 20
104.4358451173
 30
0.0
 10
24.0350820463
 20
104.633458342
 30
0.0
 10
23.5751184338
 20
104.7967832586
 30
0.0
 10
23.0814469964
 20
104.9229482776
 30
0.0
 10
22.5629468898
 20
105.0097013866
 30
0.0
 10
22.0289804662
 20
105.0554769948
 30
0.0
 10
21.4892002844
 20
105.0594588523
 30
0.0
 10
20.9533929723
 20
105.0215591655
 30
0.0
 10
20.4311984944
 20
104.942491846
 30
0.0
 10
19.9321575966
 20
104.8236511847
 30
0.0
 10
19.6131145184
 20
104.7167567112
 30
0.0
 10
19.4600264754
 20
104.6567059709
 30
0.0
  0
SPLINE
  5
287
100
AcDbEntity
  8
0
100
AcDbSpline
 62
7
  6
BYLAYER
 70
0
 71
3
 72
13
 73
9
 74
0
 42
0.0000001
 43
0.0000001
 44
0.0000000001
 40
0.0
 40
0.0
 40
0.0
 40
0.0
 40
0.2777237948
 40
0.5330530855
 40
0.6539293411
 40
0.7713253195
 40
0.8862887224
 40
1.0
 40
1.0
 40
1.0
 40
1.0
 10
18.3993707196
 20
104.0443397401
 30
0.0
 10
18.2923734078
 20
103.9534175518
 30
0.0
 10
18.0996255605
 20
103.7629871117
 30
0.0
 10
17.9105041507
 20
103.4887414467
 30
0.0
 10
17.8050803629
 20
103.2619941766
 30
0.0
 10
17.7491927913
 20
103.0919027298
 30
0.0
 10
17.7154941158
 20
102.919761066
 30
0.0
 10
17.7079822362
 20
102.804011017
 30
0.0
 10
17.7079800472
 20
102.746521084
 30
0.0
  0
SPLINE
  5
288
100
AcDbEntity
  8
0
100
AcDbSpline
 62
7
  6
BYLAYER
 70
0
 71
3
 72
19
 73
15
 74
0
 42
0.0000001
 43
0.0000001
 44
0.0000000001
 40
0.0
 40
0.0
 40
0.0
 40
0.0
 40
0.0443572159
 40
0.0896731339
 40
0.1368072556
 40
0.1864491125
 40
0.2948215662
 40
0.3541513175
 40
0.4168353418
 40
0.4826976625
 40
0.5514548463
 40
0.6960299231
 40
0.8469784196
 40
1.0
 40
1.0
 40
1.0
 40
1.0
 10
17.7079800472
 20
102.746521084
 30
0.0
 10
17.7079769551
 20
102.6653134669
 30
0.0
 10
17.7231557339
 20
102.5007663205
 30
0.0
 10
17.7907309123
 20
102.2583377551
 30
0.0
 10
17.9021205062
 20
102.0219717007
 30
0.0
 10
18.1128337829
 20
101.7096263305
 30
0.0
 10
18.4024905985
 20
101.4299586006
 30
0.0
 10
18.7476925064
 20
101.1871002602
 30
0.0
 10
19.0470457765
 20
101.0165737332
 30
0.0
 10
19.375450126
 20
100.865222478
 30
0.0
 10
19.8553830224
 20
100.6880969535
 30
0.0
 10
20.5048052611
 20
100.5265272935
 30
0.0
 10
21.3223120384
 20
100.4310472201
 30
0.0
 10
21.8804345763
 20
100.4335870711
 30
0.0
 10
22.1599788528
 20
100.4519459353
 30
0.0
  0
SPLINE
  5
289
100
AcDbEntity
  8
0
100
AcDbSpline
 62
7
  6
BYLAYER
 70
0
 71
3
 72
23
 73
19
 74
0
 42
0.0000001
 43
0.0000001
 44
0.0000000001
 40
0.0
 40
0.0
 40
0.0
 40
0.0
 40
0.042807286
 40
0.0871219819
 40
0.1342046913
 40
0.1849296967
 40
0.2397615675
 40
0.2988008313
 40
0.3618514209
 40
0.4284851581
 40
0.4980968131
 40
0.5699505897
 40
0.6432199909
 40
0.7170234852
 40
0.7904640315
 40
0.8626488879
 40
0.9327541056
 40
1.0
 40
1.0
 40
1.0
 40
1.0
 10
89.6906794098
 20
90.4333894447
 30
0.0
 10
89.6906833957
 20
90.5380713571
 30
0.0
 10
89.6651064892
 20
90.7519027241
 30
0.0
 10
89.5521833637
 20
91.0626998986
 30
0.0
 10
89.3680137107
 20
91.3600020787
 30
0.0
 10
89.1170894593
 20
91.638606276
 30
0.0
 10
88.8044426737
 20
91.8942098389
 30
0.0
 10
88.4358151057
 20
92.1227134759
 30
0.0
 10
88.0177934816
 20
92.3203267007
 30
0.0
 10
87.5578298691
 20
92.4836516172
 30
0.0
 10
87.0641584318
 20
92.6098166362
 30
0.0
 10
86.5456583251
 20
92.6965697453
 30
0.0
 10
86.0116919016
 20
92.7423453535
 30
0.0
 10
85.4719117197
 20
92.746327211
 30
0.0
 10
84.9361044076
 20
92.7084275242
 30
0.0
 10
84.4139099297
 20
92.6293602046
 30
0.0
 10
83.9148690319
 20
92.5105195434
 30
0.0
 10
83.5958259537
 20
92.4036250699
 30
0.0
 10
83.4427379107
 20
92.3435743295
 30
0.0
  0
SPLINE
  5
28A
100
AcDbEntity
  8
0
100
AcDbSpline
 62
7
  6
BYLAYER
 70
0
 71
3
 72
13
 73
9
 74
0
 42
0.0000001
 43
0.0000001
 44
0.0000000001
 40
0.0
 40
0.0
 40
0.0
 40
0.0
 40
0.2776802839
 40
0.533031208
 40
0.6539272355
 40
0.7713396445
 40
0.8863070495
 40
1.0
 40
1.0
 40
1.0
 40
1.0
 10
82.3820821549
 20
91.7312080987
 30
0.0
 10
82.2754010631
 20
91.640554622
 30
0.0
 10
82.0831665859
 20
91.4507130042
 30
0.0
 10
81.8943407737
 20
91.1774214538
 30
0.0
 10
81.7888441268
 20
90.9514525972
 30
0.0
 10
81.7327606303
 20
90.7819358102
 30
0.0
 10
81.6987199194
 20
90.6103643772
 30
0.0
 10
81.6908837481
 20
90.4949710171
 30
0.0
 10
81.6906984527
 20
90.4376515476
 30
0.0
  0
SPLINE
  5
28B
100
AcDbEntity
  8
0
100
AcDbSpline
 62
7
  6
BYLAYER
 70
0
 71
3
 72
15
 73
11
 74
0
 42
0.0000001
 43
0.0000001
 44
0.0000000001
 40
0.0
 40
0.0
 40
0.0
 40
0.0
 40
0.1141539866
 40
0.2373247703
 40
0.3669738999
 40
0.4999987679
 40
0.633020809
 40
0.7626720144
 40
0.885842217
 40
1.0
 40
1.0
 40
1.0
 40
1.0
 10
79.8289270641
 20
57.9001547254
 30
0.0
 10
79.8289235028
 20
58.4697290948
 30
0.0
 10
79.9332356088
 20
59.6549743481
 30
0.0
 10
80.3491105985
 20
61.4430535662
 30
0.0
 10
81.0153278644
 20
63.2542531163
 30
0.0
 10
81.9070037546
 20
65.0204437311
 30
0.0
 10
82.9907030024
 20
66.6757853349
 30
0.0
 10
84.2261206996
 20
68.1583522182
 30
0.0
 10
85.5666905131
 20
69.4126046423
 30
0.0
 10
86.5409992293
 20
70.0955771921
 30
0.0
 10
87.034282243
 20
70.3803725728
 30
0.0
  0
SPLINE
  5
28C
100
AcDbEntity
  8
0
100
AcDbSpline
 62
7
  6
BYLAYER
 70
0
 71
3
 72
13
 73
9
 74
0
 42
0.0000001
 43
0.0000001
 44
0.0000000001
 40
0.0
 40
0.0
 40
0.0
 40
0.0
 40
0.1114208817
 40
0.224394467
 40
0.340372999
 40
0.4606108926
 40
0.7173057653
 40
1.0
 40
1.0
 40
1.0
 40
1.0
 10
81.7322590618
 20
54.5096500853
 30
0.0
 10
81.6031169237
 20
54.584223946
 30
0.0
 10
81.35367219
 20
54.753733978
 30
0.0
 10
81.0166433927
 20
55.0623993283
 30
0.0
 10
80.7180310947
 20
55.423801462
 30
0.0
 10
80.36630387
 20
55.9838397092
 30
0.0
 10
80.038064619
 20
56.8117630257
 30
0.0
 10
79.9083077589
 20
57.526175831
 30
0.0
 10
79.8695027773
 20
57.9025426524
 30
0.0
  0
SPLINE
  5
28D
100
AcDbEntity
  8
0
100
AcDbSpline
 62
7
  6
BYLAYER
 70
0
 71
3
 72
13
 73
9
 74
0
 42
0.0000001
 43
0.0000001
 44
0.0000000001
 40
0.0
 40
0.0
 40
0.0
 40
0.0
 40
0.2823400011
 40
0.5388728731
 40
0.6591638499
 40
0.7752540543
 40
0.8883910947
 40
1.0
 40
1.0
 40
1.0
 40
1.0
 10
87.0944719238
 20
70.3625681389
 30
0.0
 10
87.4363886334
 20
70.5130474893
 30
0.0
 10
88.1129755562
 20
70.7506855654
 30
0.0
 10
88.9840170168
 20
70.8738852454
 30
0.0
 10
89.6372058256
 20
70.8469136447
 30
0.0
 10
90.0943466545
 20
70.7682466531
 30
0.0
 10
90.5254722338
 20
70.6312451696
 30
0.0
 10
90.7942056192
 20
70.5011025448
 30
0.0
 10
90.9220859739
 20
70.4272573081
 30
0.0
  0
SPLINE
  5
28E
100
AcDbEntity
  8
0
100
AcDbSpline
 62
7
  6
BYLAYER
 70
0
 71
3
 72
9
 73
5
 74
0
 42
0.0000001
 43
0.0000001
 44
0.0000000001
 40
0.0
 40
0.0
 40
0.0
 40
0.0
 40
0.521346058
 40
1.0
 40
1.0
 40
1.0
 40
1.0
 10
63.0927406372
 20
72.6562822263
 30
0.0
 10
62.7659976231
 20
72.5952705119
 30
0.0
 10
62.1464182589
 20
72.4343537658
 30
0.0
 10
61.5598633183
 20
72.1740096515
 30
0.0
 10
61.2955765666
 20
72.021424535
 30
0.0
  0
SPLINE
  5
28F
100
AcDbEntity
  8
0
100
AcDbSpline
 62
7
  6
BYLAYER
 70
0
 71
3
 72
13
 73
9
 74
0
 42
0.0000001
 43
0.0000001
 44
0.0000000001
 40
0.0
 40
0.0
 40
0.0
 40
0.0
 40
0.3002851222
 40
0.5641904059
 40
0.6827421012
 40
0.7934625436
 40
0.8983122407
 40
1.0
 40
1.0
 40
1.0
 40
1.0
 10
63.0826820633
 20
68.8835124527
 30
0.0
 10
62.9018939816
 20
68.948126337
 30
0.0
 10
62.5713212718
 20
69.0982868637
 30
0.0
 10
62.2185191087
 20
69.3644500951
 30
0.0
 10
62.0154713381
 20
69.6073859069
 30
0.0
 10
61.9080759497
 20
69.7934771349
 30
0.0
 10
61.842404175
 20
69.9868445293
 30
0.0
 10
61.8275970775
 20
70.1193269216
 30
0.0
 10
61.8275858301
 20
70.1843411341
 30
0.0
  0
SPLINE
  5
290
100
AcDbEntity
  8
0
100
AcDbSpline
 62
7
  6
BYLAYER
 70
0
 71
3
 72
21
 73
17
 74
0
 42
0.0000001
 43
0.0000001
 44
0.0000000001
 40
0.0
 40
0.0
 40
0.0
 40
0.0
 40
0.1446373463
 40
0.211273119
 40
0.2742454675
 40
0.3339427708
 40
0.3909311754
 40
0.4459722793
 40
0.4999952668
 40
0.5540199866
 40
0.609063064
 40
0.6660508706
 40
0.7257502176
 40
0.7887303178
 40
0.8553644407
 40
1.0
 40
1.0
 40
1.0
 40
1.0
 10
87.034282243
 20
53.7400533117
 30
0.0
 10
86.5869961708
 20
53.481814119
 30
0.0
 10
85.9002822658
 20
53.1549601497
 30
0.0
 10
84.9585275675
 20
52.8803823485
 30
0.0
 10
84.290084122
 20
52.7682464729
 30
0.0
 10
83.6469008049
 20
52.7459289759
 30
0.0
 10
83.0350914296
 20
52.8140925856
 30
0.0
 10
82.4610386122
 20
52.972893955
 30
0.0
 10
81.9310623328
 20
53.2210344408
 30
0.0
 10
81.4511650857
 20
53.555938628
 30
0.0
 10
81.0266425726
 20
53.9737219821
 30
0.0
 10
80.6616237803
 20
54.4694389617
 30
0.0
 10
80.3594294097
 20
55.0376882155
 30
0.0
 10
80.1222678123
 20
55.6726535886
 30
0.0
 10
79.889257478
 20
56.6255635905
 30
0.0
 10
79.8289302934
 20
57.3836804088
 30
0.0
 10
79.8289270641
 20
57.9001547254
 30
0.0
  0
SPLINE
  5
291
100
AcDbEntity
  8
0
100
AcDbSpline
 62
7
  6
BYLAYER
 70
0
 71
3
 72
29
 73
25
 74
0
 42
0.0000001
 43
0.0000001
 44
0.0000000001
 40
0.0
 40
0.0
 40
0.0
 40
0.0
 40
0.0603341389
 40
0.0881306225
 40
0.114398934
 40
0.1393010863
 40
0.1630732476
 40
0.1860331191
 40
0.2085683091
 40
0.2311042449
 40
0.2540650071
 40
0.2778370249
 40
0.3027401656
 40
0.3290118676
 40
0.3568078326
 40
0.4171415722
 40
0.4836774233
 40
0.5554686922
 40
0.6310358235
 40
0.7085704534
 40
0.7861033819
 40
0.8616715666
 40
0.9334622503
 40
1.0
 40
1.0
 40
1.0
 40
1.0
 10
87.034282243
 20
70.3803725728
 30
0.0
 10
87.4815711533
 20
70.6386134041
 30
0.0
 10
88.1682895315
 20
70.9654690925
 30
0.0
 10
89.1100503985
 20
71.2400468339
 30
0.0
 10
89.7784978515
 20
71.3521813988
 30
0.0
 10
90.4216846878
 20
71.3744963563
 30
0.0
 10
91.033496966
 20
71.3063289391
 30
0.0
 10
91.607551937
 20
71.1475225803
 30
0.0
 10
92.1375294744
 20
70.8993758891
 30
0.0
 10
92.6174269989
 20
70.564464707
 30
0.0
 10
93.0419487224
 20
70.1466727204
 30
0.0
 10
93.4069656418
 20
69.6509493934
 30
0.0
 10
93.7091571964
 20
69.0826814095
 30
0.0
 10
93.9463143277
 20
68.4477446259
 30
0.0
 10
94.1793205494
 20
67.494608054
 30
0.0
 10
94.2851578566
 20
66.1659728087
 30
0.0
 10
94.1353087232
 20
64.4658544813
 30
0.0
 10
93.7194333971
 20
62.6771580292
 30
0.0
 10
93.0532093842
 20
60.8661526097
 30
0.0
 10
92.1615337147
 20
59.0999252701
 30
0.0
 10
91.0778373736
 20
57.4446116447
 30
0.0
 10
89.8424256909
 20
55.9620544732
 30
0.0
 10
88.5018638761
 20
54.7078139061
 30
0.0
 10
87.5275618042
 20
54.0248466991
 30
0.0
 10
87.034282243
 20
53.7400533117
 30
0.0
  0
SPLINE
  5
292
100
AcDbEntity
  8
0
100
AcDbSpline
 62
7
  6
BYLAYER
 70
0
 71
3
 72
14
 73
10
 74
0
 42
0.0000001
 43
0.0000001
 44
0.0000000001
 40
0.0
 40
0.0
 40
0.0
 40
0.0
 40
0.2892768726
 40
0.4225490992
 40
0.5484942301
 40
0.6678896011
 40
0.781868229
 40
0.8919530303
 40
1.0
 40
1.0
 40
1.0
 40
1.0
 10
86.3271725178
 20
54.9647964833
 30
0.0
 10
85.9237833058
 20
54.7319010034
 30
0.0
 10
85.3044642368
 20
54.4371246779
 30
0.0
 10
84.4551368083
 20
54.1894914252
 30
0.0
 10
83.8522942628
 20
54.0883592857
 30
0.0
 10
83.2722419579
 20
54.0682222079
 30
0.0
 10
82.7204398081
 20
54.1297084333
 30
0.0
 10
82.2028313897
 20
54.2728723664
 30
0.0
 10
81.8829207001
 20
54.4226496672
 30
0.0
 10
81.7322590618
 20
54.5096500853
 30
0.0
  0
SPLINE
  5
293
100
AcDbEntity
  8
0
100
AcDbSpline
 62
7
  6
BYLAYER
 70
0
 71
3
 72
11
 73
7
 74
0
 42
0.0000001
 43
0.0000001
 44
0.0000000001
 40
0.0
 40
0.0
 40
0.0
 40
0.0
 40
0.2177781615
 40
0.4509204528
 40
0.7102579945
 40
1.0
 40
1.0
 40
1.0
 40
1.0
 10
61.8275858301
 20
70.1843411341
 30
0.0
 10
61.827568369
 20
70.2852728045
 30
0.0
 10
61.864894672
 20
70.4956556673
 30
0.0
 10
62.0243589972
 20
70.7887630241
 30
0.0
 10
62.2764647215
 20
71.0537608685
 30
0.0
 10
62.4874359402
 20
71.1990373883
 30
0.0
 10
62.6037295581
 20
71.2661791392
 30
0.0
  0
SPLINE
  5
294
100
AcDbEntity
  8
0
100
AcDbSpline
 62
7
  6
BYLAYER
 70
0
 71
3
 72
23
 73
19
 74
0
 42
0.0000001
 43
0.0000001
 44
0.0000000001
 40
0.0
 40
0.0
 40
0.0
 40
0.0
 40
0.0428143182
 40
0.0873964149
 40
0.135179603
 40
0.1870888928
 40
0.2435353309
 40
0.3044929078
 40
0.3695915855
 40
0.438200293
 40
0.5094982287
 40
0.5825342444
 40
0.6562777441
 40
0.7296664531
 40
0.8016556214
 40
0.8712538754
 40
0.9376137659
 40
1.0
 40
1.0
 40
1.0
 40
1.0
 10
90.9220859739
 20
70.4272573081
 30
0.0
 10
91.1486463685
 20
70.2964287223
 30
0.0
 10
91.5781753003
 20
69.9677480158
 30
0.0
 10
92.0950198285
 20
69.3141546292
 30
0.0
 10
92.4812272741
 20
68.5148639369
 30
0.0
 10
92.7313036309
 20
67.5893734269
 30
0.0
 10
92.8426601274
 20
66.5571964797
 30
0.0
 10
92.81422859
 20
65.4395385543
 30
0.0
 10
92.6471813153
 20
64.2594636553
 30
0.0
 10
92.34527895
 20
63.0416358594
 30
0.0
 10
91.9150044185
 20
61.8117488065
 30
0.0
 10
91.3655192841
 20
60.5959140619
 30
0.0
 10
90.7085301177
 20
59.4200396306
 30
0.0
 10
89.9580364478
 20
58.3092012666
 30
0.0
 10
89.1300516951
 20
57.2871613207
 30
0.0
 10
88.2421510941
 20
56.3754410592
 30
0.0
 10
87.3132394832
 20
55.5937888907
 30
0.0
 10
86.6573171206
 20
55.1554044208
 30
0.0
 10
86.3271725178
 20
54.9647964833
 30
0.0
  0
SPLINE
  5
295
100
AcDbEntity
  8
0
100
AcDbSpline
 62
7
  6
BYLAYER
 70
0
 71
3
 72
9
 73
5
 74
0
 42
0.0000001
 43
0.0000001
 44
0.0000000001
 40
0.0
 40
0.0
 40
0.0
 40
0.0
 40
0.2403718423
 40
1.0
 40
1.0
 40
1.0
 40
1.0
 10
62.6037295581
 20
71.2661791392
 30
0.0
 10
62.6393359943
 20
71.286736402
 30
0.0
 10
62.7895920795
 20
71.3685581216
 30
0.0
 10
62.9474047291
 20
71.4362093321
 30
0.0
 10
63.069566527
 20
71.4804666292
 30
0.0
  0
SPLINE
  5
296
100
AcDbEntity
  8
0
100
AcDbSpline
 62
7
  6
BYLAYER
 70
0
 71
3
 72
12
 73
8
 74
0
 42
0.0000001
 43
0.0000001
 44
0.0000000001
 40
0.0
 40
0.0
 40
0.0
 40
0.0
 40
0.1078495227
 40
0.2177944663
 40
0.4505301767
 40
0.7098465002
 40
1.0
 40
1.0
 40
1.0
 40
1.0
 10
69.0036669463
 20
79.7863951739
 30
0.0
 10
69.0036659134
 20
79.6952554682
 30
0.0
 10
68.9876430686
 20
79.5108077483
 30
0.0
 10
68.890407598
 20
79.1410913937
 30
0.0
 10
68.641101853
 20
78.6881111049
 30
0.0
 10
68.1774573282
 20
78.2091754339
 30
0.0
 10
67.7901096292
 20
77.9474398639
 30
0.0
 10
67.5766498318
 20
77.8267872514
 30
0.0
  0
SPLINE
  5
297
100
AcDbEntity
  8
0
100
AcDbSpline
 62
7
  6
BYLAYER
 70
0
 71
3
 72
9
 73
5
 74
0
 42
0.0000001
 43
0.0000001
 44
0.0000000001
 40
0.0
 40
0.0
 40
0.0
 40
0.0
 40
0.5113541812
 40
1.0
 40
1.0
 40
1.0
 40
1.0
 10
42.9826436221
 20
112.2319474153
 30
0.0
 10
42.6829096462
 20
112.2590149327
 30
0.0
 10
42.0991887129
 20
112.3447685631
 30
0.0
 10
41.529591874
 20
112.5000950526
 30
0.0
 10
41.2580846945
 20
112.5949169087
 30
0.0
  0
SPLINE
  5
298
100
AcDbEntity
  8
0
100
AcDbSpline
 62
7
  6
BYLAYER
 70
0
 71
3
 72
20
 73
16
 74
0
 42
0.0000001
 43
0.0000001
 44
0.0000000001
 40
0.0
 40
0.0
 40
0.0
 40
0.0
 40
0.0626836233
 40
0.1293176861
 40
0.2710685218
 40
0.4181420056
 40
0.562235163
 40
0.6307577214
 40
0.6957595589
 40
0.7566257681
 40
0.8129951024
 40
0.8648474208
 40
0.9126013068
 40
0.9571778155
 40
1.0
 40
1.0
 40
1.0
 40
1.0
 10
89.0136330746
 20
89.9434858687
 30
0.0
 10
88.8421044778
 20
89.8465337795
 30
0.0
 10
88.4750320431
 20
89.6693045045
 30
0.0
 10
87.6708525903
 20
89.3840065626
 30
0.0
 10
86.5672731058
 20
89.1691692087
 30
0.0
 10
85.2012585451
 20
89.1370322871
 30
0.0
 10
84.0756984337
 20
89.2989666784
 30
0.0
 10
83.2368014175
 20
89.5436210548
 30
0.0
 10
82.6696621203
 20
89.7742667479
 30
0.0
 10
82.1660308604
 20
90.0501787409
 30
0.0
 10
81.7363493181
 20
90.3660998749
 30
0.0
 10
81.3897398336
 20
90.7161479157
 30
0.0
 10
81.1340314486
 20
91.0941008065
 30
0.0
 10
80.9765194684
 20
91.4926115565
 30
0.0
 10
80.9407191777
 20
91.7684915306
 30
0.0
 10
80.9407207033
 20
91.903093798
 30
0.0
  0
SPLINE
  5
299
100
AcDbEntity
  8
0
100
AcDbSpline
 62
7
  6
BYLAYER
 70
0
 71
3
 72
20
 73
16
 74
0
 42
0.0000001
 43
0.0000001
 44
0.0000000001
 40
0.0
 40
0.0
 40
0.0
 40
0.0
 40
0.0626836233
 40
0.1293176861
 40
0.2710685218
 40
0.4181420056
 40
0.562235163
 40
0.6307577214
 40
0.6957595589
 40
0.7566257681
 40
0.8129951024
 40
0.8648474208
 40
0.9126013068
 40
0.9571778155
 40
1.0
 40
1.0
 40
1.0
 40
1.0
 10
60.930754575
 20
81.7460031032
 30
0.0
 10
61.1022831718
 20
81.8429551924
 30
0.0
 10
61.4693556066
 20
82.0201844674
 30
0.0
 10
62.2735350594
 20
82.3054824093
 30
0.0
 10
63.3771145438
 20
82.5203197631
 30
0.0
 10
64.7431291045
 20
82.5524566848
 30
0.0
 10
65.8686892159
 20
82.3905222934
 30
0.0
 10
66.7075862321
 20
82.1458679171
 30
0.0
 10
67.2747255293
 20
81.915222224
 30
0.0
 10
67.7783567893
 20
81.6393102309
 30
0.0
 10
68.2080383315
 20
81.323389097
 30
0.0
 10
68.5546478161
 20
80.9733410561
 30
0.0
 10
68.810356201
 20
80.5953881653
 30
0.0
 10
68.9678681812
 20
80.1968774153
 30
0.0
 10
69.0036684719
 20
79.9209974413
 30
0.0
 10
69.0036669463
 20
79.7863951739
 30
0.0
  0
SPLINE
  5
29A
100
AcDbEntity
  8
0
100
AcDbSpline
 62
7
  6
BYLAYER
 70
0
 71
3
 72
12
 73
8
 74
0
 42
0.0000001
 43
0.0000001
 44
0.0000000001
 40
0.0
 40
0.0
 40
0.0
 40
0.0
 40
0.1078495227
 40
0.2177944663
 40
0.4505301767
 40
0.7098465002
 40
1.0
 40
1.0
 40
1.0
 40
1.0
 10
80.9407207033
 20
91.903093798
 30
0.0
 10
80.9407217362
 20
91.9942335037
 30
0.0
 10
80.9567445811
 20
92.1786812236
 30
0.0
 10
81.0539800516
 20
92.5483975782
 30
0.0
 10
81.3032857966
 20
93.001377867
 30
0.0
 10
81.7669303214
 20
93.480313538
 30
0.0
 10
82.1542780204
 20
93.742049108
 30
0.0
 10
82.3677378178
 20
93.8627017204
 30
0.0
  0
SPLINE
  5
29B
100
AcDbEntity
  8
0
100
AcDbSpline
 62
7
  6
BYLAYER
 70
0
 71
3
 72
11
 73
7
 74
0
 42
0.0000001
 43
0.0000001
 44
0.0000000001
 40
0.0
 40
0.0
 40
0.0
 40
0.0
 40
0.2837299855
 40
0.5432421957
 40
0.780190339
 40
1.0
 40
1.0
 40
1.0
 40
1.0
 10
25.5666309946
 20
104.682576111
 30
0.0
 10
25.7360500974
 20
104.5826663159
 30
0.0
 10
26.0483637186
 20
104.3693436948
 30
0.0
 10
26.4411676977
 20
103.9933761514
 30
0.0
 10
26.7272892813
 20
103.5830647047
 30
0.0
 10
26.8433971103
 20
103.2841267289
 30
0.0
 10
26.8785653493
 20
103.1358664123
 30
0.0
  0
SPLINE
  5
29C
100
AcDbEntity
  8
0
100
AcDbSpline
 62
7
  6
BYLAYER
 70
0
 71
3
 72
11
 73
7
 74
0
 42
0.0000001
 43
0.0000001
 44
0.0000000001
 40
0.0
 40
0.0
 40
0.0
 40
0.0
 40
0.238229658
 40
0.501340177
 40
0.7637218158
 40
1.0
 40
1.0
 40
1.0
 40
1.0
 10
21.5291172581
 20
106.238294083
 30
0.0
 10
21.6304493688
 20
106.2955694296
 30
0.0
 10
21.8650567425
 20
106.378684734
 30
0.0
 10
22.2390159781
 20
106.4169563268
 30
0.0
 10
22.6115413173
 20
106.3743456738
 30
0.0
 10
22.8438096649
 20
106.2882776914
 30
0.0
 10
22.9432512879
 20
106.2296349999
 30
0.0
  0
ENDSEC
  0
SECTION
  2
OBJECTS
  0
DICTIONARY
  5
C
100
AcDbDictionary
280
0
281
1
  3
ACAD_GROUP
350
D
  3
ACAD_MLINESTYLE
350
17
  3
ACAD_LAYOUT
350
1A
  3
ACAD_PLOTSETTINGS
350
19
  3
ACAD_PLOTSTYLENAME
350
E
  0
DICTIONARY
  5
D
102
{ACAD_REACTORS
330
C
102
}
100
AcDbDictionary
280
0
281
1
  0
ACDBDICTIONARYWDFLT
  5
E
102
{ACAD_REACTORS
330
C
102
}
100
AcDbDictionary
281
1
  3
Normal
350
F
100
AcDbDictionaryWithDefault
340
F
  0
DICTIONARY
  5
17
102
{ACAD_REACTORS
330
C
102
}
100
AcDbDictionary
280
0
281
1
  3
Standard
350
18
  0
DICTIONARY
  5
19
102
{ACAD_REACTORS
330
C
102
}
100
AcDbDictionary
281
1
  0
DICTIONARY
  5
1A
102
{ACAD_REACTORS
330
C
102
}
100
AcDbDictionary
281
1
  3
Model
350
29D
  3
Layout1
350
29E
  0
ACDBPLACEHOLDER
  5
F
102
{ACAD_REACTORS
330
E
102
}
  0
MLINESTYLE
  5
18
102
{ACAD_REACTORS
330
17
102
}
100
AcDbMlineStyle
  2
STANDARD
 70
0
  3

 62
256
 51
90.0
 52
90.0
 71
2
 49
0.5
 62
256
  6
BYLAYER
 49
-0.5
 62
256
  6
BYLAYER
  0
LAYOUT
  5
29D
102
{ACAD_REACTORS
330
1A
102
}
100
AcDbPlotSettings
  1

  2
none_device
  4

  6

 40
0.0
 41
0.0
 42
0.0
 43
0.0
 44
210.0
 45
297.0
 46
0.0
 47
0.0
 48
0.0
 49
0.0
140
0.0
141
0.0
142
1.0
143
1.0
 70
1024
 72
1
 73
0
 74
0
  7

 75
0
147
1.0
148
0.0
149
0.0
100
AcDbLayout
  1
Model
 70
0
 71
0
 10
0.0
 20
0.0
 11
210.0
 21
297.0
 12
0.0
 22
0.0
 32
0.0
 14
0.0
 24
0.0
 34
0.0
 15
0.0
 25
0.0
 35
0.0
146
0.0
 13
0.0
 23
0.0
 33
0.0
 16
1.0
 26
0.0
 36
0.0
 17
0.0
 27
1.0
 37
0.0
 76
0
330
210
345
0
346
0
  0
LAYOUT
  5
29E
102
{ACAD_REACTORS
330
1A
102
}
100
AcDbPlotSettings
  1

  2
none_device
  4

  6

 40
0.0
 41
0.0
 42
0.0
 43
0.0
 44
210.0
 45
297.0
 46
0.0
 47
0.0
 48
0.0
 49
0.0
140
0.0
141
0.0
142
1.0
143
1.0
 70
0
 72
1
 73
0
 74
0
  7

 75
0
147
1.0
148
0.0
149
0.0
100
AcDbLayout
  1
Layout1
 70
0
 71
1
 10
0.0
 20
0.0
 11
210.0
 21
297.0
 12
0.0
 22
0.0
 32
0.0
 14
0.0
 24
0.0
 34
0.0
 15
0.0
 25
0.0
 35
0.0
146
0.0
 13
0.0
 23
0.0
 33
0.0
 16
1.0
 26
0.0
 36
0.0
 17
0.0
 27
1.0
 37
0.0
 76
0
330
211
345
0
346
0
  0
ENDSEC
  0
EOF
