999
DXF file: C:\Users\sesa63760\Dev\_Creo\CAD\MCADID0004786_3D-CAD\drw0001_2.dxf
999
Pro/ENGINEER 2019471 by Parametric Technology Corporation
  0
SECTION
  2
HEADER
  9
$ACADVER
  1
AC1024
  9
$DWGCODEPAGE
  3
ANSI_1252
  9
$EXTMAX
 10
111.7540659433
 20
158.052178977
 30
0.0
  9
$EXTMIN
 10
0.0
 20
0.0
 30
0.0
  9
$LIMMIN
 10
0.0
 20
0.0
  9
$LIMMAX
 10
111.7540659433
 20
158.052178977
  9
$VIEWCTR
 10
55.8770329717
 20
79.0260894885
  9
$VIEWSIZE
 40
158.052178977
  9
$CLAYER
  8
0
  9
$LTSCALE
 40
10.3026605555
  9
$CELTYPE
  6
BYLAYER
  9
$DIMSCALE
 40
1.0
  9
$DIMASZ
 40
1.3304055469
  9
$DIMEXO
 40
1.0
  9
$DIMDLI
 40
7.1182018384
  9
$DIMEXE
 40
1.0
  9
$DIMCEN
 40
1.6858899091
  9
$DIMLFAC
 40
1.0
  9
$DIMBLK
  1
_FILLED
  9
$DIMALT
 70
0
  9
$DIMALTF
 40
0.0393700787
  9
$DIMTXT
 40
1.8625677657
  9
$DIMTOL
 70
1
  9
$DIMLIM
 70
0
  9
$DIMTFAC
 40
1.0
  9
$DIMTP
 40
0.01
  9
$DIMTM
 40
0.01
  9
$DIMGAP
 40
0.625
  9
$DIMDSEP
 70
46
  9
$AUNITS
 70
0
  9
$PDMODE
 70
3
  9
$PDSIZE
 40
0.3125
  9
$HANDSEED
  5
274
  9
$TILEMODE
 70
1
  9
$MEASUREMENT
 70
1
  9
$INSUNITS
 70
4
  0
ENDSEC
  0
SECTION
  2
CLASSES
  0
CLASS
  1
ACDBDICTIONARYWDFLT
  2
AcDbDictionaryWithDefault
  3
AutoCAD 2000
 90
0
 91
1
280
0
281
0
  0
CLASS
  1
ACDBPLACEHOLDER
  2
AcDbPlaceHolder
  3
AutoCAD 2000
 90
0
 91
1
280
0
281
0
  0
CLASS
  1
LAYOUT
  2
AcDbLayout
  3
AutoCAD 2000
 90
0
 91
0
280
0
281
0
  0
ENDSEC
  0
SECTION
  2
TABLES
  0
TABLE
  2
VPORT
  5
8
100
AcDbSymbolTable
 70
2
  0
VPORT
  5
1F4
100
AcDbSymbolTableRecord
100
AcDbViewportTableRecord
  2
*ACTIVE
 70
0
 10
0.0
 20
0.0
 11
1.0
 21
1.0
 12
55.8770329717
 22
79.0260894885
 13
0.0
 23
0.0
 14
1.0
 24
1.0
 15
0.0
 25
0.0
 16
0.0
 26
0.0
 36
1.0
 17
0.0
 27
0.0
 37
0.0
 40
158.052178977
 41
0.7070707071
 42
50.0
 43
0.0
 44
0.0
 50
0.0
 51
0.0
 71
0
 72
100
 73
1
 74
1
 75
0
 76
0
 77
0
 78
0
  0
ENDTAB
  0
TABLE
  2
LTYPE
  5
5
100
AcDbSymbolTable
 70
6
  0
LTYPE
  5
14
100
AcDbSymbolTableRecord
100
AcDbLinetypeTableRecord
  2
BYBLOCK
 70
0
  3

 72
65
 73
0
 40
0.0
  0
LTYPE
  5
15
100
AcDbSymbolTableRecord
100
AcDbLinetypeTableRecord
  2
BYLAYER
 70
0
  3

 72
65
 73
0
 40
0.0
  0
LTYPE
  5
16
100
AcDbSymbolTableRecord
100
AcDbLinetypeTableRecord
  2
CONTINUOUS
 70
64
  3
Solid line
 72
65
 73
0
 40
0.0
  0
LTYPE
  5
1F5
100
AcDbSymbolTableRecord
100
AcDbLinetypeTableRecord
  2
CENTER
 70
64
  3
____ _ ____ _ ____ _ ____ _ ____ _ ____ _ ____
 72
65
 73
4
 40
0.6
 49
0.375
 74
0
 49
-0.075
 74
0
 49
0.075
 74
0
 49
-0.075
 74
0
  0
LTYPE
  5
1F6
100
AcDbSymbolTableRecord
100
AcDbLinetypeTableRecord
  2
HIDDEN
 70
64
  3
- - - - - - - - - - - - - - - - - - - -
 72
65
 73
2
 40
0.2
 49
0.1
 74
0
 49
-0.1
 74
0
  0
LTYPE
  5
1F7
100
AcDbSymbolTableRecord
100
AcDbLinetypeTableRecord
  2
PHANTOM
 70
64
  3
_____ _ _ _____ _ _ _____ _ _ _____
 72
65
 73
6
 40
0.8
 49
0.45
 74
0
 49
-0.05
 74
0
 49
0.1
 74
0
 49
-0.05
 74
0
 49
0.1
 74
0
 49
-0.05
 74
0
  0
LTYPE
  5
1F8
100
AcDbSymbolTableRecord
100
AcDbLinetypeTableRecord
  2
DOT
 70
64
  3
. . . . . . . . . . . . . . . . . . . .
 72
65
 73
2
 40
0.2
 49
0.1
 74
0
 49
-0.1
 74
0
  0
LTYPE
  5
1F9
100
AcDbSymbolTableRecord
100
AcDbLinetypeTableRecord
  2
DASHED
 70
64
  3
- - - - - - - - - - - - - - - - - - - -
 72
65
 73
2
 40
0.2
 49
0.1
 74
0
 49
-0.1
 74
0
  0
ENDTAB
  0
TABLE
  2
LAYER
  5
2
100
AcDbSymbolTable
 70
36
  0
LAYER
  5
10
100
AcDbSymbolTableRecord
100
AcDbLayerTableRecord
  2
0
 70
0
 62
7
  6
CONTINUOUS
370
-3
390
F
  0
LAYER
  5
1FA
100
AcDbSymbolTableRecord
100
AcDbLayerTableRecord
  2
DEFAULT_1
 70
0
 62
7
  6
CENTER
370
-3
390
F
  0
LAYER
  5
1FB
100
AcDbSymbolTableRecord
100
AcDbLayerTableRecord
  2
DEFAULT_2
 70
0
 62
7
  6
HIDDEN
370
-3
390
F
  0
LAYER
  5
1FC
100
AcDbSymbolTableRecord
100
AcDbLayerTableRecord
  2
DEFAULT_3
 70
0
 62
7
  6
PHANTOM
370
-3
390
F
  0
LAYER
  5
1FD
100
AcDbSymbolTableRecord
100
AcDbLayerTableRecord
  2
00_COMPONENTS
 70
0
 62
7
  6
CONTINUOUS
370
-3
390
F
  0
LAYER
  5
1FE
100
AcDbSymbolTableRecord
100
AcDbLayerTableRecord
  2
01_1_DEFAULT_DATUMS
 70
0
 62
7
  6
CONTINUOUS
370
-3
390
F
  0
LAYER
  5
1FF
100
AcDbSymbolTableRecord
100
AcDbLayerTableRecord
  2
01_PLANES
 70
0
 62
7
  6
CONTINUOUS
370
-3
390
F
  0
LAYER
  5
200
100
AcDbSymbolTableRecord
100
AcDbLayerTableRecord
  2
02_COORD_SYS
 70
0
 62
7
  6
CONTINUOUS
370
-3
390
F
  0
LAYER
  5
201
100
AcDbSymbolTableRecord
100
AcDbLayerTableRecord
  2
03_AXES
 70
0
 62
7
  6
CONTINUOUS
370
-3
390
F
  0
LAYER
  5
202
100
AcDbSymbolTableRecord
100
AcDbLayerTableRecord
  2
04_POINTS
 70
0
 62
7
  6
CONTINUOUS
370
-3
390
F
  0
LAYER
  5
203
100
AcDbSymbolTableRecord
100
AcDbLayerTableRecord
  2
05_CURVES
 70
0
 62
7
  6
CONTINUOUS
370
-3
390
F
  0
LAYER
  5
204
100
AcDbSymbolTableRecord
100
AcDbLayerTableRecord
  2
06_SURFS
 70
0
 62
7
  6
CONTINUOUS
370
-3
390
F
  0
LAYER
  5
205
100
AcDbSymbolTableRecord
100
AcDbLayerTableRecord
  2
07_COSMETICS
 70
0
 62
7
  6
CONTINUOUS
370
-3
390
F
  0
LAYER
  5
206
100
AcDbSymbolTableRecord
100
AcDbLayerTableRecord
  2
10_NOTES
 70
0
 62
7
  6
CONTINUOUS
370
-3
390
F
  0
LAYER
  5
207
100
AcDbSymbolTableRecord
100
AcDbLayerTableRecord
  2
11_NOTES_PUB
 70
0
 62
7
  6
CONTINUOUS
370
-3
390
F
  0
LAYER
  5
208
100
AcDbSymbolTableRecord
100
AcDbLayerTableRecord
  2
13_REF_GTOL
 70
0
 62
7
  6
CONTINUOUS
370
-3
390
F
  0
LAYER
  5
209
100
AcDbSymbolTableRecord
100
AcDbLayerTableRecord
  2
16_MISC
 70
0
 62
7
  6
CONTINUOUS
370
-3
390
F
  0
LAYER
  5
20A
100
AcDbSymbolTableRecord
100
AcDbLayerTableRecord
  2
17_NO_PRINT
 70
0
 62
7
  6
CONTINUOUS
370
-3
390
F
  0
LAYER
  5
20B
100
AcDbSymbolTableRecord
100
AcDbLayerTableRecord
  2
18_DATUM_CAMS_JOINTS
 70
0
 62
7
  6
CONTINUOUS
370
-3
390
F
  0
LAYER
  5
20C
100
AcDbSymbolTableRecord
100
AcDbLayerTableRecord
  2
19_DATUM_FUNCTIONAL
 70
0
 62
7
  6
CONTINUOUS
370
-3
390
F
  0
LAYER
  5
20D
100
AcDbSymbolTableRecord
100
AcDbLayerTableRecord
  2
20_DATUM_KINEMATIC_SCHEME
 70
0
 62
7
  6
CONTINUOUS
370
-3
390
F
  0
ENDTAB
  0
TABLE
  2
STYLE
  5
3
100
AcDbSymbolTable
 70
1
  0
STYLE
  5
11
100
AcDbSymbolTableRecord
100
AcDbTextStyleTableRecord
  2
STANDARD
 70
0
 40
0.0
 41
1.0
 50
0.0
 71
0
 42
0.2
  3
ARIAL.TTF
  4

  0
STYLE
  5
20E
100
AcDbSymbolTableRecord
100
AcDbTextStyleTableRecord
  2
TEXTSTYLE_1
 70
0
 40
0.0
 41
0.8
 50
0.0
 71
0
 42
0.2
  3
gdt
  4

  0
ENDTAB
  0
TABLE
  2
VIEW
  5
6
100
AcDbSymbolTable
 70
0
  0
ENDTAB
  0
TABLE
  2
UCS
  5
7
100
AcDbSymbolTable
 70
0
  0
ENDTAB
  0
TABLE
  2
APPID
  5
9
100
AcDbSymbolTable
 70
1
  0
APPID
  5
20F
100
AcDbSymbolTableRecord
100
AcDbRegAppTableRecord
  2
ACAD
 70
0
  0
ENDTAB
  0
TABLE
  2
BLOCK_RECORD
  5
1
100
AcDbSymbolTable
 70
0
  0
BLOCK_RECORD
  5
210
100
AcDbSymbolTableRecord
100
AcDbBlockTableRecord
  2
*Model_Space
  0
BLOCK_RECORD
  5
211
100
AcDbSymbolTableRecord
100
AcDbBlockTableRecord
  2
*Paper_Space
  0
BLOCK_RECORD
  5
212
100
AcDbSymbolTableRecord
100
AcDbBlockTableRecord
  2
_FILLED
  0
ENDTAB
  0
TABLE
  2
DIMSTYLE
  5
A
100
AcDbSymbolTable
 70
1
100
AcDbDimStyleTable
 71
0
  0
DIMSTYLE
105
213
100
AcDbSymbolTableRecord
100
AcDbDimStyleTableRecord
  2
STANDARD
 70
0
  3

  4

 40
1.0
 41
1.3304055469
 42
1.0
 43
0.38
 44
1.0
 45
0.0
 46
0.0
 47
0.01
 48
0.01
140
1.8625677657
141
0.09
142
0.0
143
25.4
144
1.0
145
0.0
146
1.0
147
0.625
 71
1
 72
0
 73
0
 74
0
 75
0
 76
0
 77
1
 78
8
 79
2
170
0
171
1
172
0
173
0
174
0
175
0
176
0
177
0
178
0
270
2
179
2
271
2
272
2
273
2
274
2
275
0
280
0
281
0
282
0
283
1
284
8
285
0
286
0
287
3
288
0
340
11
278
46
341
212
342
212
343
212
344
212
  0
ENDTAB
  0
ENDSEC
  0
SECTION
  2
BLOCKS
  0
BLOCK
  5
20
100
AcDbEntity
  8
0
100
AcDbBlockBegin
  2
*Model_Space
 70
0
 10
0.0
 20
0.0
 30
0.0
  3
*Model_Space
  1

  0
ENDBLK
  5
21
100
AcDbEntity
  8
0
100
AcDbBlockEnd
  0
BLOCK
  5
1C
100
AcDbEntity
  8
0
100
AcDbBlockBegin
  2
*Paper_Space
 70
0
 10
0.0
 20
0.0
 30
0.0
  3
*Paper_Space
  1

  0
ENDBLK
  5
1D
100
AcDbEntity
  8
0
100
AcDbBlockEnd
  0
BLOCK
  5
214
100
AcDbEntity
  8
0
100
AcDbBlockBegin
  2
_FILLED
 70
64
 10
0.0
 20
0.0
  3
_FILLED
  1

  0
SOLID
  5
215
100
AcDbEntity
  8
0
  6
BYBLOCK
 62
0
100
AcDbTrace
 10
0.0
 20
0.0
 11
-1.0
 21
0.25
 12
-1.0
 22
-0.25
 13
-1.0
 23
-0.25
  0
ENDBLK
  5
216
100
AcDbEntity
  8
0
  6
BYBLOCK
 62
0
100
AcDbBlockEnd
  0
ENDSEC
  0
SECTION
  2
ENTITIES
  0
LINE
  5
217
100
AcDbEntity
  8
0
100
AcDbLine
 62
7
  6
BYLAYER
 10
12.2530839395
 20
76.6609080093
 11
12.2530839395
 21
96.8609080093
  0
LINE
  5
218
100
AcDbEntity
  8
0
100
AcDbLine
 62
7
  6
BYLAYER
 10
12.3184420364
 20
76.6609080093
 11
12.3184420364
 21
60.5609080093
  0
LINE
  5
219
100
AcDbEntity
  8
0
100
AcDbLine
 62
7
  6
BYLAYER
 10
24.4024001114
 20
91.8609080093
 11
24.4024001114
 21
96.8609080093
  0
LINE
  5
21A
100
AcDbEntity
  8
0
100
AcDbLine
 62
7
  6
BYLAYER
 10
24.4687093765
 20
96.8609080093
 11
24.4687093765
 21
91.8609080093
  0
LINE
  5
21B
100
AcDbEntity
  8
0
100
AcDbLine
 62
7
  6
BYLAYER
 10
24.8184420364
 20
60.5609080093
 11
24.8184420364
 21
60.2609080093
  0
LINE
  5
21C
100
AcDbEntity
  8
0
100
AcDbLine
 62
7
  6
BYLAYER
 10
25.2184420364
 20
93.5609080093
 11
25.2184420364
 21
91.8609080093
  0
LINE
  5
21D
100
AcDbEntity
  8
0
100
AcDbLine
 62
7
  6
BYLAYER
 10
25.289383625
 20
95.0609080093
 11
25.289383625
 21
93.5609080093
  0
LINE
  5
21E
100
AcDbEntity
  8
0
100
AcDbLine
 62
7
  6
BYLAYER
 10
30.7520427198
 20
77.8609080093
 11
30.7520427198
 21
76.6609080093
  0
LINE
  5
21F
100
AcDbEntity
  8
0
100
AcDbLine
 62
7
  6
BYLAYER
 10
33.1475004477
 20
93.5609080093
 11
33.1475004477
 21
95.0609080093
  0
LINE
  5
220
100
AcDbEntity
  8
0
100
AcDbLine
 62
7
  6
BYLAYER
 10
33.2184420364
 20
91.8609080093
 11
33.2184420364
 21
93.5609080093
  0
LINE
  5
221
100
AcDbEntity
  8
0
100
AcDbLine
 62
7
  6
BYLAYER
 10
33.9018654311
 20
91.8609080093
 11
33.9018654311
 21
96.8609080093
  0
LINE
  5
222
100
AcDbEntity
  8
0
100
AcDbLine
 62
7
  6
BYLAYER
 10
34.2184420364
 20
60.5609080093
 11
34.2184420364
 21
60.2609080093
  0
LINE
  5
223
100
AcDbEntity
  8
0
100
AcDbLine
 62
7
  6
BYLAYER
 10
38.6515980909
 20
97.2109080093
 11
38.0454144275
 21
96.8609080093
  0
LINE
  5
224
100
AcDbEntity
  8
0
100
AcDbLine
 62
7
  6
BYLAYER
 10
93.1184420364
 20
60.2609080093
 11
84.2184420364
 21
60.2609080093
  0
LINE
  5
225
100
AcDbEntity
  8
0
100
AcDbLine
 62
7
  6
BYLAYER
 10
34.2184420364
 20
60.2609080093
 11
24.8184420364
 21
60.2609080093
  0
LINE
  5
226
100
AcDbEntity
  8
0
100
AcDbLine
 62
7
  6
BYLAYER
 10
12.3184420364
 20
60.5609080093
 11
93.1184420364
 21
60.5609080093
  0
LINE
  5
227
100
AcDbEntity
  8
0
100
AcDbLine
 62
7
  6
BYLAYER
 10
93.1184420364
 20
61.7609080093
 11
101.0486165593
 21
61.7609080093
  0
LINE
  5
228
100
AcDbEntity
  8
0
100
AcDbLine
 62
7
  6
BYLAYER
 10
100.7833794989
 20
66.8235787756
 11
100.9637407
 21
66.8235787756
  0
LINE
  5
229
100
AcDbEntity
  8
0
100
AcDbLine
 62
7
  6
BYLAYER
 10
95.6987850503
 20
69.7609080093
 11
101.0486165593
 21
69.7609080093
  0
LINE
  5
22A
100
AcDbEntity
  8
0
100
AcDbLine
 62
7
  6
BYLAYER
 10
93.1184420364
 20
70.2609080093
 11
93.2989201274
 21
70.2609080093
  0
LINE
  5
22B
100
AcDbEntity
  8
0
100
AcDbLine
 62
7
  6
BYLAYER
 10
12.2530839395
 20
76.6609080093
 11
84.7184420364
 21
76.6609080093
  0
LINE
  5
22C
100
AcDbEntity
  8
0
100
AcDbLine
 62
7
  6
BYLAYER
 10
82.949104792
 20
77.8609080093
 11
30.7520427198
 21
77.8609080093
  0
LINE
  5
22D
100
AcDbEntity
  8
0
100
AcDbLine
 62
7
  6
BYLAYER
 10
84.7184420364
 20
85.2609080093
 11
93.948883544
 21
85.2609080093
  0
LINE
  5
22E
100
AcDbEntity
  8
0
100
AcDbLine
 62
7
  6
BYLAYER
 10
95.6987850503
 20
86.7609080093
 11
101.0486165593
 21
86.7609080093
  0
LINE
  5
22F
100
AcDbEntity
  8
0
100
AcDbLine
 62
7
  6
BYLAYER
 10
93.0450882606
 20
88.5109080093
 11
93.948883544
 21
88.5109080093
  0
LINE
  5
230
100
AcDbEntity
  8
0
100
AcDbLine
 62
7
  6
BYLAYER
 10
100.9637407
 20
89.698237243
 11
100.7833794989
 21
89.698237243
  0
LINE
  5
231
100
AcDbEntity
  8
0
100
AcDbLine
 62
7
  6
BYLAYER
 10
93.948883544
 20
90.2609080093
 11
90.4480739615
 21
90.2609080093
  0
LINE
  5
232
100
AcDbEntity
  8
0
100
AcDbLine
 62
7
  6
BYLAYER
 10
33.9018654311
 20
91.8609080093
 11
24.4024001114
 21
91.8609080093
  0
LINE
  5
233
100
AcDbEntity
  8
0
100
AcDbLine
 62
7
  6
BYLAYER
 10
25.2184420364
 20
93.5609080093
 11
25.289383625
 21
93.5609080093
  0
LINE
  5
234
100
AcDbEntity
  8
0
100
AcDbLine
 62
7
  6
BYLAYER
 10
33.1475004477
 20
93.5609080093
 11
33.2184420364
 21
93.5609080093
  0
LINE
  5
235
100
AcDbEntity
  8
0
100
AcDbLine
 62
7
  6
BYLAYER
 10
84.3990231829
 20
94.7609080093
 11
101.0486165593
 21
94.7609080093
  0
LINE
  5
236
100
AcDbEntity
  8
0
100
AcDbLine
 62
7
  6
BYLAYER
 10
25.289383625
 20
95.0609080093
 11
33.1475004477
 21
95.0609080093
  0
LINE
  5
237
100
AcDbEntity
  8
0
100
AcDbLine
 62
7
  6
BYLAYER
 10
85.6127787549
 20
95.0609080093
 11
93.4708955776
 21
95.0609080093
  0
LINE
  5
238
100
AcDbEntity
  8
0
100
AcDbLine
 62
7
  6
BYLAYER
 10
12.2530839395
 20
96.8609080093
 11
38.0454144275
 21
96.8609080093
  0
LINE
  5
239
100
AcDbEntity
  8
0
100
AcDbLine
 62
7
  6
BYLAYER
 10
80.2554741865
 20
96.8609080093
 11
84.6662103327
 21
96.8609080093
  0
LINE
  5
23A
100
AcDbEntity
  8
0
100
AcDbLine
 62
7
  6
BYLAYER
 10
38.6515980909
 20
97.2109080093
 11
80.1001935258
 21
97.2109080093
  0
LINE
  5
23B
100
AcDbEntity
  8
0
100
AcDbLine
 62
7
  6
BYLAYER
 10
84.3990231829
 20
94.7609080093
 11
84.21530733
 21
96.8609080093
  0
LINE
  5
23C
100
AcDbEntity
  8
0
100
AcDbLine
 62
7
  6
BYLAYER
 10
82.949104792
 20
77.8609080093
 11
82.949104792
 21
76.6609080093
  0
LINE
  5
23D
100
AcDbEntity
  8
0
100
AcDbLine
 62
7
  6
BYLAYER
 10
84.2184420364
 20
60.2609080093
 11
84.2184420364
 21
60.5609080093
  0
LINE
  5
23E
100
AcDbEntity
  8
0
100
AcDbLine
 62
7
  6
BYLAYER
 10
84.3990231829
 20
76.6609080093
 11
84.3990231829
 21
94.7609080093
  0
LINE
  5
23F
100
AcDbEntity
  8
0
100
AcDbLine
 62
7
  6
BYLAYER
 10
84.4653324486
 20
94.7609080093
 11
84.465332448
 21
76.6609080093
  0
LINE
  5
240
100
AcDbEntity
  8
0
100
AcDbLine
 62
7
  6
BYLAYER
 10
84.7184420364
 20
85.2609080093
 11
84.7184420364
 21
76.6609080093
  0
LINE
  5
241
100
AcDbEntity
  8
0
100
AcDbLine
 62
7
  6
BYLAYER
 10
85.6127787549
 20
95.0609080093
 11
85.6127787549
 21
94.7609080093
  0
LINE
  5
242
100
AcDbEntity
  8
0
100
AcDbLine
 62
7
  6
BYLAYER
 10
80.2554741865
 20
96.8609080093
 11
79.6492905231
 21
97.2109080093
  0
LINE
  5
243
100
AcDbEntity
  8
0
100
AcDbLine
 62
7
  6
BYLAYER
 10
80.1001935258
 20
97.2109080093
 11
80.7063771892
 21
96.8609080093
  0
LINE
  5
244
100
AcDbEntity
  8
0
100
AcDbLine
 62
7
  6
BYLAYER
 10
84.6662103327
 20
96.8609080093
 11
84.8499261856
 21
94.7609080093
  0
LINE
  5
245
100
AcDbEntity
  8
0
100
AcDbLine
 62
7
  6
BYLAYER
 10
88.0796634521
 20
85.2609080093
 11
88.0796634521
 21
94.7609080093
  0
LINE
  5
246
100
AcDbEntity
  8
0
100
AcDbLine
 62
7
  6
BYLAYER
 10
90.4480739615
 20
90.2609080093
 11
90.4480740018
 21
85.2609080093
  0
LINE
  5
247
100
AcDbEntity
  8
0
100
AcDbLine
 62
7
  6
BYLAYER
 10
93.1184420364
 20
60.2609080093
 11
93.1184420364
 21
85.2609080093
  0
LINE
  5
248
100
AcDbEntity
  8
0
100
AcDbLine
 62
7
  6
BYLAYER
 10
93.2989201274
 20
61.7609080093
 11
93.2989201274
 21
70.2609080093
  0
LINE
  5
249
100
AcDbEntity
  8
0
100
AcDbLine
 62
7
  6
BYLAYER
 10
93.4708955776
 20
94.7609080093
 11
93.4708955776
 21
95.0609080093
  0
LINE
  5
24A
100
AcDbEntity
  8
0
100
AcDbLine
 62
7
  6
BYLAYER
 10
93.948883544
 20
85.2609080093
 11
93.948883544
 21
94.7609080093
  0
LINE
  5
24B
100
AcDbEntity
  8
0
100
AcDbLine
 62
7
  6
BYLAYER
 10
95.6987850503
 20
69.7609080093
 11
95.6987850503
 21
86.7609080093
  0
LINE
  5
24C
100
AcDbEntity
  8
0
100
AcDbLine
 62
7
  6
BYLAYER
 10
96.04889797
 20
69.7609080093
 11
96.04889797
 21
86.7609080093
  0
LINE
  5
24D
100
AcDbEntity
  8
0
100
AcDbLine
 62
7
  6
BYLAYER
 10
100.6985036396
 20
61.7609080093
 11
100.6985036396
 21
69.7609080093
  0
LINE
  5
24E
100
AcDbEntity
  8
0
100
AcDbLine
 62
7
  6
BYLAYER
 10
100.6985036396
 20
86.7609080093
 11
100.6985036396
 21
94.7609080093
  0
LINE
  5
24F
100
AcDbEntity
  8
0
100
AcDbLine
 62
7
  6
BYLAYER
 10
100.7833794989
 20
94.7609080093
 11
100.7833794989
 21
89.698237243
  0
LINE
  5
250
100
AcDbEntity
  8
0
100
AcDbLine
 62
7
  6
BYLAYER
 10
100.7833794989
 20
61.7609080093
 11
100.7833794989
 21
66.8235787756
  0
LINE
  5
251
100
AcDbEntity
  8
0
100
AcDbLine
 62
7
  6
BYLAYER
 10
100.9637407
 20
94.7609080093
 11
100.9637407
 21
89.698237243
  0
LINE
  5
252
100
AcDbEntity
  8
0
100
AcDbLine
 62
7
  6
BYLAYER
 10
100.9637407
 20
61.7609080093
 11
100.9637407
 21
66.8235787756
  0
LINE
  5
253
100
AcDbEntity
  8
0
100
AcDbLine
 62
7
  6
BYLAYER
 10
101.0486165593
 20
61.7609080093
 11
101.0486165593
 21
69.7609080093
  0
LINE
  5
254
100
AcDbEntity
  8
0
100
AcDbLine
 62
7
  6
BYLAYER
 10
101.0486165593
 20
86.7609080093
 11
101.0486165593
 21
94.7609080093
  0
ARC
  5
255
100
AcDbEntity
  8
0
100
AcDbCircle
 62
7
  6
BYLAYER
 10
605.3470264926
 20
82.8762481703
 40
504.6097634832
100
AcDbArc
 50
179.2253754926
 51
179.5589129893
  0
ARC
  5
256
100
AcDbEntity
  8
0
100
AcDbCircle
 62
7
  6
BYLAYER
 10
-403.599906292
 20
73.6455678483
 40
504.6097634814
100
AcDbArc
 50
359.2253754926
 51
359.5589129893
  0
ARC
  5
257
100
AcDbEntity
  8
0
100
AcDbCircle
 62
7
  6
BYLAYER
 10
535.9518869969
 20
72.909321336
 40
435.21105935
100
AcDbArc
 50
180.4144939918
 51
180.8012175264
  0
ARC
  5
258
100
AcDbEntity
  8
0
100
AcDbCircle
 62
7
  6
BYLAYER
 10
-334.2047667938
 20
83.6124946827
 40
435.2110593458
100
AcDbArc
 50
0.4144939918
 51
0.8012175264
  0
SPLINE
  5
259
100
AcDbEntity
  8
0
100
AcDbSpline
 62
7
  6
BYLAYER
 70
0
 71
3
 72
24
 73
20
 74
0
 42
0.0000001
 43
0.0000001
 44
0.0000000001
 40
0.0
 40
0.0
 40
0.0
 40
0.0
 40
0.1949470199
 40
0.3826436974
 40
0.555449149
 40
0.6342350682
 40
0.706941685
 40
0.7728411802
 40
0.8312794731
 40
0.881731913
 40
0.9236897667
 40
0.9413478979
 40
0.9567442488
 40
0.9698452379
 40
0.9806175641
 40
0.989028531
 40
0.9950523189
 40
0.9986910735
 40
1.0
 40
1.0
 40
1.0
 40
1.0
 10
100.7284754274
 20
66.2609080093
 30
0.0
 10
100.7284754274
 20
66.3697788146
 30
0.0
 10
100.7286953633
 20
66.5834714485
 30
0.0
 10
100.7296724922
 20
66.8936682332
 30
0.0
 10
100.7310288855
 20
67.1389911929
 30
0.0
 10
100.7324437646
 20
67.3200943236
 30
0.0
 10
100.7336008458
 20
67.4414944577
 30
0.0
 10
100.7348748623
 20
67.5515291281
 30
0.0
 10
100.7362531011
 20
67.6491340186
 30
0.0
 10
100.7377189157
 20
67.7333633537
 30
0.0
 10
100.7390593321
 20
67.794822046
 30
0.0
 10
100.7402024925
 20
67.8366920692
 30
0.0
 10
100.7410162047
 20
67.8624699368
 30
0.0
 10
100.7418553236
 20
67.8843421868
 30
0.0
 10
100.7426499642
 20
67.9024727748
 30
0.0
 10
100.7435677166
 20
67.9162174418
 30
0.0
 10
100.7441673416
 20
67.9269813779
 30
0.0
 10
100.7452850668
 20
67.9318174986
 30
0.0
 10
100.7455153233
 20
67.9358658667
 30
0.0
 10
100.7462463106
 20
67.9358666964
 30
0.0
  0
SPLINE
  5
25A
100
AcDbEntity
  8
0
100
AcDbSpline
 62
7
  6
BYLAYER
 70
0
 71
3
 72
9
 73
5
 74
0
 42
0.0000001
 43
0.0000001
 44
0.0000000001
 40
0.0
 40
0.0
 40
0.0
 40
0.0
 40
0.4541963896
 40
1.0
 40
1.0
 40
1.0
 40
1.0
 10
95.9577113094
 20
69.6985634164
 30
0.0
 10
95.9726059621
 20
70.9948249666
 30
0.0
 10
95.9914941181
 20
73.84894445
 30
0.0
 10
95.9974798748
 20
76.7030989423
 30
0.0
 10
95.9974799161
 20
78.2609073155
 30
0.0
  0
SPLINE
  5
25B
100
AcDbEntity
  8
0
100
AcDbSpline
 62
7
  6
BYLAYER
 70
0
 71
3
 72
9
 73
5
 74
0
 42
0.0000001
 43
0.0000001
 44
0.0000000001
 40
0.0
 40
0.0
 40
0.0
 40
0.0
 40
0.5457765462
 40
1.0
 40
1.0
 40
1.0
 40
1.0
 10
95.9974799161
 20
78.2609073155
 30
0.0
 10
95.9974799575
 20
79.8182943858
 30
0.0
 10
95.9914972125
 20
82.6718184867
 30
0.0
 10
95.9726181526
 20
85.525307578
 30
0.0
 10
95.9577330545
 20
86.8213601273
 30
0.0
  0
SPLINE
  5
25C
100
AcDbEntity
  8
0
100
AcDbSpline
 62
7
  6
BYLAYER
 70
0
 71
3
 72
9
 73
5
 74
0
 42
0.0000001
 43
0.0000001
 44
0.0000000001
 40
0.0
 40
0.0
 40
0.0
 40
0.0
 40
0.5266594417
 40
1.0
 40
1.0
 40
1.0
 40
1.0
 10
95.7226563857
 20
78.2609080093
 30
0.0
 10
95.7226563857
 20
79.7531216489
 30
0.0
 10
95.7272896861
 20
82.5864789123
 30
0.0
 10
95.74192311
 20
85.41980743
 30
0.0
 10
95.7524973667
 20
86.7609080093
 30
0.0
  0
SPLINE
  5
25D
100
AcDbEntity
  8
0
100
AcDbSpline
 62
7
  6
BYLAYER
 70
0
 71
3
 72
9
 73
5
 74
0
 42
0.0000001
 43
0.0000001
 44
0.0000000001
 40
0.0
 40
0.0
 40
0.0
 40
0.0
 40
0.4733405583
 40
1.0
 40
1.0
 40
1.0
 40
1.0
 10
95.7524973667
 20
69.7609080093
 30
0.0
 10
95.74192311
 20
71.1020085887
 30
0.0
 10
95.7272896861
 20
73.9353371064
 30
0.0
 10
95.7226563857
 20
76.7686943698
 30
0.0
 10
95.7226563857
 20
78.2609080093
 30
0.0
  0
SPLINE
  5
25E
100
AcDbEntity
  8
0
100
AcDbSpline
 62
7
  6
BYLAYER
 70
0
 71
3
 72
24
 73
20
 74
0
 42
0.0000001
 43
0.0000001
 44
0.0000000001
 40
0.0
 40
0.0
 40
0.0
 40
0.0
 40
0.0013078955
 40
0.0049462746
 40
0.0109712934
 40
0.0193828087
 40
0.03015375
 40
0.0432524157
 40
0.0586465011
 40
0.0763034219
 40
0.1182617458
 40
0.1687110002
 40
0.227147801
 40
0.2930496133
 40
0.3657562706
 40
0.4445429174
 40
0.6173551319
 40
0.8050572262
 40
1.0
 40
1.0
 40
1.0
 40
1.0
 10
101.0008738883
 20
64.5859493223
 30
0.0
 10
101.0001434767
 20
64.5859484933
 30
0.0
 10
100.9999117527
 20
64.589998777
 30
0.0
 10
100.9987953118
 20
64.5948317005
 30
0.0
 10
100.9981953086
 20
64.6055983812
 30
0.0
 10
100.9972778518
 20
64.6193424497
 30
0.0
 10
100.9964830644
 20
64.637471563
 30
0.0
 10
100.9956439868
 20
64.6593403752
 30
0.0
 10
100.9948302662
 20
64.6851150396
 30
0.0
 10
100.9936871357
 20
64.7269833724
 30
0.0
 10
100.9923469123
 20
64.7884398903
 30
0.0
 10
100.9908809105
 20
64.8726668746
 30
0.0
 10
100.989502646
 20
64.9702704558
 30
0.0
 10
100.988228704
 20
65.0803056185
 30
0.0
 10
100.9870714744
 20
65.201707484
 30
0.0
 10
100.9856565123
 20
65.3828148345
 30
0.0
 10
100.984300096
 20
65.6281450221
 30
0.0
 10
100.9833229494
 20
65.9383462621
 30
0.0
 10
100.9831030054
 20
66.1520395668
 30
0.0
 10
100.9831030054
 20
66.2609080093
 30
0.0
  0
SPLINE
  5
25F
100
AcDbEntity
  8
0
100
AcDbSpline
 62
7
  6
BYLAYER
 70
0
 71
3
 72
24
 73
20
 74
0
 42
0.0000001
 43
0.0000001
 44
0.0000000001
 40
0.0
 40
0.0
 40
0.0
 40
0.0
 40
0.0013078955
 40
0.0049462746
 40
0.0109712934
 40
0.0193828087
 40
0.03015375
 40
0.0432524157
 40
0.0586465011
 40
0.0763034219
 40
0.1182617458
 40
0.1687110002
 40
0.227147801
 40
0.2930496133
 40
0.3657562706
 40
0.4445429174
 40
0.6173551319
 40
0.8050572262
 40
1.0
 40
1.0
 40
1.0
 40
1.0
 10
100.7462463103
 20
88.5859493223
 30
0.0
 10
100.7455158987
 20
88.5859484933
 30
0.0
 10
100.7452841747
 20
88.589998777
 30
0.0
 10
100.7441677337
 20
88.5948317005
 30
0.0
 10
100.7435677306
 20
88.6055983812
 30
0.0
 10
100.7426502738
 20
88.6193424497
 30
0.0
 10
100.7418554863
 20
88.637471563
 30
0.0
 10
100.7410164088
 20
88.6593403752
 30
0.0
 10
100.7402026882
 20
88.6851150396
 30
0.0
 10
100.7390595577
 20
88.7269833724
 30
0.0
 10
100.7377193343
 20
88.7884398903
 30
0.0
 10
100.7362533325
 20
88.8726668746
 30
0.0
 10
100.7348750679
 20
88.9702704558
 30
0.0
 10
100.733601126
 20
89.0803056185
 30
0.0
 10
100.7324438964
 20
89.201707484
 30
0.0
 10
100.7310289343
 20
89.3828148345
 30
0.0
 10
100.7296725179
 20
89.6281450221
 30
0.0
 10
100.7286953714
 20
89.9383462621
 30
0.0
 10
100.7284754274
 20
90.1520395668
 30
0.0
 10
100.7284754274
 20
90.2609080093
 30
0.0
  0
SPLINE
  5
260
100
AcDbEntity
  8
0
100
AcDbSpline
 62
7
  6
BYLAYER
 70
0
 71
3
 72
24
 73
20
 74
0
 42
0.0000001
 43
0.0000001
 44
0.0000000001
 40
0.0
 40
0.0
 40
0.0
 40
0.0
 40
0.0013078955
 40
0.0049462746
 40
0.0109712934
 40
0.0193828087
 40
0.03015375
 40
0.0432524157
 40
0.0586465011
 40
0.0763034219
 40
0.1182617458
 40
0.1687110002
 40
0.227147801
 40
0.2930496133
 40
0.3657562706
 40
0.4445429174
 40
0.6173551319
 40
0.8050572262
 40
1.0
 40
1.0
 40
1.0
 40
1.0
 10
101.0008738883
 20
88.5859493223
 30
0.0
 10
101.0001434767
 20
88.5859484933
 30
0.0
 10
100.9999117527
 20
88.589998777
 30
0.0
 10
100.9987953118
 20
88.5948317005
 30
0.0
 10
100.9981953086
 20
88.6055983812
 30
0.0
 10
100.9972778518
 20
88.6193424497
 30
0.0
 10
100.9964830644
 20
88.637471563
 30
0.0
 10
100.9956439868
 20
88.6593403752
 30
0.0
 10
100.9948302662
 20
88.6851150396
 30
0.0
 10
100.9936871357
 20
88.7269833724
 30
0.0
 10
100.9923469123
 20
88.7884398903
 30
0.0
 10
100.9908809105
 20
88.8726668746
 30
0.0
 10
100.989502646
 20
88.9702704558
 30
0.0
 10
100.988228704
 20
89.0803056185
 30
0.0
 10
100.9870714744
 20
89.201707484
 30
0.0
 10
100.9856565123
 20
89.3828148345
 30
0.0
 10
100.984300096
 20
89.6281450221
 30
0.0
 10
100.9833229494
 20
89.9383462621
 30
0.0
 10
100.9831030054
 20
90.1520395668
 30
0.0
 10
100.9831030054
 20
90.2609080093
 30
0.0
  0
SPLINE
  5
261
100
AcDbEntity
  8
0
100
AcDbSpline
 62
7
  6
BYLAYER
 70
0
 71
3
 72
24
 73
20
 74
0
 42
0.0000001
 43
0.0000001
 44
0.0000000001
 40
0.0
 40
0.0
 40
0.0
 40
0.0
 40
0.0013078955
 40
0.0049462746
 40
0.0109712934
 40
0.0193828087
 40
0.03015375
 40
0.0432524157
 40
0.0586465011
 40
0.0763034219
 40
0.1182617458
 40
0.1687110002
 40
0.227147801
 40
0.2930496133
 40
0.3657562706
 40
0.4445429174
 40
0.6173551319
 40
0.8050572262
 40
1.0
 40
1.0
 40
1.0
 40
1.0
 10
100.7462463103
 20
64.5859493223
 30
0.0
 10
100.7455158987
 20
64.5859484933
 30
0.0
 10
100.7452841747
 20
64.589998777
 30
0.0
 10
100.7441677337
 20
64.5948317005
 30
0.0
 10
100.7435677306
 20
64.6055983812
 30
0.0
 10
100.7426502738
 20
64.6193424497
 30
0.0
 10
100.7418554863
 20
64.637471563
 30
0.0
 10
100.7410164088
 20
64.6593403752
 30
0.0
 10
100.7402026882
 20
64.6851150396
 30
0.0
 10
100.7390595577
 20
64.7269833724
 30
0.0
 10
100.7377193343
 20
64.7884398903
 30
0.0
 10
100.7362533325
 20
64.8726668746
 30
0.0
 10
100.7348750679
 20
64.9702704558
 30
0.0
 10
100.733601126
 20
65.0803056185
 30
0.0
 10
100.7324438964
 20
65.201707484
 30
0.0
 10
100.7310289343
 20
65.3828148345
 30
0.0
 10
100.7296725179
 20
65.6281450221
 30
0.0
 10
100.7286953714
 20
65.9383462621
 30
0.0
 10
100.7284754274
 20
66.1520395668
 30
0.0
 10
100.7284754274
 20
66.2609080093
 30
0.0
  0
SPLINE
  5
262
100
AcDbEntity
  8
0
100
AcDbSpline
 62
7
  6
BYLAYER
 70
0
 71
3
 72
24
 73
20
 74
0
 42
0.0000001
 43
0.0000001
 44
0.0000000001
 40
0.0
 40
0.0
 40
0.0
 40
0.0
 40
0.1949470199
 40
0.3826436974
 40
0.555449149
 40
0.6342350682
 40
0.706941685
 40
0.7728411802
 40
0.8312794731
 40
0.881731913
 40
0.9236897667
 40
0.9413478979
 40
0.9567442488
 40
0.9698452379
 40
0.9806175641
 40
0.989028531
 40
0.9950523189
 40
0.9986910735
 40
1.0
 40
1.0
 40
1.0
 40
1.0
 10
100.9831030054
 20
90.2609080093
 30
0.0
 10
100.9831030054
 20
90.3697788146
 30
0.0
 10
100.9833229413
 20
90.5834714485
 30
0.0
 10
100.9843000703
 20
90.8936682332
 30
0.0
 10
100.9856564636
 20
91.1389911929
 30
0.0
 10
100.9870713426
 20
91.3200943236
 30
0.0
 10
100.9882284238
 20
91.4414944577
 30
0.0
 10
100.9895024404
 20
91.5515291281
 30
0.0
 10
100.9908806791
 20
91.6491340186
 30
0.0
 10
100.9923464937
 20
91.7333633537
 30
0.0
 10
100.9936869101
 20
91.794822046
 30
0.0
 10
100.9948300705
 20
91.8366920692
 30
0.0
 10
100.9956437827
 20
91.8624699368
 30
0.0
 10
100.9964829016
 20
91.8843421868
 30
0.0
 10
100.9972775422
 20
91.9024727748
 30
0.0
 10
100.9981952947
 20
91.9162174418
 30
0.0
 10
100.9987949197
 20
91.9269813779
 30
0.0
 10
100.9999126448
 20
91.9318174986
 30
0.0
 10
101.0001429014
 20
91.9358658667
 30
0.0
 10
101.0008738886
 20
91.9358666964
 30
0.0
  0
SPLINE
  5
263
100
AcDbEntity
  8
0
100
AcDbSpline
 62
7
  6
BYLAYER
 70
0
 71
3
 72
24
 73
20
 74
0
 42
0.0000001
 43
0.0000001
 44
0.0000000001
 40
0.0
 40
0.0
 40
0.0
 40
0.0
 40
0.1949470199
 40
0.3826436974
 40
0.555449149
 40
0.6342350682
 40
0.706941685
 40
0.7728411802
 40
0.8312794731
 40
0.881731913
 40
0.9236897667
 40
0.9413478979
 40
0.9567442488
 40
0.9698452379
 40
0.9806175641
 40
0.989028531
 40
0.9950523189
 40
0.9986910735
 40
1.0
 40
1.0
 40
1.0
 40
1.0
 10
100.9831030054
 20
66.2609080093
 30
0.0
 10
100.9831030054
 20
66.3697788146
 30
0.0
 10
100.9833229413
 20
66.5834714485
 30
0.0
 10
100.9843000703
 20
66.8936682332
 30
0.0
 10
100.9856564636
 20
67.1389911929
 30
0.0
 10
100.9870713426
 20
67.3200943236
 30
0.0
 10
100.9882284238
 20
67.4414944577
 30
0.0
 10
100.9895024404
 20
67.5515291281
 30
0.0
 10
100.9908806791
 20
67.6491340186
 30
0.0
 10
100.9923464937
 20
67.7333633537
 30
0.0
 10
100.9936869101
 20
67.794822046
 30
0.0
 10
100.9948300705
 20
67.8366920692
 30
0.0
 10
100.9956437827
 20
67.8624699368
 30
0.0
 10
100.9964829016
 20
67.8843421868
 30
0.0
 10
100.9972775422
 20
67.9024727748
 30
0.0
 10
100.9981952947
 20
67.9162174418
 30
0.0
 10
100.9987949197
 20
67.9269813779
 30
0.0
 10
100.9999126448
 20
67.9318174986
 30
0.0
 10
101.0001429014
 20
67.9358658667
 30
0.0
 10
101.0008738886
 20
67.9358666964
 30
0.0
  0
SPLINE
  5
264
100
AcDbEntity
  8
0
100
AcDbSpline
 62
7
  6
BYLAYER
 70
0
 71
3
 72
24
 73
20
 74
0
 42
0.0000001
 43
0.0000001
 44
0.0000000001
 40
0.0
 40
0.0
 40
0.0
 40
0.0
 40
0.1949470199
 40
0.3826436974
 40
0.555449149
 40
0.6342350682
 40
0.706941685
 40
0.7728411802
 40
0.8312794731
 40
0.881731913
 40
0.9236897667
 40
0.9413478979
 40
0.9567442488
 40
0.9698452379
 40
0.9806175641
 40
0.989028531
 40
0.9950523189
 40
0.9986910735
 40
1.0
 40
1.0
 40
1.0
 40
1.0
 10
100.7284754274
 20
90.2609080093
 30
0.0
 10
100.7284754274
 20
90.3697788146
 30
0.0
 10
100.7286953633
 20
90.5834714485
 30
0.0
 10
100.7296724922
 20
90.8936682332
 30
0.0
 10
100.7310288855
 20
91.1389911929
 30
0.0
 10
100.7324437646
 20
91.3200943236
 30
0.0
 10
100.7336008458
 20
91.4414944577
 30
0.0
 10
100.7348748623
 20
91.5515291281
 30
0.0
 10
100.7362531011
 20
91.6491340186
 30
0.0
 10
100.7377189157
 20
91.7333633537
 30
0.0
 10
100.7390593321
 20
91.794822046
 30
0.0
 10
100.7402024925
 20
91.8366920692
 30
0.0
 10
100.7410162047
 20
91.8624699368
 30
0.0
 10
100.7418553236
 20
91.8843421868
 30
0.0
 10
100.7426499642
 20
91.9024727748
 30
0.0
 10
100.7435677166
 20
91.9162174418
 30
0.0
 10
100.7441673416
 20
91.9269813779
 30
0.0
 10
100.7452850668
 20
91.9318174986
 30
0.0
 10
100.7455153233
 20
91.9358658667
 30
0.0
 10
100.7462463106
 20
91.9358666964
 30
0.0
  0
SPLINE
  5
265
100
AcDbEntity
  8
0
100
AcDbSpline
 62
7
  6
BYLAYER
 70
0
 71
3
 72
9
 73
5
 74
0
 42
0.0000001
 43
0.0000001
 44
0.0000000001
 40
0.0
 40
0.0
 40
0.0
 40
0.0
 40
0.4733405583
 40
1.0
 40
1.0
 40
1.0
 40
1.0
 10
95.9951856536
 20
86.7609080093
 30
0.0
 10
96.0057599103
 20
85.41980743
 30
0.0
 10
96.0203933343
 20
82.5864789123
 30
0.0
 10
96.0250266346
 20
79.7531216489
 30
0.0
 10
96.0250266346
 20
78.2609080093
 30
0.0
  0
SPLINE
  5
266
100
AcDbEntity
  8
0
100
AcDbSpline
 62
7
  6
BYLAYER
 70
0
 71
3
 72
24
 73
20
 74
0
 42
0.0000001
 43
0.0000001
 44
0.0000000001
 40
0.0
 40
0.0
 40
0.0
 40
0.0
 40
0.0013078955
 40
0.0049462746
 40
0.0109712934
 40
0.0193828087
 40
0.03015375
 40
0.0432524157
 40
0.0586465011
 40
0.0763034219
 40
0.1182617458
 40
0.1687110002
 40
0.227147801
 40
0.2930496133
 40
0.3657562706
 40
0.4445429174
 40
0.6173551319
 40
0.8050572262
 40
1.0
 40
1.0
 40
1.0
 40
1.0
 10
101.0008738886
 20
91.9358666964
 30
0.0
 10
101.0016043002
 20
91.9358675254
 30
0.0
 10
101.0018360242
 20
91.9318172417
 30
0.0
 10
101.0029524651
 20
91.9269843182
 30
0.0
 10
101.0035524683
 20
91.9162176375
 30
0.0
 10
101.0044699251
 20
91.902473569
 30
0.0
 10
101.0052647125
 20
91.8843444557
 30
0.0
 10
101.0061037901
 20
91.8624756435
 30
0.0
 10
101.0069175107
 20
91.8367009791
 30
0.0
 10
101.0080606412
 20
91.7948326463
 30
0.0
 10
101.0094008646
 20
91.7333761284
 30
0.0
 10
101.0108668664
 20
91.6491491441
 30
0.0
 10
101.0122451309
 20
91.5515455629
 30
0.0
 10
101.0135190729
 20
91.4415104001
 30
0.0
 10
101.0146763025
 20
91.3201085347
 30
0.0
 10
101.0160912646
 20
91.1390011842
 30
0.0
 10
101.0174476809
 20
90.8936709966
 30
0.0
 10
101.0184248275
 20
90.5834697566
 30
0.0
 10
101.0186447715
 20
90.3697764519
 30
0.0
 10
101.0186447715
 20
90.2609080093
 30
0.0
  0
SPLINE
  5
267
100
AcDbEntity
  8
0
100
AcDbSpline
 62
7
  6
BYLAYER
 70
0
 71
3
 72
9
 73
5
 74
0
 42
0.0000001
 43
0.0000001
 44
0.0000000001
 40
0.0
 40
0.0
 40
0.0
 40
0.0
 40
0.5266594417
 40
1.0
 40
1.0
 40
1.0
 40
1.0
 10
96.0250266346
 20
78.2609080093
 30
0.0
 10
96.0250266346
 20
76.7686943698
 30
0.0
 10
96.0203933343
 20
73.9353371064
 30
0.0
 10
96.0057599103
 20
71.1020085887
 30
0.0
 10
95.9951856536
 20
69.7609080093
 30
0.0
  0
SPLINE
  5
268
100
AcDbEntity
  8
0
100
AcDbSpline
 62
7
  6
BYLAYER
 70
0
 71
3
 72
24
 73
20
 74
0
 42
0.0000001
 43
0.0000001
 44
0.0000000001
 40
0.0
 40
0.0
 40
0.0
 40
0.0
 40
0.1949470199
 40
0.3826436974
 40
0.555449149
 40
0.6342350682
 40
0.706941685
 40
0.7728411802
 40
0.8312794731
 40
0.881731913
 40
0.9236897667
 40
0.9413478979
 40
0.9567442488
 40
0.9698452379
 40
0.9806175641
 40
0.989028531
 40
0.9950523189
 40
0.9986910735
 40
1.0
 40
1.0
 40
1.0
 40
1.0
 10
101.0186447715
 20
90.2609080093
 30
0.0
 10
101.0186447715
 20
90.1520372041
 30
0.0
 10
101.0184248356
 20
89.9383445702
 30
0.0
 10
101.0174477066
 20
89.6281477855
 30
0.0
 10
101.0160913133
 20
89.3828248258
 30
0.0
 10
101.0146764343
 20
89.2017216951
 30
0.0
 10
101.0135193531
 20
89.080321561
 30
0.0
 10
101.0122453366
 20
88.9702868906
 30
0.0
 10
101.0108670978
 20
88.8726820001
 30
0.0
 10
101.0094012832
 20
88.7884526649
 30
0.0
 10
101.0080608668
 20
88.7269939727
 30
0.0
 10
101.0069177064
 20
88.6851239494
 30
0.0
 10
101.0061039942
 20
88.6593460819
 30
0.0
 10
101.0052648753
 20
88.6374738319
 30
0.0
 10
101.0044702347
 20
88.6193432439
 30
0.0
 10
101.0035524822
 20
88.6055985769
 30
0.0
 10
101.0029528573
 20
88.5948346408
 30
0.0
 10
101.0018351321
 20
88.5899985201
 30
0.0
 10
101.0016048756
 20
88.585950152
 30
0.0
 10
101.0008738883
 20
88.5859493223
 30
0.0
  0
SPLINE
  5
269
100
AcDbEntity
  8
0
100
AcDbSpline
 62
7
  6
BYLAYER
 70
0
 71
3
 72
20
 73
16
 74
0
 42
0.0000001
 43
0.0000001
 44
0.0000000001
 40
0.0
 40
0.0
 40
0.0
 40
0.0
 40
0.0366039593
 40
0.0730851663
 40
0.1093695574
 40
0.1454340443
 40
0.2168744333
 40
0.2874288632
 40
0.3569880783
 40
0.4254142453
 40
0.5581659707
 40
0.6840792485
 40
0.801128126
 40
0.9070181525
 40
1.0
 40
1.0
 40
1.0
 40
1.0
 10
90.4480739615
 20
90.2609080093
 30
0.0
 10
90.4480739615
 20
90.2209603493
 30
0.0
 10
90.4590339825
 20
90.1408845923
 30
0.0
 10
90.5026193441
 20
90.02896505
 30
0.0
 10
90.5637100938
 20
89.9266690717
 30
0.0
 10
90.6592387701
 20
89.8018923892
 30
0.0
 10
90.795031602
 20
89.6621391995
 30
0.0
 10
90.9696132397
 20
89.5108778589
 30
0.0
 10
91.1498073568
 20
89.3716925945
 30
0.0
 10
91.3910257115
 20
89.2009681921
 30
0.0
 10
91.6927288904
 20
89.0096590188
 30
0.0
 10
92.0522222046
 20
88.8119154666
 30
0.0
 10
92.3991668057
 20
88.6537619358
 30
0.0
 10
92.7267890026
 20
88.5444058531
 30
0.0
 10
92.9436127016
 20
88.5109080093
 30
0.0
 10
93.0450882606
 20
88.5109080093
 30
0.0
  0
SPLINE
  5
26A
100
AcDbEntity
  8
0
100
AcDbSpline
 62
7
  6
BYLAYER
 70
0
 71
3
 72
24
 73
20
 74
0
 42
0.0000001
 43
0.0000001
 44
0.0000000001
 40
0.0
 40
0.0
 40
0.0
 40
0.0
 40
0.0013078955
 40
0.0049462746
 40
0.0109712934
 40
0.0193828087
 40
0.03015375
 40
0.0432524157
 40
0.0586465011
 40
0.0763034219
 40
0.1182617458
 40
0.1687110002
 40
0.227147801
 40
0.2930496133
 40
0.3657562706
 40
0.4445429174
 40
0.6173551319
 40
0.8050572262
 40
1.0
 40
1.0
 40
1.0
 40
1.0
 10
100.7462463106
 20
91.9358666964
 30
0.0
 10
100.7469767222
 20
91.9358675254
 30
0.0
 10
100.7472084462
 20
91.9318172417
 30
0.0
 10
100.7483248871
 20
91.9269843182
 30
0.0
 10
100.7489248903
 20
91.9162176375
 30
0.0
 10
100.749842347
 20
91.902473569
 30
0.0
 10
100.7506371345
 20
91.8843444557
 30
0.0
 10
100.7514762121
 20
91.8624756435
 30
0.0
 10
100.7522899327
 20
91.8367009791
 30
0.0
 10
100.7534330631
 20
91.7948326463
 30
0.0
 10
100.7547732866
 20
91.7333761284
 30
0.0
 10
100.7562392884
 20
91.6491491441
 30
0.0
 10
100.7576175529
 20
91.5515455629
 30
0.0
 10
100.7588914949
 20
91.4415104001
 30
0.0
 10
100.7600487245
 20
91.3201085347
 30
0.0
 10
100.7614636866
 20
91.1390011842
 30
0.0
 10
100.7628201029
 20
90.8936709966
 30
0.0
 10
100.7637972494
 20
90.5834697566
 30
0.0
 10
100.7640171935
 20
90.3697764519
 30
0.0
 10
100.7640171935
 20
90.2609080093
 30
0.0
  0
SPLINE
  5
26B
100
AcDbEntity
  8
0
100
AcDbSpline
 62
7
  6
BYLAYER
 70
0
 71
3
 72
24
 73
20
 74
0
 42
0.0000001
 43
0.0000001
 44
0.0000000001
 40
0.0
 40
0.0
 40
0.0
 40
0.0
 40
0.0013078955
 40
0.0049462746
 40
0.0109712934
 40
0.0193828087
 40
0.03015375
 40
0.0432524157
 40
0.0586465011
 40
0.0763034219
 40
0.1182617458
 40
0.1687110002
 40
0.227147801
 40
0.2930496133
 40
0.3657562706
 40
0.4445429174
 40
0.6173551319
 40
0.8050572262
 40
1.0
 40
1.0
 40
1.0
 40
1.0
 10
100.7462463106
 20
67.9358666964
 30
0.0
 10
100.7469767222
 20
67.9358675254
 30
0.0
 10
100.7472084462
 20
67.9318172417
 30
0.0
 10
100.7483248871
 20
67.9269843182
 30
0.0
 10
100.7489248903
 20
67.9162176375
 30
0.0
 10
100.749842347
 20
67.902473569
 30
0.0
 10
100.7506371345
 20
67.8843444557
 30
0.0
 10
100.7514762121
 20
67.8624756435
 30
0.0
 10
100.7522899327
 20
67.8367009791
 30
0.0
 10
100.7534330631
 20
67.7948326463
 30
0.0
 10
100.7547732866
 20
67.7333761284
 30
0.0
 10
100.7562392884
 20
67.6491491441
 30
0.0
 10
100.7576175529
 20
67.5515455629
 30
0.0
 10
100.7588914949
 20
67.4415104001
 30
0.0
 10
100.7600487245
 20
67.3201085347
 30
0.0
 10
100.7614636866
 20
67.1390011842
 30
0.0
 10
100.7628201029
 20
66.8936709966
 30
0.0
 10
100.7637972494
 20
66.5834697566
 30
0.0
 10
100.7640171935
 20
66.3697764519
 30
0.0
 10
100.7640171935
 20
66.2609080093
 30
0.0
  0
SPLINE
  5
26C
100
AcDbEntity
  8
0
100
AcDbSpline
 62
7
  6
BYLAYER
 70
0
 71
3
 72
24
 73
20
 74
0
 42
0.0000001
 43
0.0000001
 44
0.0000000001
 40
0.0
 40
0.0
 40
0.0
 40
0.0
 40
0.1949470199
 40
0.3826436974
 40
0.555449149
 40
0.6342350682
 40
0.706941685
 40
0.7728411802
 40
0.8312794731
 40
0.881731913
 40
0.9236897667
 40
0.9413478979
 40
0.9567442488
 40
0.9698452379
 40
0.9806175641
 40
0.989028531
 40
0.9950523189
 40
0.9986910735
 40
1.0
 40
1.0
 40
1.0
 40
1.0
 10
100.7640171935
 20
90.2609080093
 30
0.0
 10
100.7640171935
 20
90.1520372041
 30
0.0
 10
100.7637972575
 20
89.9383445702
 30
0.0
 10
100.7628201286
 20
89.6281477855
 30
0.0
 10
100.7614637353
 20
89.3828248258
 30
0.0
 10
100.7600488563
 20
89.2017216951
 30
0.0
 10
100.758891775
 20
89.080321561
 30
0.0
 10
100.7576177585
 20
88.9702868906
 30
0.0
 10
100.7562395197
 20
88.8726820001
 30
0.0
 10
100.7547737051
 20
88.7884526649
 30
0.0
 10
100.7534332888
 20
88.7269939727
 30
0.0
 10
100.7522901283
 20
88.6851239494
 30
0.0
 10
100.7514764162
 20
88.6593460819
 30
0.0
 10
100.7506372973
 20
88.6374738319
 30
0.0
 10
100.7498426567
 20
88.6193432439
 30
0.0
 10
100.7489249042
 20
88.6055985769
 30
0.0
 10
100.7483252792
 20
88.5948346408
 30
0.0
 10
100.7472075541
 20
88.5899985201
 30
0.0
 10
100.7469772975
 20
88.585950152
 30
0.0
 10
100.7462463103
 20
88.5859493223
 30
0.0
  0
SPLINE
  5
26D
100
AcDbEntity
  8
0
100
AcDbSpline
 62
7
  6
BYLAYER
 70
0
 71
3
 72
9
 73
5
 74
0
 42
0.0000001
 43
0.0000001
 44
0.0000000001
 40
0.0
 40
0.0
 40
0.0
 40
0.0
 40
0.4541963896
 40
1.0
 40
1.0
 40
1.0
 40
1.0
 10
95.7899717109
 20
86.8232526023
 30
0.0
 10
95.7750770582
 20
85.5269910521
 30
0.0
 10
95.7561889022
 20
82.6728715687
 30
0.0
 10
95.7502031455
 20
79.8187170764
 30
0.0
 10
95.7502031042
 20
78.2609087032
 30
0.0
  0
SPLINE
  5
26E
100
AcDbEntity
  8
0
100
AcDbSpline
 62
7
  6
BYLAYER
 70
0
 71
3
 72
9
 73
5
 74
0
 42
0.0000001
 43
0.0000001
 44
0.0000000001
 40
0.0
 40
0.0
 40
0.0
 40
0.0
 40
0.5457765462
 40
1.0
 40
1.0
 40
1.0
 40
1.0
 10
95.7502031042
 20
78.2609087032
 30
0.0
 10
95.7502030628
 20
76.7035216329
 30
0.0
 10
95.7561858078
 20
73.849997532
 30
0.0
 10
95.7750648677
 20
70.9965084407
 30
0.0
 10
95.7899499658
 20
69.7004558914
 30
0.0
  0
SPLINE
  5
26F
100
AcDbEntity
  8
0
100
AcDbSpline
 62
7
  6
BYLAYER
 70
0
 71
3
 72
24
 73
20
 74
0
 42
0.0000001
 43
0.0000001
 44
0.0000000001
 40
0.0
 40
0.0
 40
0.0
 40
0.0
 40
0.1949470199
 40
0.3826436974
 40
0.555449149
 40
0.6342350682
 40
0.706941685
 40
0.7728411802
 40
0.8312794731
 40
0.881731913
 40
0.9236897667
 40
0.9413478979
 40
0.9567442488
 40
0.9698452379
 40
0.9806175641
 40
0.989028531
 40
0.9950523189
 40
0.9986910735
 40
1.0
 40
1.0
 40
1.0
 40
1.0
 10
100.7640171935
 20
66.2609080093
 30
0.0
 10
100.7640171935
 20
66.1520372041
 30
0.0
 10
100.7637972575
 20
65.9383445702
 30
0.0
 10
100.7628201286
 20
65.6281477855
 30
0.0
 10
100.7614637353
 20
65.3828248258
 30
0.0
 10
100.7600488563
 20
65.2017216951
 30
0.0
 10
100.758891775
 20
65.080321561
 30
0.0
 10
100.7576177585
 20
64.9702868906
 30
0.0
 10
100.7562395197
 20
64.8726820001
 30
0.0
 10
100.7547737051
 20
64.7884526649
 30
0.0
 10
100.7534332888
 20
64.7269939727
 30
0.0
 10
100.7522901283
 20
64.6851239494
 30
0.0
 10
100.7514764162
 20
64.6593460819
 30
0.0
 10
100.7506372973
 20
64.6374738319
 30
0.0
 10
100.7498426567
 20
64.6193432439
 30
0.0
 10
100.7489249042
 20
64.6055985769
 30
0.0
 10
100.7483252792
 20
64.5948346408
 30
0.0
 10
100.7472075541
 20
64.5899985201
 30
0.0
 10
100.7469772975
 20
64.585950152
 30
0.0
 10
100.7462463103
 20
64.5859493223
 30
0.0
  0
SPLINE
  5
270
100
AcDbEntity
  8
0
100
AcDbSpline
 62
7
  6
BYLAYER
 70
0
 71
3
 72
24
 73
20
 74
0
 42
0.0000001
 43
0.0000001
 44
0.0000000001
 40
0.0
 40
0.0
 40
0.0
 40
0.0
 40
0.0013078955
 40
0.0049462746
 40
0.0109712934
 40
0.0193828087
 40
0.03015375
 40
0.0432524157
 40
0.0586465011
 40
0.0763034219
 40
0.1182617458
 40
0.1687110002
 40
0.227147801
 40
0.2930496133
 40
0.3657562706
 40
0.4445429174
 40
0.6173551319
 40
0.8050572262
 40
1.0
 40
1.0
 40
1.0
 40
1.0
 10
101.0008738886
 20
67.9358666964
 30
0.0
 10
101.0016043002
 20
67.9358675254
 30
0.0
 10
101.0018360242
 20
67.9318172417
 30
0.0
 10
101.0029524651
 20
67.9269843182
 30
0.0
 10
101.0035524683
 20
67.9162176375
 30
0.0
 10
101.0044699251
 20
67.902473569
 30
0.0
 10
101.0052647125
 20
67.8843444557
 30
0.0
 10
101.0061037901
 20
67.8624756435
 30
0.0
 10
101.0069175107
 20
67.8367009791
 30
0.0
 10
101.0080606412
 20
67.7948326463
 30
0.0
 10
101.0094008646
 20
67.7333761284
 30
0.0
 10
101.0108668664
 20
67.6491491441
 30
0.0
 10
101.0122451309
 20
67.5515455629
 30
0.0
 10
101.0135190729
 20
67.4415104001
 30
0.0
 10
101.0146763025
 20
67.3201085347
 30
0.0
 10
101.0160912646
 20
67.1390011842
 30
0.0
 10
101.0174476809
 20
66.8936709966
 30
0.0
 10
101.0184248275
 20
66.5834697566
 30
0.0
 10
101.0186447715
 20
66.3697764519
 30
0.0
 10
101.0186447715
 20
66.2609080093
 30
0.0
  0
SPLINE
  5
271
100
AcDbEntity
  8
0
100
AcDbSpline
 62
7
  6
BYLAYER
 70
0
 71
3
 72
24
 73
20
 74
0
 42
0.0000001
 43
0.0000001
 44
0.0000000001
 40
0.0
 40
0.0
 40
0.0
 40
0.0
 40
0.1949470199
 40
0.3826436974
 40
0.555449149
 40
0.6342350682
 40
0.706941685
 40
0.7728411802
 40
0.8312794731
 40
0.881731913
 40
0.9236897667
 40
0.9413478979
 40
0.9567442488
 40
0.9698452379
 40
0.9806175641
 40
0.989028531
 40
0.9950523189
 40
0.9986910735
 40
1.0
 40
1.0
 40
1.0
 40
1.0
 10
101.0186447715
 20
66.2609080093
 30
0.0
 10
101.0186447715
 20
66.1520372041
 30
0.0
 10
101.0184248356
 20
65.9383445702
 30
0.0
 10
101.0174477066
 20
65.6281477855
 30
0.0
 10
101.0160913133
 20
65.3828248258
 30
0.0
 10
101.0146764343
 20
65.2017216951
 30
0.0
 10
101.0135193531
 20
65.080321561
 30
0.0
 10
101.0122453366
 20
64.9702868906
 30
0.0
 10
101.0108670978
 20
64.8726820001
 30
0.0
 10
101.0094012832
 20
64.7884526649
 30
0.0
 10
101.0080608668
 20
64.7269939727
 30
0.0
 10
101.0069177064
 20
64.6851239494
 30
0.0
 10
101.0061039942
 20
64.6593460819
 30
0.0
 10
101.0052648753
 20
64.6374738319
 30
0.0
 10
101.0044702347
 20
64.6193432439
 30
0.0
 10
101.0035524822
 20
64.6055985769
 30
0.0
 10
101.0029528573
 20
64.5948346408
 30
0.0
 10
101.0018351321
 20
64.5899985201
 30
0.0
 10
101.0016048756
 20
64.585950152
 30
0.0
 10
101.0008738883
 20
64.5859493223
 30
0.0
  0
ENDSEC
  0
SECTION
  2
OBJECTS
  0
DICTIONARY
  5
C
100
AcDbDictionary
280
0
281
1
  3
ACAD_GROUP
350
D
  3
ACAD_MLINESTYLE
350
17
  3
ACAD_LAYOUT
350
1A
  3
ACAD_PLOTSETTINGS
350
19
  3
ACAD_PLOTSTYLENAME
350
E
  0
DICTIONARY
  5
D
102
{ACAD_REACTORS
330
C
102
}
100
AcDbDictionary
280
0
281
1
  0
ACDBDICTIONARYWDFLT
  5
E
102
{ACAD_REACTORS
330
C
102
}
100
AcDbDictionary
281
1
  3
Normal
350
F
100
AcDbDictionaryWithDefault
340
F
  0
DICTIONARY
  5
17
102
{ACAD_REACTORS
330
C
102
}
100
AcDbDictionary
280
0
281
1
  3
Standard
350
18
  0
DICTIONARY
  5
19
102
{ACAD_REACTORS
330
C
102
}
100
AcDbDictionary
281
1
  0
DICTIONARY
  5
1A
102
{ACAD_REACTORS
330
C
102
}
100
AcDbDictionary
281
1
  3
Model
350
272
  3
Layout1
350
273
  0
ACDBPLACEHOLDER
  5
F
102
{ACAD_REACTORS
330
E
102
}
  0
MLINESTYLE
  5
18
102
{ACAD_REACTORS
330
17
102
}
100
AcDbMlineStyle
  2
STANDARD
 70
0
  3

 62
256
 51
90.0
 52
90.0
 71
2
 49
0.5
 62
256
  6
BYLAYER
 49
-0.5
 62
256
  6
BYLAYER
  0
LAYOUT
  5
272
102
{ACAD_REACTORS
330
1A
102
}
100
AcDbPlotSettings
  1

  2
none_device
  4

  6

 40
0.0
 41
0.0
 42
0.0
 43
0.0
 44
210.0
 45
297.0
 46
0.0
 47
0.0
 48
0.0
 49
0.0
140
0.0
141
0.0
142
1.0
143
1.0
 70
1024
 72
1
 73
0
 74
0
  7

 75
0
147
1.0
148
0.0
149
0.0
100
AcDbLayout
  1
Model
 70
0
 71
0
 10
0.0
 20
0.0
 11
210.0
 21
297.0
 12
0.0
 22
0.0
 32
0.0
 14
0.0
 24
0.0
 34
0.0
 15
0.0
 25
0.0
 35
0.0
146
0.0
 13
0.0
 23
0.0
 33
0.0
 16
1.0
 26
0.0
 36
0.0
 17
0.0
 27
1.0
 37
0.0
 76
0
330
210
345
0
346
0
  0
LAYOUT
  5
273
102
{ACAD_REACTORS
330
1A
102
}
100
AcDbPlotSettings
  1

  2
none_device
  4

  6

 40
0.0
 41
0.0
 42
0.0
 43
0.0
 44
210.0
 45
297.0
 46
0.0
 47
0.0
 48
0.0
 49
0.0
140
0.0
141
0.0
142
1.0
143
1.0
 70
0
 72
1
 73
0
 74
0
  7

 75
0
147
1.0
148
0.0
149
0.0
100
AcDbLayout
  1
Layout1
 70
0
 71
1
 10
0.0
 20
0.0
 11
210.0
 21
297.0
 12
0.0
 22
0.0
 32
0.0
 14
0.0
 24
0.0
 34
0.0
 15
0.0
 25
0.0
 35
0.0
146
0.0
 13
0.0
 23
0.0
 33
0.0
 16
1.0
 26
0.0
 36
0.0
 17
0.0
 27
1.0
 37
0.0
 76
0
330
211
345
0
346
0
  0
ENDSEC
  0
EOF
