999
DXF file: C:\Users\sesa63760\Dev\_Creo\CAD\MCADID0004776_3D-CAD\drw0001_7.dxf
999
Pro/ENGINEER 2019471 by Parametric Technology Corporation
  0
SECTION
  2
HEADER
  9
$ACADVER
  1
AC1024
  9
$DWGCODEPAGE
  3
ANSI_1252
  9
$EXTMAX
 10
52.8271089177
 20
74.7126254693
 30
0.0
  9
$EXTMIN
 10
0.0
 20
0.0
 30
0.0
  9
$LIMMIN
 10
0.0
 20
0.0
  9
$LIMMAX
 10
52.8271089177
 20
74.7126254693
  9
$VIEWCTR
 10
26.4135544588
 20
37.3563127347
  9
$VIEWSIZE
 40
74.7126254693
  9
$CLAYER
  8
0
  9
$LTSCALE
 40
4.8701563269
  9
$CELTYPE
  6
BYLAYER
  9
$DIMSCALE
 40
1.0
  9
$DIMASZ
 40
0.6288941538
  9
$DIMEXO
 40
1.0
  9
$DIMDLI
 40
3.3648352804
  9
$DIMEXE
 40
1.0
  9
$DIMCEN
 40
0.7969346717
  9
$DIMLFAC
 40
1.0
  9
$DIMBLK
  1
_FILLED
  9
$DIMALT
 70
0
  9
$DIMALTF
 40
0.0393700787
  9
$DIMTXT
 40
0.8804518153
  9
$DIMTOL
 70
1
  9
$DIMLIM
 70
0
  9
$DIMTFAC
 40
1.0
  9
$DIMTP
 40
0.01
  9
$DIMTM
 40
0.01
  9
$DIMGAP
 40
0.625
  9
$DIMDSEP
 70
46
  9
$AUNITS
 70
0
  9
$PDMODE
 70
3
  9
$PDSIZE
 40
0.3125
  9
$HANDSEED
  5
2AC
  9
$TILEMODE
 70
1
  9
$MEASUREMENT
 70
1
  9
$INSUNITS
 70
4
  0
ENDSEC
  0
SECTION
  2
CLASSES
  0
CLASS
  1
ACDBDICTIONARYWDFLT
  2
AcDbDictionaryWithDefault
  3
AutoCAD 2000
 90
0
 91
1
280
0
281
0
  0
CLASS
  1
ACDBPLACEHOLDER
  2
AcDbPlaceHolder
  3
AutoCAD 2000
 90
0
 91
1
280
0
281
0
  0
CLASS
  1
LAYOUT
  2
AcDbLayout
  3
AutoCAD 2000
 90
0
 91
0
280
0
281
0
  0
ENDSEC
  0
SECTION
  2
TABLES
  0
TABLE
  2
VPORT
  5
8
100
AcDbSymbolTable
 70
2
  0
VPORT
  5
1F4
100
AcDbSymbolTableRecord
100
AcDbViewportTableRecord
  2
*ACTIVE
 70
0
 10
0.0
 20
0.0
 11
1.0
 21
1.0
 12
26.4135544588
 22
37.3563127347
 13
0.0
 23
0.0
 14
1.0
 24
1.0
 15
0.0
 25
0.0
 16
0.0
 26
0.0
 36
1.0
 17
0.0
 27
0.0
 37
0.0
 40
74.7126254693
 41
0.7070707071
 42
50.0
 43
0.0
 44
0.0
 50
0.0
 51
0.0
 71
0
 72
100
 73
1
 74
1
 75
0
 76
0
 77
0
 78
0
  0
ENDTAB
  0
TABLE
  2
LTYPE
  5
5
100
AcDbSymbolTable
 70
6
  0
LTYPE
  5
14
100
AcDbSymbolTableRecord
100
AcDbLinetypeTableRecord
  2
BYBLOCK
 70
0
  3

 72
65
 73
0
 40
0.0
  0
LTYPE
  5
15
100
AcDbSymbolTableRecord
100
AcDbLinetypeTableRecord
  2
BYLAYER
 70
0
  3

 72
65
 73
0
 40
0.0
  0
LTYPE
  5
16
100
AcDbSymbolTableRecord
100
AcDbLinetypeTableRecord
  2
CONTINUOUS
 70
64
  3
Solid line
 72
65
 73
0
 40
0.0
  0
LTYPE
  5
1F5
100
AcDbSymbolTableRecord
100
AcDbLinetypeTableRecord
  2
CENTER
 70
64
  3
____ _ ____ _ ____ _ ____ _ ____ _ ____ _ ____
 72
65
 73
4
 40
0.6
 49
0.375
 74
0
 49
-0.075
 74
0
 49
0.075
 74
0
 49
-0.075
 74
0
  0
LTYPE
  5
1F6
100
AcDbSymbolTableRecord
100
AcDbLinetypeTableRecord
  2
HIDDEN
 70
64
  3
- - - - - - - - - - - - - - - - - - - -
 72
65
 73
2
 40
0.2
 49
0.1
 74
0
 49
-0.1
 74
0
  0
LTYPE
  5
1F7
100
AcDbSymbolTableRecord
100
AcDbLinetypeTableRecord
  2
PHANTOM
 70
64
  3
_____ _ _ _____ _ _ _____ _ _ _____
 72
65
 73
6
 40
0.8
 49
0.45
 74
0
 49
-0.05
 74
0
 49
0.1
 74
0
 49
-0.05
 74
0
 49
0.1
 74
0
 49
-0.05
 74
0
  0
LTYPE
  5
1F8
100
AcDbSymbolTableRecord
100
AcDbLinetypeTableRecord
  2
DOT
 70
64
  3
. . . . . . . . . . . . . . . . . . . .
 72
65
 73
2
 40
0.2
 49
0.1
 74
0
 49
-0.1
 74
0
  0
LTYPE
  5
1F9
100
AcDbSymbolTableRecord
100
AcDbLinetypeTableRecord
  2
DASHED
 70
64
  3
- - - - - - - - - - - - - - - - - - - -
 72
65
 73
2
 40
0.2
 49
0.1
 74
0
 49
-0.1
 74
0
  0
ENDTAB
  0
TABLE
  2
LAYER
  5
2
100
AcDbSymbolTable
 70
36
  0
LAYER
  5
10
100
AcDbSymbolTableRecord
100
AcDbLayerTableRecord
  2
0
 70
0
 62
7
  6
CONTINUOUS
370
-3
390
F
  0
LAYER
  5
1FA
100
AcDbSymbolTableRecord
100
AcDbLayerTableRecord
  2
DEFAULT_1
 70
0
 62
7
  6
CENTER
370
-3
390
F
  0
LAYER
  5
1FB
100
AcDbSymbolTableRecord
100
AcDbLayerTableRecord
  2
DEFAULT_2
 70
0
 62
7
  6
HIDDEN
370
-3
390
F
  0
LAYER
  5
1FC
100
AcDbSymbolTableRecord
100
AcDbLayerTableRecord
  2
DEFAULT_3
 70
0
 62
7
  6
PHANTOM
370
-3
390
F
  0
LAYER
  5
1FD
100
AcDbSymbolTableRecord
100
AcDbLayerTableRecord
  2
00_COMPONENTS
 70
0
 62
7
  6
CONTINUOUS
370
-3
390
F
  0
LAYER
  5
1FE
100
AcDbSymbolTableRecord
100
AcDbLayerTableRecord
  2
01_1_DEFAULT_DATUMS
 70
0
 62
7
  6
CONTINUOUS
370
-3
390
F
  0
LAYER
  5
1FF
100
AcDbSymbolTableRecord
100
AcDbLayerTableRecord
  2
01_PLANES
 70
0
 62
7
  6
CONTINUOUS
370
-3
390
F
  0
LAYER
  5
200
100
AcDbSymbolTableRecord
100
AcDbLayerTableRecord
  2
02_COORD_SYS
 70
0
 62
7
  6
CONTINUOUS
370
-3
390
F
  0
LAYER
  5
201
100
AcDbSymbolTableRecord
100
AcDbLayerTableRecord
  2
03_AXES
 70
0
 62
7
  6
CONTINUOUS
370
-3
390
F
  0
LAYER
  5
202
100
AcDbSymbolTableRecord
100
AcDbLayerTableRecord
  2
04_POINTS
 70
0
 62
7
  6
CONTINUOUS
370
-3
390
F
  0
LAYER
  5
203
100
AcDbSymbolTableRecord
100
AcDbLayerTableRecord
  2
05_CURVES
 70
0
 62
7
  6
CONTINUOUS
370
-3
390
F
  0
LAYER
  5
204
100
AcDbSymbolTableRecord
100
AcDbLayerTableRecord
  2
06_SURFS
 70
0
 62
7
  6
CONTINUOUS
370
-3
390
F
  0
LAYER
  5
205
100
AcDbSymbolTableRecord
100
AcDbLayerTableRecord
  2
07_COSMETICS
 70
0
 62
7
  6
CONTINUOUS
370
-3
390
F
  0
LAYER
  5
206
100
AcDbSymbolTableRecord
100
AcDbLayerTableRecord
  2
10_NOTES
 70
0
 62
7
  6
CONTINUOUS
370
-3
390
F
  0
LAYER
  5
207
100
AcDbSymbolTableRecord
100
AcDbLayerTableRecord
  2
11_NOTES_PUB
 70
0
 62
7
  6
CONTINUOUS
370
-3
390
F
  0
LAYER
  5
208
100
AcDbSymbolTableRecord
100
AcDbLayerTableRecord
  2
13_REF_GTOL
 70
0
 62
7
  6
CONTINUOUS
370
-3
390
F
  0
LAYER
  5
209
100
AcDbSymbolTableRecord
100
AcDbLayerTableRecord
  2
16_MISC
 70
0
 62
7
  6
CONTINUOUS
370
-3
390
F
  0
LAYER
  5
20A
100
AcDbSymbolTableRecord
100
AcDbLayerTableRecord
  2
17_NO_PRINT
 70
0
 62
7
  6
CONTINUOUS
370
-3
390
F
  0
LAYER
  5
20B
100
AcDbSymbolTableRecord
100
AcDbLayerTableRecord
  2
18_DATUM_CAMS_JOINTS
 70
0
 62
7
  6
CONTINUOUS
370
-3
390
F
  0
LAYER
  5
20C
100
AcDbSymbolTableRecord
100
AcDbLayerTableRecord
  2
19_DATUM_FUNCTIONAL
 70
0
 62
7
  6
CONTINUOUS
370
-3
390
F
  0
LAYER
  5
20D
100
AcDbSymbolTableRecord
100
AcDbLayerTableRecord
  2
20_DATUM_KINEMATIC_SCHEME
 70
0
 62
7
  6
CONTINUOUS
370
-3
390
F
  0
ENDTAB
  0
TABLE
  2
STYLE
  5
3
100
AcDbSymbolTable
 70
1
  0
STYLE
  5
11
100
AcDbSymbolTableRecord
100
AcDbTextStyleTableRecord
  2
STANDARD
 70
0
 40
0.0
 41
1.0
 50
0.0
 71
0
 42
0.2
  3
ARIAL.TTF
  4

  0
STYLE
  5
20E
100
AcDbSymbolTableRecord
100
AcDbTextStyleTableRecord
  2
TEXTSTYLE_1
 70
0
 40
0.0
 41
0.8
 50
0.0
 71
0
 42
0.2
  3
gdt
  4

  0
ENDTAB
  0
TABLE
  2
VIEW
  5
6
100
AcDbSymbolTable
 70
0
  0
ENDTAB
  0
TABLE
  2
UCS
  5
7
100
AcDbSymbolTable
 70
0
  0
ENDTAB
  0
TABLE
  2
APPID
  5
9
100
AcDbSymbolTable
 70
1
  0
APPID
  5
20F
100
AcDbSymbolTableRecord
100
AcDbRegAppTableRecord
  2
ACAD
 70
0
  0
ENDTAB
  0
TABLE
  2
BLOCK_RECORD
  5
1
100
AcDbSymbolTable
 70
0
  0
BLOCK_RECORD
  5
210
100
AcDbSymbolTableRecord
100
AcDbBlockTableRecord
  2
*Model_Space
  0
BLOCK_RECORD
  5
211
100
AcDbSymbolTableRecord
100
AcDbBlockTableRecord
  2
*Paper_Space
  0
BLOCK_RECORD
  5
212
100
AcDbSymbolTableRecord
100
AcDbBlockTableRecord
  2
_FILLED
  0
ENDTAB
  0
TABLE
  2
DIMSTYLE
  5
A
100
AcDbSymbolTable
 70
1
100
AcDbDimStyleTable
 71
0
  0
DIMSTYLE
105
213
100
AcDbSymbolTableRecord
100
AcDbDimStyleTableRecord
  2
STANDARD
 70
0
  3

  4

 40
1.0
 41
0.6288941538
 42
1.0
 43
0.38
 44
1.0
 45
0.0
 46
0.0
 47
0.01
 48
0.01
140
0.8804518153
141
0.09
142
0.0
143
25.4
144
1.0
145
0.0
146
1.0
147
0.625
 71
1
 72
0
 73
0
 74
0
 75
0
 76
0
 77
1
 78
8
 79
2
170
0
171
1
172
0
173
0
174
0
175
0
176
0
177
0
178
0
270
2
179
2
271
2
272
2
273
2
274
2
275
0
280
0
281
0
282
0
283
1
284
8
285
0
286
0
287
3
288
0
340
11
278
46
341
212
342
212
343
212
344
212
  0
ENDTAB
  0
ENDSEC
  0
SECTION
  2
BLOCKS
  0
BLOCK
  5
20
100
AcDbEntity
  8
0
100
AcDbBlockBegin
  2
*Model_Space
 70
0
 10
0.0
 20
0.0
 30
0.0
  3
*Model_Space
  1

  0
ENDBLK
  5
21
100
AcDbEntity
  8
0
100
AcDbBlockEnd
  0
BLOCK
  5
1C
100
AcDbEntity
  8
0
100
AcDbBlockBegin
  2
*Paper_Space
 70
0
 10
0.0
 20
0.0
 30
0.0
  3
*Paper_Space
  1

  0
ENDBLK
  5
1D
100
AcDbEntity
  8
0
100
AcDbBlockEnd
  0
BLOCK
  5
214
100
AcDbEntity
  8
0
100
AcDbBlockBegin
  2
_FILLED
 70
64
 10
0.0
 20
0.0
  3
_FILLED
  1

  0
SOLID
  5
215
100
AcDbEntity
  8
0
  6
BYBLOCK
 62
0
100
AcDbTrace
 10
0.0
 20
0.0
 11
-1.0
 21
0.25
 12
-1.0
 22
-0.25
 13
-1.0
 23
-0.25
  0
ENDBLK
  5
216
100
AcDbEntity
  8
0
  6
BYBLOCK
 62
0
100
AcDbBlockEnd
  0
ENDSEC
  0
SECTION
  2
ENTITIES
  0
LINE
  5
217
100
AcDbEntity
  8
0
100
AcDbLine
 62
7
  6
BYLAYER
 10
35.3550019808
 20
5.5325750807
 11
17.6550019808
 21
5.5325750807
  0
LINE
  5
218
100
AcDbEntity
  8
0
100
AcDbLine
 62
7
  6
BYLAYER
 10
35.8550019808
 20
6.0325750807
 11
17.1550019808
 21
6.0325750807
  0
LINE
  5
219
100
AcDbEntity
  8
0
100
AcDbLine
 62
7
  6
BYLAYER
 10
17.1550019808
 20
6.0325750807
 11
17.6550019808
 21
5.5325750807
  0
LINE
  5
21A
100
AcDbEntity
  8
0
100
AcDbLine
 62
7
  6
BYLAYER
 10
22.5050027281
 20
65.0690090388
 11
22.2550022238
 21
64.8190085799
  0
LINE
  5
21B
100
AcDbEntity
  8
0
100
AcDbLine
 62
7
  6
BYLAYER
 10
40.2550019808
 20
15.1325750807
 11
12.7550019808
 21
15.1325750807
  0
LINE
  5
21C
100
AcDbEntity
  8
0
100
AcDbLine
 62
7
  6
BYLAYER
 10
15.6191166241
 20
16.1325750807
 11
10.0050019808
 21
16.1325750807
  0
LINE
  5
21D
100
AcDbEntity
  8
0
100
AcDbLine
 62
7
  6
BYLAYER
 10
18.1050019808
 20
16.1325750807
 11
34.9050019808
 21
16.1325750807
  0
LINE
  5
21E
100
AcDbEntity
  8
0
100
AcDbLine
 62
7
  6
BYLAYER
 10
37.3908873376
 20
16.1325750807
 11
43.0050019808
 21
16.1325750807
  0
LINE
  5
21F
100
AcDbEntity
  8
0
100
AcDbLine
 62
7
  6
BYLAYER
 10
10.0050019808
 20
35.2325750807
 11
10.0050019808
 21
16.1325750807
  0
LINE
  5
220
100
AcDbEntity
  8
0
100
AcDbLine
 62
7
  6
BYLAYER
 10
10.0050019808
 20
20.7325750807
 11
19.5550019808
 21
20.7325750807
  0
LINE
  5
221
100
AcDbEntity
  8
0
100
AcDbLine
 62
7
  6
BYLAYER
 10
33.4550019808
 20
20.7325750807
 11
43.0050019808
 21
20.7325750807
  0
LINE
  5
222
100
AcDbEntity
  8
0
100
AcDbLine
 62
7
  6
BYLAYER
 10
11.5050019808
 20
20.7325750807
 11
11.5050019808
 21
35.7325750807
  0
LINE
  5
223
100
AcDbEntity
  8
0
100
AcDbLine
 62
7
  6
BYLAYER
 10
11.7550020053
 20
35.7325750797
 11
11.7550020114
 21
20.7325750794
  0
LINE
  5
224
100
AcDbEntity
  8
0
100
AcDbLine
 62
7
  6
BYLAYER
 10
12.7550019808
 20
15.1325750807
 11
12.7550019808
 21
16.1325750807
  0
LINE
  5
225
100
AcDbEntity
  8
0
100
AcDbLine
 62
7
  6
BYLAYER
 10
13.7550019808
 20
21.9811299939
 11
13.7550019808
 21
46.5325493296
  0
LINE
  5
226
100
AcDbEntity
  8
0
100
AcDbLine
 62
7
  6
BYLAYER
 10
14.7550019808
 20
31.5325750807
 11
14.7550019808
 21
47.5325750807
  0
LINE
  5
227
100
AcDbEntity
  8
0
100
AcDbLine
 62
7
  6
BYLAYER
 10
15.6191166241
 20
20.7325750807
 11
15.6191166241
 21
16.1325750807
  0
LINE
  5
228
100
AcDbEntity
  8
0
100
AcDbLine
 62
7
  6
BYLAYER
 10
17.1550019808
 20
6.0325750807
 11
17.1550019808
 21
15.1325750807
  0
LINE
  5
229
100
AcDbEntity
  8
0
100
AcDbLine
 62
7
  6
BYLAYER
 10
19.6550019808
 20
28.0325750807
 11
33.2550019808
 21
28.0325750807
  0
LINE
  5
22A
100
AcDbEntity
  8
0
100
AcDbLine
 62
7
  6
BYLAYER
 10
33.2550019808
 20
28.1417769807
 11
19.6550019808
 21
28.1417769807
  0
LINE
  5
22B
100
AcDbEntity
  8
0
100
AcDbLine
 62
7
  6
BYLAYER
 10
17.9550019808
 20
51.7690963932
 11
17.9550019808
 21
67.368912497
  0
LINE
  5
22C
100
AcDbEntity
  8
0
100
AcDbLine
 62
7
  6
BYLAYER
 10
18.1050019808
 20
20.7325750807
 11
18.1050019808
 21
16.1325750807
  0
LINE
  5
22D
100
AcDbEntity
  8
0
100
AcDbLine
 62
7
  6
BYLAYER
 10
18.1550019808
 20
51.5690092911
 11
18.1550019808
 21
67.5690092911
  0
LINE
  5
22E
100
AcDbEntity
  8
0
100
AcDbLine
 62
7
  6
BYLAYER
 10
18.4550019808
 20
63.0030583974
 11
18.4550019808
 21
51.5690092911
  0
LINE
  5
22F
100
AcDbEntity
  8
0
100
AcDbLine
 62
7
  6
BYLAYER
 10
18.5550019808
 20
21.3568525373
 11
18.5550019808
 21
47.5325750807
  0
LINE
  5
230
100
AcDbEntity
  8
0
100
AcDbLine
 62
7
  6
BYLAYER
 10
18.9550019808
 20
33.7326546972
 11
18.9550019808
 21
47.3325742914
  0
LINE
  5
231
100
AcDbEntity
  8
0
100
AcDbLine
 62
7
  6
BYLAYER
 10
19.1550019808
 20
33.5325750807
 11
19.1550019808
 21
47.5325750807
  0
LINE
  5
232
100
AcDbEntity
  8
0
100
AcDbLine
 62
7
  6
BYLAYER
 10
19.4550019808
 20
28.2325750807
 11
19.4550019808
 21
33.5325750807
  0
LINE
  5
233
100
AcDbEntity
  8
0
100
AcDbLine
 62
7
  6
BYLAYER
 10
19.4550019808
 20
47.3975742201
 11
19.4550019808
 21
58.8619264616
  0
LINE
  5
234
100
AcDbEntity
  8
0
100
AcDbLine
 62
7
  6
BYLAYER
 10
19.5550019662
 20
28.073996443
 11
19.5550019808
 21
20.7325750807
  0
LINE
  5
235
100
AcDbEntity
  8
0
100
AcDbLine
 62
7
  6
BYLAYER
 10
19.6550019808
 20
28.0325750807
 11
19.6550019808
 21
33.5325750807
  0
LINE
  5
236
100
AcDbEntity
  8
0
100
AcDbLine
 62
7
  6
BYLAYER
 10
19.6550019808
 20
46.8767295899
 11
19.6550019808
 21
58.9477776892
  0
LINE
  5
237
100
AcDbEntity
  8
0
100
AcDbLine
 62
7
  6
BYLAYER
 10
21.9550019808
 20
67.5690092911
 11
21.9550019809
 21
55.9977126992
  0
LINE
  5
238
100
AcDbEntity
  8
0
100
AcDbLine
 62
7
  6
BYLAYER
 10
14.7550019808
 20
31.5325750807
 11
18.5550019808
 21
31.5325750807
  0
LINE
  5
239
100
AcDbEntity
  8
0
100
AcDbLine
 62
7
  6
BYLAYER
 10
34.4550019808
 20
31.5325750807
 11
38.2550019808
 21
31.5325750807
  0
LINE
  5
23A
100
AcDbEntity
  8
0
100
AcDbLine
 62
7
  6
BYLAYER
 10
22.1599205986
 20
55.8493550314
 11
22.1550065504
 21
55.9087295683
  0
LINE
  5
23B
100
AcDbEntity
  8
0
100
AcDbLine
 62
7
  6
BYLAYER
 10
22.1550019808
 20
67.3688601909
 11
22.1550019808
 21
55.9118614728
  0
LINE
  5
23C
100
AcDbEntity
  8
0
100
AcDbLine
 62
7
  6
BYLAYER
 10
22.2550019808
 20
55.8493550314
 11
22.2550019808
 21
64.8190085799
  0
LINE
  5
23D
100
AcDbEntity
  8
0
100
AcDbLine
 62
7
  6
BYLAYER
 10
22.5050024758
 20
55.8493550314
 11
22.5050024758
 21
65.0690092911
  0
LINE
  5
23E
100
AcDbEntity
  8
0
100
AcDbLine
 62
7
  6
BYLAYER
 10
22.7550019808
 20
55.8493550314
 11
22.7550019808
 21
69.5689253162
  0
LINE
  5
23F
100
AcDbEntity
  8
0
100
AcDbLine
 62
7
  6
BYLAYER
 10
19.6550019808
 20
33.1693919429
 11
33.2550019808
 21
33.1693919435
  0
LINE
  5
240
100
AcDbEntity
  8
0
100
AcDbLine
 62
7
  6
BYLAYER
 10
19.1550019808
 20
33.5325750807
 11
33.7550019808
 21
33.5325750807
  0
LINE
  5
241
100
AcDbEntity
  8
0
100
AcDbLine
 62
7
  6
BYLAYER
 10
10.5050019808
 20
35.7325750807
 11
11.7550020053
 21
35.7325750797
  0
LINE
  5
242
100
AcDbEntity
  8
0
100
AcDbLine
 62
7
  6
BYLAYER
 10
41.2550020242
 20
35.7325750807
 11
42.5050019808
 21
35.7325750807
  0
LINE
  5
243
100
AcDbEntity
  8
0
100
AcDbLine
 62
7
  6
BYLAYER
 10
18.5550019808
 20
36.7325750807
 11
18.9550019808
 21
36.7325750807
  0
LINE
  5
244
100
AcDbEntity
  8
0
100
AcDbLine
 62
7
  6
BYLAYER
 10
33.9550019808
 20
36.7325750807
 11
34.4550019808
 21
36.7325750807
  0
LINE
  5
245
100
AcDbEntity
  8
0
100
AcDbLine
 62
7
  6
BYLAYER
 10
29.7550019808
 20
69.5689253162
 11
29.7550019808
 21
55.8493550314
  0
LINE
  5
246
100
AcDbEntity
  8
0
100
AcDbLine
 62
7
  6
BYLAYER
 10
30.0050015785
 20
65.0690092911
 11
30.0050015785
 21
55.8493550314
  0
LINE
  5
247
100
AcDbEntity
  8
0
100
AcDbLine
 62
7
  6
BYLAYER
 10
30.2550019808
 20
64.8190086773
 11
30.2550019808
 21
55.8493550314
  0
LINE
  5
248
100
AcDbEntity
  8
0
100
AcDbLine
 62
7
  6
BYLAYER
 10
30.7550019808
 20
55.8493550314
 11
30.7550019808
 21
67.3688484352
  0
LINE
  5
249
100
AcDbEntity
  8
0
100
AcDbLine
 62
7
  6
BYLAYER
 10
30.9550019808
 20
55.9977127005
 11
30.9550019808
 21
67.5690092911
  0
LINE
  5
24A
100
AcDbEntity
  8
0
100
AcDbLine
 62
7
  6
BYLAYER
 10
13.7550019808
 20
40.5325751155
 11
18.5550019808
 21
40.5325750807
  0
LINE
  5
24B
100
AcDbEntity
  8
0
100
AcDbLine
 62
7
  6
BYLAYER
 10
34.4550019808
 20
40.5325750807
 11
39.2550019808
 21
40.5325751155
  0
LINE
  5
24C
100
AcDbEntity
  8
0
100
AcDbLine
 62
7
  6
BYLAYER
 10
33.2550019808
 20
58.9477776892
 11
33.2550019808
 21
46.8767295899
  0
LINE
  5
24D
100
AcDbEntity
  8
0
100
AcDbLine
 62
7
  6
BYLAYER
 10
33.2550019808
 20
33.5325750807
 11
33.2550019808
 21
28.0325750807
  0
LINE
  5
24E
100
AcDbEntity
  8
0
100
AcDbLine
 62
7
  6
BYLAYER
 10
33.4550019808
 20
58.8619491349
 11
33.4550019808
 21
47.3975742201
  0
LINE
  5
24F
100
AcDbEntity
  8
0
100
AcDbLine
 62
7
  6
BYLAYER
 10
33.4550019808
 20
33.5325750807
 11
33.4550019808
 21
20.7325750807
  0
LINE
  5
250
100
AcDbEntity
  8
0
100
AcDbLine
 62
7
  6
BYLAYER
 10
33.7550019808
 20
47.5325750807
 11
33.7550019808
 21
33.5325750807
  0
LINE
  5
251
100
AcDbEntity
  8
0
100
AcDbLine
 62
7
  6
BYLAYER
 10
33.9550019808
 20
47.3324085314
 11
33.9550019808
 21
33.7327417171
  0
LINE
  5
252
100
AcDbEntity
  8
0
100
AcDbLine
 62
7
  6
BYLAYER
 10
34.4550019808
 20
21.3568525373
 11
34.4550019808
 21
47.5325750807
  0
LINE
  5
253
100
AcDbEntity
  8
0
100
AcDbLine
 62
7
  6
BYLAYER
 10
34.4550019808
 20
51.5690092911
 11
34.4550019808
 21
63.0030583974
  0
LINE
  5
254
100
AcDbEntity
  8
0
100
AcDbLine
 62
7
  6
BYLAYER
 10
34.7550019808
 20
67.5690092911
 11
34.7550019808
 21
51.5690092911
  0
LINE
  5
255
100
AcDbEntity
  8
0
100
AcDbLine
 62
7
  6
BYLAYER
 10
34.9050019808
 20
20.7325750807
 11
34.9050019808
 21
16.1325750807
  0
LINE
  5
256
100
AcDbEntity
  8
0
100
AcDbLine
 62
7
  6
BYLAYER
 10
34.9550019808
 20
67.3689619288
 11
34.9550019808
 21
51.7690856532
  0
LINE
  5
257
100
AcDbEntity
  8
0
100
AcDbLine
 62
7
  6
BYLAYER
 10
35.8550019808
 20
6.0325750807
 11
35.8550019808
 21
15.1325750807
  0
LINE
  5
258
100
AcDbEntity
  8
0
100
AcDbLine
 62
7
  6
BYLAYER
 10
33.2550019808
 20
46.8767295899
 11
19.6550019808
 21
46.8767295899
  0
LINE
  5
259
100
AcDbEntity
  8
0
100
AcDbLine
 62
7
  6
BYLAYER
 10
37.3908873376
 20
16.1325750807
 11
37.3908873376
 21
20.7325750807
  0
LINE
  5
25A
100
AcDbEntity
  8
0
100
AcDbLine
 62
7
  6
BYLAYER
 10
38.2550019808
 20
47.5325750807
 11
38.2550019808
 21
31.5325750807
  0
LINE
  5
25B
100
AcDbEntity
  8
0
100
AcDbLine
 62
7
  6
BYLAYER
 10
38.2550019808
 20
47.5325750807
 11
34.4550019808
 21
47.5325750807
  0
LINE
  5
25C
100
AcDbEntity
  8
0
100
AcDbLine
 62
7
  6
BYLAYER
 10
18.5550019808
 20
47.5325750807
 11
14.7550019808
 21
47.5325750807
  0
LINE
  5
25D
100
AcDbEntity
  8
0
100
AcDbLine
 62
7
  6
BYLAYER
 10
19.1550019808
 20
47.5325750807
 11
19.4550019808
 21
47.5325750807
  0
LINE
  5
25E
100
AcDbEntity
  8
0
100
AcDbLine
 62
7
  6
BYLAYER
 10
33.4550019808
 20
47.5325750807
 11
33.7550019808
 21
47.5325750807
  0
LINE
  5
25F
100
AcDbEntity
  8
0
100
AcDbLine
 62
7
  6
BYLAYER
 10
39.2550019808
 20
21.9811299939
 11
39.2550019808
 21
46.5325567433
  0
LINE
  5
260
100
AcDbEntity
  8
0
100
AcDbLine
 62
7
  6
BYLAYER
 10
40.2550019808
 20
15.1325750807
 11
40.2550019808
 21
16.1325750807
  0
LINE
  5
261
100
AcDbEntity
  8
0
100
AcDbLine
 62
7
  6
BYLAYER
 10
18.1550019808
 20
51.5690092911
 11
18.4550019808
 21
51.5690092911
  0
LINE
  5
262
100
AcDbEntity
  8
0
100
AcDbLine
 62
7
  6
BYLAYER
 10
34.4550019808
 20
51.5690092911
 11
34.7550019808
 21
51.5690092911
  0
LINE
  5
263
100
AcDbEntity
  8
0
100
AcDbLine
 62
7
  6
BYLAYER
 10
41.2550020242
 20
35.7325750824
 11
41.2550019909
 21
20.7325750811
  0
LINE
  5
264
100
AcDbEntity
  8
0
100
AcDbLine
 62
7
  6
BYLAYER
 10
41.5050019808
 20
35.7325750807
 11
41.5050019808
 21
20.7325750807
  0
LINE
  5
265
100
AcDbEntity
  8
0
100
AcDbLine
 62
7
  6
BYLAYER
 10
43.0050019808
 20
16.1325750807
 11
43.0050019808
 21
35.2325750807
  0
LINE
  5
266
100
AcDbEntity
  8
0
100
AcDbLine
 62
7
  6
BYLAYER
 10
19.6550019808
 20
55.8306165888
 11
33.2550019808
 21
55.8306165885
  0
LINE
  5
267
100
AcDbEntity
  8
0
100
AcDbLine
 62
7
  6
BYLAYER
 10
33.2550019808
 20
55.8493550314
 11
19.6550019808
 21
55.8493550314
  0
LINE
  5
268
100
AcDbEntity
  8
0
100
AcDbLine
 62
7
  6
BYLAYER
 10
30.005001336
 20
65.0690090486
 11
30.2550017477
 21
64.8190086773
  0
LINE
  5
269
100
AcDbEntity
  8
0
100
AcDbLine
 62
7
  6
BYLAYER
 10
18.4550019808
 20
63.0030583973
 11
21.9550019808
 21
63.0030583974
  0
LINE
  5
26A
100
AcDbEntity
  8
0
100
AcDbLine
 62
7
  6
BYLAYER
 10
30.9550019808
 20
63.0030583974
 11
34.4550019808
 21
63.0030583973
  0
LINE
  5
26B
100
AcDbEntity
  8
0
100
AcDbLine
 62
7
  6
BYLAYER
 10
35.8550019808
 20
6.0325750807
 11
35.3550019808
 21
5.5325750807
  0
LINE
  5
26C
100
AcDbEntity
  8
0
100
AcDbLine
 62
7
  6
BYLAYER
 10
30.0050010936
 20
65.0690092911
 11
29.7550019808
 21
65.0690092911
  0
LINE
  5
26D
100
AcDbEntity
  8
0
100
AcDbLine
 62
7
  6
BYLAYER
 10
22.7550019808
 20
65.0690092911
 11
22.5050029803
 21
65.0690092911
  0
LINE
  5
26E
100
AcDbEntity
  8
0
100
AcDbLine
 62
7
  6
BYLAYER
 10
18.1550019808
 20
67.5690092911
 11
21.9550019808
 21
67.5690092911
  0
LINE
  5
26F
100
AcDbEntity
  8
0
100
AcDbLine
 62
7
  6
BYLAYER
 10
30.9550019808
 20
67.5690092911
 11
34.7550019808
 21
67.5690092911
  0
LINE
  5
270
100
AcDbEntity
  8
0
100
AcDbLine
 62
7
  6
BYLAYER
 10
22.7550019808
 20
69.5690092911
 11
29.7550019808
 21
69.5690092911
  0
ARC
  5
271
100
AcDbEntity
  8
0
100
AcDbCircle
 62
7
  6
BYLAYER
 10
34.4550019808
 20
50.5690092911
 40
1.0
100
AcDbArc
 50
90.0
 51
180.0
  0
ARC
  5
272
100
AcDbEntity
  8
0
100
AcDbCircle
 62
7
  6
BYLAYER
 10
18.4550019808
 20
50.5690092911
 40
1.0
100
AcDbArc
 50
0.0
 51
90.0
  0
ARC
  5
273
100
AcDbEntity
  8
0
100
AcDbCircle
 62
7
  6
BYLAYER
 10
14.7550019808
 20
46.5325750807
 40
1.0
100
AcDbArc
 50
90.0
 51
180.0
  0
ARC
  5
274
100
AcDbEntity
  8
0
100
AcDbCircle
 62
7
  6
BYLAYER
 10
38.2550019808
 20
46.5325750807
 40
1.0
100
AcDbArc
 50
0.0
 51
90.0
  0
ARC
  5
275
100
AcDbEntity
  8
0
100
AcDbCircle
 62
7
  6
BYLAYER
 10
10.5050019808
 20
35.2325750807
 40
0.5
100
AcDbArc
 50
90.0
 51
180.0
  0
ARC
  5
276
100
AcDbEntity
  8
0
100
AcDbCircle
 62
7
  6
BYLAYER
 10
42.5050019808
 20
35.2325750807
 40
0.5
100
AcDbArc
 50
0.0
 51
90.0
  0
ARC
  5
277
100
AcDbEntity
  8
0
100
AcDbCircle
 62
7
  6
BYLAYER
 10
34.7550019808
 20
51.7690092911
 40
0.2
100
AcDbArc
 50
270.0
 51
360.0
  0
ARC
  5
278
100
AcDbEntity
  8
0
100
AcDbCircle
 62
7
  6
BYLAYER
 10
34.7550019808
 20
67.3690092911
 40
0.2
100
AcDbArc
 50
0.0
 51
90.0
  0
ARC
  5
279
100
AcDbEntity
  8
0
100
AcDbCircle
 62
7
  6
BYLAYER
 10
19.6550019808
 20
55.6493550314
 40
0.2
100
AcDbArc
 50
90.0
 51
179.9999999995
  0
ARC
  5
27A
100
AcDbEntity
  8
0
100
AcDbCircle
 62
7
  6
BYLAYER
 10
18.1550019808
 20
67.3690092911
 40
0.2
100
AcDbArc
 50
90.0
 51
180.0
  0
ARC
  5
27B
100
AcDbEntity
  8
0
100
AcDbCircle
 62
7
  6
BYLAYER
 10
18.1550019808
 20
51.7690092911
 40
0.2
100
AcDbArc
 50
180.0
 51
270.0
  0
ARC
  5
27C
100
AcDbEntity
  8
0
100
AcDbCircle
 62
7
  6
BYLAYER
 10
33.2550019808
 20
55.6493550314
 40
0.2
100
AcDbArc
 50
0.0000000075
 51
90.0
  0
ARC
  5
27D
100
AcDbEntity
  8
0
100
AcDbCircle
 62
7
  6
BYLAYER
 10
21.9550019808
 20
67.3690092911
 40
0.2
100
AcDbArc
 50
0.0
 51
90.0
  0
ARC
  5
27E
100
AcDbEntity
  8
0
100
AcDbCircle
 62
7
  6
BYLAYER
 10
19.6550019808
 20
28.2325750807
 40
0.2
100
AcDbArc
 50
180.0
 51
270.0
  0
ARC
  5
27F
100
AcDbEntity
  8
0
100
AcDbCircle
 62
7
  6
BYLAYER
 10
19.1550019808
 20
47.3325750807
 40
0.2
100
AcDbArc
 50
90.0
 51
180.0
  0
ARC
  5
280
100
AcDbEntity
  8
0
100
AcDbCircle
 62
7
  6
BYLAYER
 10
19.1550019808
 20
33.7325750807
 40
0.2
100
AcDbArc
 50
180.0
 51
270.0
  0
ARC
  5
281
100
AcDbEntity
  8
0
100
AcDbCircle
 62
7
  6
BYLAYER
 10
33.7550019808
 20
47.3325750807
 40
0.2
100
AcDbArc
 50
0.0
 51
90.0
  0
ARC
  5
282
100
AcDbEntity
  8
0
100
AcDbCircle
 62
7
  6
BYLAYER
 10
33.7550019808
 20
33.7325750807
 40
0.2
100
AcDbArc
 50
270.0
 51
360.0
  0
ARC
  5
283
100
AcDbEntity
  8
0
100
AcDbCircle
 62
7
  6
BYLAYER
 10
33.2550019808
 20
28.2325750807
 40
0.2
100
AcDbArc
 50
270.0
 51
360.0
  0
ARC
  5
284
100
AcDbEntity
  8
0
100
AcDbCircle
 62
7
  6
BYLAYER
 10
30.9550019808
 20
67.3690092911
 40
0.2
100
AcDbArc
 50
90.0
 51
180.0
  0
SPLINE
  5
285
100
AcDbEntity
  8
0
100
AcDbSpline
 62
7
  6
BYLAYER
 70
0
 71
3
 72
14
 73
10
 74
0
 42
0.0000001
 43
0.0000001
 44
0.0000000001
 40
0.0
 40
0.0
 40
0.0
 40
0.0
 40
0.3255611774
 40
0.4763620411
 40
0.6133159312
 40
0.7336641824
 40
0.8364634955
 40
0.9233516603
 40
1.0
 40
1.0
 40
1.0
 40
1.0
 10
19.6550019808
 20
28.1417769807
 30
0.0
 10
19.6293861788
 20
28.1417769807
 30
0.0
 10
19.591748518
 20
28.144942055
 30
0.0
 10
19.5447383225
 20
28.1561432023
 30
0.0
 10
19.5144796667
 20
28.1671612354
 30
0.0
 10
19.4894228242
 20
28.1806445827
 30
0.0
 10
19.4703462764
 20
28.1961815439
 30
0.0
 10
19.4580641675
 20
28.2135886199
 30
0.0
 10
19.4550019808
 20
28.2265442365
 30
0.0
 10
19.4550019808
 20
28.2325750806
 30
0.0
  0
SPLINE
  5
286
100
AcDbEntity
  8
0
100
AcDbSpline
 62
7
  6
BYLAYER
 70
0
 71
3
 72
15
 73
11
 74
0
 42
0.0000001
 43
0.0000001
 44
0.0000000001
 40
0.0
 40
0.0
 40
0.0
 40
0.0
 40
0.1629749092
 40
0.3283899196
 40
0.4876970815
 40
0.6322791506
 40
0.7552920284
 40
0.8552856352
 40
0.9343465738
 40
1.0
 40
1.0
 40
1.0
 40
1.0
 10
30.9550019808
 20
55.9977130796
 30
0.0
 10
30.9423340872
 20
55.9977130697
 30
0.0
 10
30.9167986271
 20
55.9966562998
 30
0.0
 10
30.8791311893
 20
55.9919408894
 30
0.0
 10
30.8435105023
 20
55.9837859656
 30
0.0
 10
30.8120928955
 20
55.9728042733
 30
0.0
 10
30.7867766739
 20
55.9592728392
 30
0.0
 10
30.7684261186
 20
55.9442805836
 30
0.0
 10
30.7574940667
 20
55.9282937559
 30
0.0
 10
30.7550021621
 20
55.916964649
 30
0.0
 10
30.7550021547
 20
55.9118614671
 30
0.0
  0
SPLINE
  5
287
100
AcDbEntity
  8
0
100
AcDbSpline
 62
7
  6
BYLAYER
 70
0
 71
3
 72
15
 73
11
 74
0
 42
0.0000001
 43
0.0000001
 44
0.0000000001
 40
0.0
 40
0.0
 40
0.0
 40
0.0
 40
0.1629754151
 40
0.3283908633
 40
0.4876983338
 40
0.6322805352
 40
0.7552933311
 40
0.8552866406
 40
0.9343471071
 40
1.0
 40
1.0
 40
1.0
 40
1.0
 10
21.9550019809
 20
55.9977124401
 30
0.0
 10
21.9676698817
 20
55.9977124238
 30
0.0
 10
21.9932053498
 20
55.9966556524
 30
0.0
 10
22.0308727918
 20
55.9919402735
 30
0.0
 10
22.0664934688
 20
55.9837854198
 30
0.0
 10
22.0979110512
 20
55.9728038325
 30
0.0
 10
22.1232272403
 20
55.9592725357
 30
0.0
 10
22.1415777608
 20
55.9442804391
 30
0.0
 10
22.1525097872
 20
55.928293773
 30
0.0
 10
22.155001669
 20
55.916964766
 30
0.0
 10
22.155001663
 20
55.9118616384
 30
0.0
  0
SPLINE
  5
288
100
AcDbEntity
  8
0
100
AcDbSpline
 62
7
  6
BYLAYER
 70
0
 71
3
 72
9
 73
5
 74
0
 42
0.0000001
 43
0.0000001
 44
0.0000000001
 40
0.0
 40
0.0
 40
0.0
 40
0.0
 40
0.250773727
 40
1.0
 40
1.0
 40
1.0
 40
1.0
 10
30.9376625841
 20
55.849267424
 30
0.0
 10
30.9405834576
 20
55.8614311993
 30
0.0
 10
30.9507289465
 20
55.9102878232
 30
0.0
 10
30.9550008518
 20
55.9603384256
 30
0.0
 10
30.9550019808
 20
55.9977127005
 30
0.0
  0
SPLINE
  5
289
100
AcDbEntity
  8
0
100
AcDbSpline
 62
7
  6
BYLAYER
 70
0
 71
3
 72
16
 73
12
 74
0
 42
0.0000001
 43
0.0000001
 44
0.0000000001
 40
0.0
 40
0.0
 40
0.0
 40
0.0
 40
0.167135451
 40
0.3297343488
 40
0.4819381948
 40
0.5528619048
 40
0.6197437195
 40
0.7400474811
 40
0.8417736508
 40
0.9264394462
 40
1.0
 40
1.0
 40
1.0
 40
1.0
 10
21.9550019809
 20
63.0030583973
 30
0.0
 10
21.9679928277
 20
63.0030583973
 30
0.0
 10
21.9936347765
 20
63.001971391
 30
0.0
 10
22.0308388466
 20
62.9972390616
 30
0.0
 10
22.0601442541
 20
62.9906331712
 30
0.0
 10
22.0816477451
 20
62.9838277592
 30
0.0
 10
22.1003684489
 20
62.9765902905
 30
0.0
 10
22.1204720087
 20
62.9663721217
 30
0.0
 10
22.1395310746
 20
62.9517345713
 30
0.0
 10
22.151876934
 20
62.9353043296
 30
0.0
 10
22.1550019808
 20
62.9229247711
 30
0.0
 10
22.1550019808
 20
62.9172071697
 30
0.0
  0
SPLINE
  5
28A
100
AcDbEntity
  8
0
100
AcDbSpline
 62
7
  6
BYLAYER
 70
0
 71
3
 72
9
 73
5
 74
0
 42
0.0000001
 43
0.0000001
 44
0.0000000001
 40
0.0
 40
0.0
 40
0.0
 40
0.0
 40
0.4929108031
 40
1.0
 40
1.0
 40
1.0
 40
1.0
 10
19.4550019808
 20
55.6493550314
 30
0.0
 10
19.4550019808
 20
55.6730272996
 30
0.0
 10
19.4657560767
 20
55.7215926108
 30
0.0
 10
19.4955357459
 20
55.7611720937
 30
0.0
 10
19.5135806246
 20
55.7775263078
 30
0.0
  0
SPLINE
  5
28B
100
AcDbEntity
  8
0
100
AcDbSpline
 62
7
  6
BYLAYER
 70
0
 71
3
 72
9
 73
5
 74
0
 42
0.0000001
 43
0.0000001
 44
0.0000000001
 40
0.0
 40
0.0
 40
0.0
 40
0.0
 40
0.4937646852
 40
1.0
 40
1.0
 40
1.0
 40
1.0
 10
19.5135806246
 20
55.7775263078
 30
0.0
 10
19.5323158516
 20
55.7945061899
 30
0.0
 10
19.577439597
 20
55.8215280731
 30
0.0
 10
19.6290785009
 20
55.8306165888
 30
0.0
 10
19.6550019808
 20
55.8306165888
 30
0.0
  0
SPLINE
  5
28C
100
AcDbEntity
  8
0
100
AcDbSpline
 62
7
  6
BYLAYER
 70
0
 71
3
 72
12
 73
8
 74
0
 42
0.0000001
 43
0.0000001
 44
0.0000000001
 40
0.0
 40
0.0
 40
0.0
 40
0.0
 40
0.1248910236
 40
0.2497525223
 40
0.4993911557
 40
0.7494727888
 40
1.0
 40
1.0
 40
1.0
 40
1.0
 10
33.2549597725
 20
58.9477776848
 30
0.0
 10
33.2549369502
 20
59.1249932449
 30
0.0
 10
33.278279666
 20
59.479618851
 30
0.0
 10
33.3978433229
 20
60.1788975826
 30
0.0
 10
33.6457369671
 20
61.0322977587
 30
0.0
 10
34.0297746567
 20
62.0256429863
 30
0.0
 10
34.3133977023
 20
62.676990476
 30
0.0
 10
34.4550019808
 20
63.0030583973
 30
0.0
  0
SPLINE
  5
28D
100
AcDbEntity
  8
0
100
AcDbSpline
 62
7
  6
BYLAYER
 70
0
 71
3
 72
9
 73
5
 74
0
 42
0.0000001
 43
0.0000001
 44
0.0000000001
 40
0.0
 40
0.0
 40
0.0
 40
0.0
 40
0.7492261711
 40
1.0
 40
1.0
 40
1.0
 40
1.0
 10
21.9550019809
 20
55.9977126992
 30
0.0
 10
21.9550012089
 20
55.9603383666
 30
0.0
 10
21.9592741737
 20
55.9102874511
 30
0.0
 10
21.9694213459
 20
55.8614311309
 30
0.0
 10
21.9723425653
 20
55.8492674119
 30
0.0
  0
SPLINE
  5
28E
100
AcDbEntity
  8
0
100
AcDbSpline
 62
7
  6
BYLAYER
 70
0
 71
3
 72
9
 73
5
 74
0
 42
0.0000001
 43
0.0000001
 44
0.0000000001
 40
0.0
 40
0.0
 40
0.0
 40
0.0
 40
0.5061949652
 40
1.0
 40
1.0
 40
1.0
 40
1.0
 10
33.2550019808
 20
55.8306165888
 30
0.0
 10
33.2808619234
 20
55.8306165888
 30
0.0
 10
33.3323761063
 20
55.8215723315
 30
0.0
 10
33.3774230891
 20
55.7946798848
 30
0.0
 10
33.3961482256
 20
55.7777751594
 30
0.0
  0
SPLINE
  5
28F
100
AcDbEntity
  8
0
100
AcDbSpline
 62
7
  6
BYLAYER
 70
0
 71
3
 72
9
 73
5
 74
0
 42
0.0000001
 43
0.0000001
 44
0.0000000001
 40
0.0
 40
0.0
 40
0.0
 40
0.0
 40
0.5071159138
 40
1.0
 40
1.0
 40
1.0
 40
1.0
 10
33.3961482256
 20
55.7777751594
 30
0.0
 10
33.4142713252
 20
55.7614139423
 30
0.0
 10
33.4441921144
 20
55.7217758786
 30
0.0
 10
33.4550019808
 20
55.6730857173
 30
0.0
 10
33.4550019808
 20
55.6493550314
 30
0.0
  0
SPLINE
  5
290
100
AcDbEntity
  8
0
100
AcDbSpline
 62
7
  6
BYLAYER
 70
0
 71
3
 72
14
 73
10
 74
0
 42
0.0000001
 43
0.0000001
 44
0.0000000001
 40
0.0
 40
0.0
 40
0.0
 40
0.0
 40
0.0766484553
 40
0.1635366138
 40
0.2663352296
 40
0.3866823385
 40
0.5236348099
 40
0.6744357665
 40
1.0
 40
1.0
 40
1.0
 40
1.0
 10
33.4550019808
 20
28.2325750807
 30
0.0
 10
33.4550019808
 20
28.2265442276
 30
0.0
 10
33.451939749
 20
28.2135886119
 30
0.0
 10
33.4396576974
 20
28.1961815669
 30
0.0
 10
33.4205812904
 20
28.180644656
 30
0.0
 10
33.3955246723
 20
28.1671614465
 30
0.0
 10
33.3652662649
 20
28.1561433039
 30
0.0
 10
33.3182559161
 20
28.14494219
 30
0.0
 10
33.2806180229
 20
28.1417769807
 30
0.0
 10
33.2550019808
 20
28.1417769807
 30
0.0
  0
SPLINE
  5
291
100
AcDbEntity
  8
0
100
AcDbSpline
 62
7
  6
BYLAYER
 70
0
 71
3
 72
14
 73
10
 74
0
 42
0.0000001
 43
0.0000001
 44
0.0000000001
 40
0.0
 40
0.0
 40
0.0
 40
0.0
 40
0.3255642335
 40
0.4763651901
 40
0.6133176615
 40
0.7336647704
 40
0.8364633862
 40
0.9233515447
 40
1.0
 40
1.0
 40
1.0
 40
1.0
 10
33.2550019808
 20
33.1693919436
 30
0.0
 10
33.2806180229
 20
33.1693919436
 30
0.0
 10
33.3182559161
 20
33.1725571528
 30
0.0
 10
33.3652662649
 20
33.1837582667
 30
0.0
 10
33.3955246723
 20
33.1947764093
 30
0.0
 10
33.4205812904
 20
33.2082596189
 30
0.0
 10
33.4396576974
 20
33.2237965297
 30
0.0
 10
33.451939749
 20
33.2412035747
 30
0.0
 10
33.4550019808
 20
33.2541591904
 30
0.0
 10
33.4550019808
 20
33.2601900435
 30
0.0
  0
SPLINE
  5
292
100
AcDbEntity
  8
0
100
AcDbSpline
 62
7
  6
BYLAYER
 70
0
 71
3
 72
11
 73
7
 74
0
 42
0.0000001
 43
0.0000001
 44
0.0000000001
 40
0.0
 40
0.0
 40
0.0
 40
0.0
 40
0.1934499384
 40
0.4161045006
 40
0.6836245251
 40
1.0
 40
1.0
 40
1.0
 40
1.0
 10
33.4550019808
 20
55.7497046267
 30
0.0
 10
33.4550019808
 20
55.7554222281
 30
0.0
 10
33.4518770503
 20
55.7678017884
 30
0.0
 10
33.4395305596
 20
55.7842320205
 30
0.0
 10
33.4204745251
 20
55.7988696175
 30
0.0
 10
33.4050159333
 20
55.8067221873
 30
0.0
 10
33.396423337
 20
55.8104106119
 30
0.0
  0
SPLINE
  5
293
100
AcDbEntity
  8
0
100
AcDbSpline
 62
7
  6
BYLAYER
 70
0
 71
3
 72
9
 73
5
 74
0
 42
0.0000001
 43
0.0000001
 44
0.0000000001
 40
0.0
 40
0.0
 40
0.0
 40
0.0
 40
0.2372252831
 40
1.0
 40
1.0
 40
1.0
 40
1.0
 10
33.396423337
 20
55.8104106119
 30
0.0
 10
33.393643674
 20
55.8116037993
 30
0.0
 10
33.3818179507
 20
55.816380352
 30
0.0
 10
33.3696220843
 20
55.8202144441
 30
0.0
 10
33.3602219131
 20
55.8227122851
 30
0.0
  0
SPLINE
  5
294
100
AcDbEntity
  8
0
100
AcDbSpline
 62
7
  6
BYLAYER
 70
0
 71
3
 72
13
 73
9
 74
0
 42
0.0000001
 43
0.0000001
 44
0.0000000001
 40
0.0
 40
0.0
 40
0.0
 40
0.0
 40
0.3195647116
 40
0.5970415563
 40
0.7180064507
 40
0.8259799516
 40
0.9200432495
 40
1.0
 40
1.0
 40
1.0
 40
1.0
 10
33.2550019808
 20
46.8767295899
 30
0.0
 10
33.2771437545
 20
46.9320894123
 30
0.0
 10
33.3206735208
 20
47.0346531412
 30
0.0
 10
33.3756841328
 20
47.1568039632
 30
0.0
 10
33.4127610009
 20
47.2437132356
 30
0.0
 10
33.4345143419
 20
47.2999507756
 30
0.0
 10
33.4500979895
 20
47.3502394958
 30
0.0
 10
33.4550019808
 20
47.3826560974
 30
0.0
 10
33.4550019808
 20
47.3975742201
 30
0.0
  0
SPLINE
  5
295
100
AcDbEntity
  8
0
100
AcDbSpline
 62
7
  6
BYLAYER
 70
0
 71
3
 72
13
 73
9
 74
0
 42
0.0000001
 43
0.0000001
 44
0.0000000001
 40
0.0
 40
0.0
 40
0.0
 40
0.0
 40
0.079957945
 40
0.1740225392
 40
0.2819946518
 40
0.402958421
 40
0.6804339495
 40
1.0
 40
1.0
 40
1.0
 40
1.0
 10
19.4550019808
 20
47.3975742201
 30
0.0
 10
19.4550019808
 20
47.3826558725
 30
0.0
 10
19.4599065679
 20
47.3502388698
 30
0.0
 10
19.47548967
 20
47.2999498565
 30
0.0
 10
19.4972407311
 20
47.2437116278
 30
0.0
 10
19.5343201502
 20
47.1568041763
 30
0.0
 10
19.589330081
 20
47.0346533003
 30
0.0
 10
19.6328601113
 20
46.932089652
 30
0.0
 10
19.6550019808
 20
46.8767295899
 30
0.0
  0
SPLINE
  5
296
100
AcDbEntity
  8
0
100
AcDbSpline
 62
7
  6
BYLAYER
 70
0
 71
3
 72
14
 73
10
 74
0
 42
0.0000001
 43
0.0000001
 44
0.0000000001
 40
0.0
 40
0.0
 40
0.0
 40
0.0
 40
0.0766484553
 40
0.1635366138
 40
0.2663352296
 40
0.3866823386
 40
0.52363481
 40
0.6744357665
 40
1.0
 40
1.0
 40
1.0
 40
1.0
 10
19.4550019808
 20
33.2601900435
 30
0.0
 10
19.4550019808
 20
33.2541591904
 30
0.0
 10
19.4580642127
 20
33.2412035747
 30
0.0
 10
19.4703462643
 20
33.2237965297
 30
0.0
 10
19.4894226713
 20
33.2082596189
 30
0.0
 10
19.5144792894
 20
33.1947764093
 30
0.0
 10
19.5447376968
 20
33.1837582667
 30
0.0
 10
19.5917480456
 20
33.1725571528
 30
0.0
 10
19.6293859388
 20
33.1693919436
 30
0.0
 10
19.6550019808
 20
33.1693919436
 30
0.0
  0
SPLINE
  5
297
100
AcDbEntity
  8
0
100
AcDbSpline
 62
7
  6
BYLAYER
 70
0
 71
3
 72
16
 73
12
 74
0
 42
0.0000001
 43
0.0000001
 44
0.0000000001
 40
0.0
 40
0.0
 40
0.0
 40
0.0
 40
0.0735605538
 40
0.1582263491
 40
0.2599525189
 40
0.3802562805
 40
0.4471380952
 40
0.5180618052
 40
0.6702656512
 40
0.832864549
 40
1.0
 40
1.0
 40
1.0
 40
1.0
 10
30.7550019808
 20
62.9172071697
 30
0.0
 10
30.7550019808
 20
62.9229247711
 30
0.0
 10
30.7581270277
 20
62.9353043296
 30
0.0
 10
30.770472887
 20
62.9517345713
 30
0.0
 10
30.789531953
 20
62.9663721217
 30
0.0
 10
30.8096355128
 20
62.9765902905
 30
0.0
 10
30.8283562166
 20
62.9838277592
 30
0.0
 10
30.8498597076
 20
62.9906331712
 30
0.0
 10
30.8791651151
 20
62.9972390616
 30
0.0
 10
30.9163691852
 20
63.001971391
 30
0.0
 10
30.942011134
 20
63.0030583973
 30
0.0
 10
30.9550019808
 20
63.0030583973
 30
0.0
  0
SPLINE
  5
298
100
AcDbEntity
  8
0
100
AcDbSpline
 62
7
  6
BYLAYER
 70
0
 71
3
 72
9
 73
5
 74
0
 42
0.0000001
 43
0.0000001
 44
0.0000000001
 40
0.0
 40
0.0
 40
0.0
 40
0.0
 40
0.2602252734
 40
1.0
 40
1.0
 40
1.0
 40
1.0
 10
19.5415587861
 20
55.8204058506
 30
0.0
 10
19.5390866991
 20
55.8196748492
 30
0.0
 10
19.5296246444
 20
55.8167417434
 30
0.0
 10
19.5203149549
 20
55.8133013635
 30
0.0
 10
19.5135806509
 20
55.8104106232
 30
0.0
  0
SPLINE
  5
299
100
AcDbEntity
  8
0
100
AcDbSpline
 62
7
  6
BYLAYER
 70
0
 71
3
 72
11
 73
7
 74
0
 42
0.0000001
 43
0.0000001
 44
0.0000000001
 40
0.0
 40
0.0
 40
0.0
 40
0.0
 40
0.3163754879
 40
0.5838955191
 40
0.8065500763
 40
1.0
 40
1.0
 40
1.0
 40
1.0
 10
19.5135806509
 20
55.8104106232
 30
0.0
 10
19.5049880511
 20
55.8067221984
 30
0.0
 10
19.4895294528
 20
55.7988696279
 30
0.0
 10
19.4704734097
 20
55.7842320286
 30
0.0
 10
19.4581269131
 20
55.7678017932
 30
0.0
 10
19.4550019808
 20
55.7554222295
 30
0.0
 10
19.4550019808
 20
55.7497046267
 30
0.0
  0
SPLINE
  5
29A
100
AcDbEntity
  8
0
100
AcDbSpline
 62
7
  6
BYLAYER
 70
0
 71
3
 72
13
 73
9
 74
0
 42
0.0000001
 43
0.0000001
 44
0.0000000001
 40
0.0
 40
0.0
 40
0.0
 40
0.0
 40
0.2505055258
 40
0.5005733297
 40
0.6254855461
 40
0.7503004819
 40
0.8751154856
 40
1.0
 40
1.0
 40
1.0
 40
1.0
 10
18.4550019808
 20
63.0030583973
 30
0.0
 10
18.5966093684
 20
62.6769831097
 30
0.0
 10
18.8802215003
 20
62.0257058033
 30
0.0
 10
19.2005032515
 20
61.197098468
 30
0.0
 10
19.4130852018
 20
60.5201235421
 30
0.0
 10
19.5420585745
 20
60.0040746857
 30
0.0
 10
19.6316875083
 20
59.4795878384
 30
0.0
 10
19.6550138621
 20
59.1250033425
 30
0.0
 10
19.6550361871
 20
58.9477776927
 30
0.0
  0
SPLINE
  5
29B
100
AcDbEntity
  8
0
100
AcDbSpline
 62
7
  6
BYLAYER
 70
0
 71
3
 72
16
 73
12
 74
0
 42
0.0000001
 43
0.0000001
 44
0.0000000001
 40
0.0
 40
0.0
 40
0.0
 40
0.0
 40
0.1563518981
 40
0.3170587281
 40
0.4744121252
 40
0.5491269976
 40
0.6197304545
 40
0.7454937083
 40
0.8490397078
 40
0.931418378
 40
1.0
 40
1.0
 40
1.0
 40
1.0
 10
33.2550019812
 20
58.9477838595
 30
0.0
 10
33.2671537161
 20
58.9477821681
 30
0.0
 10
33.2918058109
 20
58.9468073209
 30
0.0
 10
33.3284544026
 20
58.9423789508
 30
0.0
 10
33.3583289256
 20
58.9358074594
 30
0.0
 10
33.3808083137
 20
58.9288299293
 30
0.0
 10
33.4004967294
 20
58.9212944891
 30
0.0
 10
33.4213054412
 20
58.9105561671
 30
0.0
 10
33.4405357157
 20
58.8954707141
 30
0.0
 10
33.4522326011
 20
58.8790679602
 30
0.0
 10
33.4549729
 20
58.867253657
 30
0.0
 10
33.4549729019
 20
58.8619234646
 30
0.0
  0
LINE
  5
29C
100
AcDbEntity
  8
0
100
AcDbLine
 62
7
  6
BYLAYER
 10
34.4550019808
 20
63.0030583973
 11
34.4149936162
 21
62.8895705907
  0
SPLINE
  5
29D
100
AcDbEntity
  8
0
100
AcDbSpline
 62
7
  6
BYLAYER
 70
0
 71
3
 72
13
 73
9
 74
0
 42
0.0000001
 43
0.0000001
 44
0.0000000001
 40
0.0
 40
0.0
 40
0.0
 40
0.0
 40
0.2476853566
 40
0.4973749234
 40
0.6227580387
 40
0.7483700465
 40
0.8741291986
 40
1.0
 40
1.0
 40
1.0
 40
1.0
 10
18.4550019808
 20
63.0030583973
 30
0.0
 10
18.5725586563
 20
62.669895693
 30
0.0
 10
18.8072950391
 20
62.0004152183
 30
0.0
 10
19.0728305795
 20
61.15224226
 30
0.0
 10
19.2501655902
 20
60.4602435822
 30
0.0
 10
19.3588192329
 20
59.9336627286
 30
0.0
 10
19.4344320575
 20
59.4005123633
 30
0.0
 10
19.4549939542
 20
59.0414665625
 30
0.0
 10
19.4550019808
 20
58.8619264615
 30
0.0
  0
SPLINE
  5
29E
100
AcDbEntity
  8
0
100
AcDbSpline
 62
7
  6
BYLAYER
 70
0
 71
3
 72
13
 73
9
 74
0
 42
0.0000001
 43
0.0000001
 44
0.0000000001
 40
0.0
 40
0.0
 40
0.0
 40
0.0
 40
0.2478134056
 40
0.4975168738
 40
0.6228767889
 40
0.7484507841
 40
0.8741703465
 40
1.0
 40
1.0
 40
1.0
 40
1.0
 10
34.4149936162
 20
62.8895705907
 30
0.0
 10
34.3008880697
 20
62.5655343048
 30
0.0
 10
34.0741290942
 20
61.9141718751
 30
0.0
 10
33.8192046148
 20
61.0886749668
 30
0.0
 10
33.6497263027
 20
60.4154690515
 30
0.0
 10
33.5462130843
 20
59.9034132084
 30
0.0
 10
33.4744404942
 20
59.3851888097
 30
0.0
 10
33.4549945336
 20
59.0363512205
 30
0.0
 10
33.4550019808
 20
58.8619155674
 30
0.0
  0
SPLINE
  5
29F
100
AcDbEntity
  8
0
100
AcDbSpline
 62
7
  6
BYLAYER
 70
0
 71
3
 72
16
 73
12
 74
0
 42
0.0000001
 43
0.0000001
 44
0.0000000001
 40
0.0
 40
0.0
 40
0.0
 40
0.0
 40
0.0685815479
 40
0.1509605523
 40
0.2545074647
 40
0.380272007
 40
0.4508761251
 40
0.5255914772
 40
0.6829450211
 40
0.8436507756
 40
1.0
 40
1.0
 40
1.0
 40
1.0
 10
19.455023593
 20
58.8619239126
 30
0.0
 10
19.455023593
 20
58.8672542611
 30
0.0
 10
19.457764064
 20
58.879068948
 30
0.0
 10
19.4694616582
 20
58.8954720805
 30
0.0
 10
19.4886929798
 20
58.9105577258
 30
0.0
 10
19.5095027621
 20
58.9212960179
 30
0.0
 10
19.5291921222
 20
58.9288313091
 30
0.0
 10
19.5516724378
 20
58.9358086
 30
0.0
 10
19.5815479811
 20
58.9423796228
 30
0.0
 10
19.6181975092
 20
58.9468072515
 30
0.0
 10
19.6428500844
 20
58.9477815603
 30
0.0
 10
19.6550019806
 20
58.9477829533
 30
0.0
  0
SPLINE
  5
2A0
100
AcDbEntity
  8
0
100
AcDbSpline
 62
7
  6
BYLAYER
 70
0
 71
3
 72
14
 73
10
 74
0
 42
0.0000001
 43
0.0000001
 44
0.0000000001
 40
0.0
 40
0.0
 40
0.0
 40
0.0
 40
0.3081302949
 40
0.4450294436
 40
0.5710230366
 40
0.6874256324
 40
0.796224167
 40
0.8996190647
 40
1.0
 40
1.0
 40
1.0
 40
1.0
 10
33.9594689969
 20
35.8178660143
 30
0.0
 10
34.0344911086
 20
35.8452276477
 30
0.0
 10
34.1398432086
 20
35.8953177717
 30
0.0
 10
34.25947864
 20
35.9829927322
 30
0.0
 10
34.3304560046
 20
36.0515020851
 30
0.0
 10
34.3858587628
 20
36.1241976617
 30
0.0
 10
34.4255980123
 20
36.2000226627
 30
0.0
 10
34.4495928195
 20
36.2778839452
 30
0.0
 10
34.4550019808
 20
36.3308375129
 30
0.0
 10
34.4550019808
 20
36.3568525373
 30
0.0
  0
SPLINE
  5
2A1
100
AcDbEntity
  8
0
100
AcDbSpline
 62
7
  6
BYLAYER
 70
0
 71
3
 72
11
 73
7
 74
0
 42
0.0000001
 43
0.0000001
 44
0.0000000001
 40
0.0
 40
0.0
 40
0.0
 40
0.0
 40
0.3002071527
 40
0.5602327659
 40
0.7888866474
 40
1.0
 40
1.0
 40
1.0
 40
1.0
 10
18.9339923674
 20
35.867546255
 30
0.0
 10
18.8757055766
 20
35.8963717667
 30
0.0
 10
18.7713194233
 20
35.9602236287
 30
0.0
 10
18.6482236056
 20
36.081276996
 30
0.0
 10
18.5724764453
 20
36.2151994567
 30
0.0
 10
18.5550019808
 20
36.3111252419
 30
0.0
 10
18.5550019808
 20
36.3568525373
 30
0.0
  0
ELLIPSE
  5
2A2
100
AcDbEntity
  8
0
100
AcDbEllipse
 62
7
  6
BYLAYER
 10
41.2550019808
 20
36.9811299939
 30
0.0
 11
2.0
 21
0.0
 31
0.0
 40
0.6242774566
 41
3.1415926536
 42
4.7123890021
  0
ELLIPSE
  5
2A3
100
AcDbEntity
  8
0
100
AcDbEllipse
 62
7
  6
BYLAYER
 10
11.7550019808
 20
36.9811299939
 30
0.0
 11
2.0
 21
0.0
 31
0.0
 40
0.6242774566
 41
-1.5707962983
 42
0.0
  0
ELLIPSE
  5
2A4
100
AcDbEntity
  8
0
100
AcDbEllipse
 62
7
  6
BYLAYER
 10
14.7550019808
 20
30.908297624
 30
0.0
 11
1.0
 21
-0.0
 31
0.0
 40
0.6242774566
 41
1.5707963268
 42
3.1415926536
  0
ELLIPSE
  5
2A5
100
AcDbEntity
  8
0
100
AcDbEllipse
 62
7
  6
BYLAYER
 10
38.2550019808
 20
30.908297624
 30
0.0
 11
1.0
 21
-0.0
 31
0.0
 40
0.6242774566
 41
0.0
 42
1.5707963268
  0
ELLIPSE
  5
2A6
100
AcDbEntity
  8
0
100
AcDbEllipse
 62
7
  6
BYLAYER
 10
19.5550019808
 20
21.3568525373
 30
0.0
 11
1.0
 21
-0.0
 31
0.0
 40
0.6242774566
 41
3.1415926536
 42
4.7123889804
  0
ELLIPSE
  5
2A7
100
AcDbEntity
  8
0
100
AcDbEllipse
 62
7
  6
BYLAYER
 10
41.2550019808
 20
21.9811299939
 30
0.0
 11
2.0
 21
-0.0
 31
0.0
 40
0.6242774566
 41
-3.1415926536
 42
-1.5707963235
  0
ELLIPSE
  5
2A8
100
AcDbEntity
  8
0
100
AcDbEllipse
 62
7
  6
BYLAYER
 10
11.7550019808
 20
21.9811299939
 30
0.0
 11
2.0
 21
-0.0
 31
0.0
 40
0.6242774566
 41
-1.5707963116
 42
-0.0
  0
ELLIPSE
  5
2A9
100
AcDbEntity
  8
0
100
AcDbEllipse
 62
7
  6
BYLAYER
 10
33.4550019808
 20
21.3568525373
 30
0.0
 11
1.0
 21
-0.0
 31
0.0
 40
0.6242774566
 41
-1.5707963268
 42
0.0
  0
ENDSEC
  0
SECTION
  2
OBJECTS
  0
DICTIONARY
  5
C
100
AcDbDictionary
280
0
281
1
  3
ACAD_GROUP
350
D
  3
ACAD_MLINESTYLE
350
17
  3
ACAD_LAYOUT
350
1A
  3
ACAD_PLOTSETTINGS
350
19
  3
ACAD_PLOTSTYLENAME
350
E
  0
DICTIONARY
  5
D
102
{ACAD_REACTORS
330
C
102
}
100
AcDbDictionary
280
0
281
1
  0
ACDBDICTIONARYWDFLT
  5
E
102
{ACAD_REACTORS
330
C
102
}
100
AcDbDictionary
281
1
  3
Normal
350
F
100
AcDbDictionaryWithDefault
340
F
  0
DICTIONARY
  5
17
102
{ACAD_REACTORS
330
C
102
}
100
AcDbDictionary
280
0
281
1
  3
Standard
350
18
  0
DICTIONARY
  5
19
102
{ACAD_REACTORS
330
C
102
}
100
AcDbDictionary
281
1
  0
DICTIONARY
  5
1A
102
{ACAD_REACTORS
330
C
102
}
100
AcDbDictionary
281
1
  3
Model
350
2AA
  3
Layout1
350
2AB
  0
ACDBPLACEHOLDER
  5
F
102
{ACAD_REACTORS
330
E
102
}
  0
MLINESTYLE
  5
18
102
{ACAD_REACTORS
330
17
102
}
100
AcDbMlineStyle
  2
STANDARD
 70
0
  3

 62
256
 51
90.0
 52
90.0
 71
2
 49
0.5
 62
256
  6
BYLAYER
 49
-0.5
 62
256
  6
BYLAYER
  0
LAYOUT
  5
2AA
102
{ACAD_REACTORS
330
1A
102
}
100
AcDbPlotSettings
  1

  2
none_device
  4

  6

 40
0.0
 41
0.0
 42
0.0
 43
0.0
 44
210.0
 45
297.0
 46
0.0
 47
0.0
 48
0.0
 49
0.0
140
0.0
141
0.0
142
1.0
143
1.0
 70
1024
 72
1
 73
0
 74
0
  7

 75
0
147
1.0
148
0.0
149
0.0
100
AcDbLayout
  1
Model
 70
0
 71
0
 10
0.0
 20
0.0
 11
210.0
 21
297.0
 12
0.0
 22
0.0
 32
0.0
 14
0.0
 24
0.0
 34
0.0
 15
0.0
 25
0.0
 35
0.0
146
0.0
 13
0.0
 23
0.0
 33
0.0
 16
1.0
 26
0.0
 36
0.0
 17
0.0
 27
1.0
 37
0.0
 76
0
330
210
345
0
346
0
  0
LAYOUT
  5
2AB
102
{ACAD_REACTORS
330
1A
102
}
100
AcDbPlotSettings
  1

  2
none_device
  4

  6

 40
0.0
 41
0.0
 42
0.0
 43
0.0
 44
210.0
 45
297.0
 46
0.0
 47
0.0
 48
0.0
 49
0.0
140
0.0
141
0.0
142
1.0
143
1.0
 70
0
 72
1
 73
0
 74
0
  7

 75
0
147
1.0
148
0.0
149
0.0
100
AcDbLayout
  1
Layout1
 70
0
 71
1
 10
0.0
 20
0.0
 11
210.0
 21
297.0
 12
0.0
 22
0.0
 32
0.0
 14
0.0
 24
0.0
 34
0.0
 15
0.0
 25
0.0
 35
0.0
146
0.0
 13
0.0
 23
0.0
 33
0.0
 16
1.0
 26
0.0
 36
0.0
 17
0.0
 27
1.0
 37
0.0
 76
0
330
211
345
0
346
0
  0
ENDSEC
  0
EOF
