999
DXF file: C:\Users\sesa63760\Dev\_Creo\CAD\MCADID0004751_3D-CAD\drw0001_3.dxf
999
Pro/ENGINEER 2019471 by Parametric Technology Corporation
  0
SECTION
  2
HEADER
  9
$ACADVER
  1
AC1024
  9
$DWGCODEPAGE
  3
ANSI_1252
  9
$EXTMAX
 10
52.6482218244
 20
74.4596280088
 30
0.0
  9
$EXTMIN
 10
0.0
 20
0.0
 30
0.0
  9
$LIMMIN
 10
0.0
 20
0.0
  9
$LIMMAX
 10
52.6482218244
 20
74.4596280088
  9
$VIEWCTR
 10
26.3241109122
 20
37.2298140044
  9
$VIEWSIZE
 40
74.4596280088
  9
$CLAYER
  8
0
  9
$LTSCALE
 40
4.8536646406
  9
$CELTYPE
  6
BYLAYER
  9
$DIMSCALE
 40
1.0
  9
$DIMASZ
 40
0.6267645455
  9
$DIMEXO
 40
1.0
  9
$DIMDLI
 40
3.3534410244
  9
$DIMEXE
 40
1.0
  9
$DIMCEN
 40
0.7942360321
  9
$DIMLFAC
 40
1.0
  9
$DIMBLK
  1
_FILLED
  9
$DIMALT
 70
0
  9
$DIMALTF
 40
0.0393700787
  9
$DIMTXT
 40
0.8774703637
  9
$DIMTOL
 70
1
  9
$DIMLIM
 70
0
  9
$DIMTFAC
 40
1.0
  9
$DIMTP
 40
0.01
  9
$DIMTM
 40
0.01
  9
$DIMGAP
 40
0.625
  9
$DIMDSEP
 70
46
  9
$AUNITS
 70
0
  9
$PDMODE
 70
3
  9
$PDSIZE
 40
0.3125
  9
$HANDSEED
  5
2CD
  9
$TILEMODE
 70
1
  9
$MEASUREMENT
 70
1
  9
$INSUNITS
 70
4
  0
ENDSEC
  0
SECTION
  2
CLASSES
  0
CLASS
  1
ACDBDICTIONARYWDFLT
  2
AcDbDictionaryWithDefault
  3
AutoCAD 2000
 90
0
 91
1
280
0
281
0
  0
CLASS
  1
ACDBPLACEHOLDER
  2
AcDbPlaceHolder
  3
AutoCAD 2000
 90
0
 91
1
280
0
281
0
  0
CLASS
  1
LAYOUT
  2
AcDbLayout
  3
AutoCAD 2000
 90
0
 91
0
280
0
281
0
  0
ENDSEC
  0
SECTION
  2
TABLES
  0
TABLE
  2
VPORT
  5
8
100
AcDbSymbolTable
 70
2
  0
VPORT
  5
1F4
100
AcDbSymbolTableRecord
100
AcDbViewportTableRecord
  2
*ACTIVE
 70
0
 10
0.0
 20
0.0
 11
1.0
 21
1.0
 12
26.3241109122
 22
37.2298140044
 13
0.0
 23
0.0
 14
1.0
 24
1.0
 15
0.0
 25
0.0
 16
0.0
 26
0.0
 36
1.0
 17
0.0
 27
0.0
 37
0.0
 40
74.4596280088
 41
0.7070707071
 42
50.0
 43
0.0
 44
0.0
 50
0.0
 51
0.0
 71
0
 72
100
 73
1
 74
1
 75
0
 76
0
 77
0
 78
0
  0
ENDTAB
  0
TABLE
  2
LTYPE
  5
5
100
AcDbSymbolTable
 70
6
  0
LTYPE
  5
14
100
AcDbSymbolTableRecord
100
AcDbLinetypeTableRecord
  2
BYBLOCK
 70
0
  3

 72
65
 73
0
 40
0.0
  0
LTYPE
  5
15
100
AcDbSymbolTableRecord
100
AcDbLinetypeTableRecord
  2
BYLAYER
 70
0
  3

 72
65
 73
0
 40
0.0
  0
LTYPE
  5
16
100
AcDbSymbolTableRecord
100
AcDbLinetypeTableRecord
  2
CONTINUOUS
 70
64
  3
Solid line
 72
65
 73
0
 40
0.0
  0
LTYPE
  5
1F5
100
AcDbSymbolTableRecord
100
AcDbLinetypeTableRecord
  2
CENTER
 70
64
  3
____ _ ____ _ ____ _ ____ _ ____ _ ____ _ ____
 72
65
 73
4
 40
0.6
 49
0.375
 74
0
 49
-0.075
 74
0
 49
0.075
 74
0
 49
-0.075
 74
0
  0
LTYPE
  5
1F6
100
AcDbSymbolTableRecord
100
AcDbLinetypeTableRecord
  2
HIDDEN
 70
64
  3
- - - - - - - - - - - - - - - - - - - -
 72
65
 73
2
 40
0.2
 49
0.1
 74
0
 49
-0.1
 74
0
  0
LTYPE
  5
1F7
100
AcDbSymbolTableRecord
100
AcDbLinetypeTableRecord
  2
PHANTOM
 70
64
  3
_____ _ _ _____ _ _ _____ _ _ _____
 72
65
 73
6
 40
0.8
 49
0.45
 74
0
 49
-0.05
 74
0
 49
0.1
 74
0
 49
-0.05
 74
0
 49
0.1
 74
0
 49
-0.05
 74
0
  0
LTYPE
  5
1F8
100
AcDbSymbolTableRecord
100
AcDbLinetypeTableRecord
  2
DOT
 70
64
  3
. . . . . . . . . . . . . . . . . . . .
 72
65
 73
2
 40
0.2
 49
0.1
 74
0
 49
-0.1
 74
0
  0
LTYPE
  5
1F9
100
AcDbSymbolTableRecord
100
AcDbLinetypeTableRecord
  2
DASHED
 70
64
  3
- - - - - - - - - - - - - - - - - - - -
 72
65
 73
2
 40
0.2
 49
0.1
 74
0
 49
-0.1
 74
0
  0
ENDTAB
  0
TABLE
  2
LAYER
  5
2
100
AcDbSymbolTable
 70
36
  0
LAYER
  5
10
100
AcDbSymbolTableRecord
100
AcDbLayerTableRecord
  2
0
 70
0
 62
7
  6
CONTINUOUS
370
-3
390
F
  0
LAYER
  5
1FA
100
AcDbSymbolTableRecord
100
AcDbLayerTableRecord
  2
DEFAULT_1
 70
0
 62
7
  6
CENTER
370
-3
390
F
  0
LAYER
  5
1FB
100
AcDbSymbolTableRecord
100
AcDbLayerTableRecord
  2
DEFAULT_2
 70
0
 62
7
  6
HIDDEN
370
-3
390
F
  0
LAYER
  5
1FC
100
AcDbSymbolTableRecord
100
AcDbLayerTableRecord
  2
DEFAULT_3
 70
0
 62
7
  6
PHANTOM
370
-3
390
F
  0
LAYER
  5
1FD
100
AcDbSymbolTableRecord
100
AcDbLayerTableRecord
  2
00_COMPONENTS
 70
0
 62
7
  6
CONTINUOUS
370
-3
390
F
  0
LAYER
  5
1FE
100
AcDbSymbolTableRecord
100
AcDbLayerTableRecord
  2
01_1_DEFAULT_DATUMS
 70
0
 62
7
  6
CONTINUOUS
370
-3
390
F
  0
LAYER
  5
1FF
100
AcDbSymbolTableRecord
100
AcDbLayerTableRecord
  2
01_PLANES
 70
0
 62
7
  6
CONTINUOUS
370
-3
390
F
  0
LAYER
  5
200
100
AcDbSymbolTableRecord
100
AcDbLayerTableRecord
  2
02_COORD_SYS
 70
0
 62
7
  6
CONTINUOUS
370
-3
390
F
  0
LAYER
  5
201
100
AcDbSymbolTableRecord
100
AcDbLayerTableRecord
  2
03_AXES
 70
0
 62
7
  6
CONTINUOUS
370
-3
390
F
  0
LAYER
  5
202
100
AcDbSymbolTableRecord
100
AcDbLayerTableRecord
  2
04_POINTS
 70
0
 62
7
  6
CONTINUOUS
370
-3
390
F
  0
LAYER
  5
203
100
AcDbSymbolTableRecord
100
AcDbLayerTableRecord
  2
05_CURVES
 70
0
 62
7
  6
CONTINUOUS
370
-3
390
F
  0
LAYER
  5
204
100
AcDbSymbolTableRecord
100
AcDbLayerTableRecord
  2
06_SURFS
 70
0
 62
7
  6
CONTINUOUS
370
-3
390
F
  0
LAYER
  5
205
100
AcDbSymbolTableRecord
100
AcDbLayerTableRecord
  2
07_COSMETICS
 70
0
 62
7
  6
CONTINUOUS
370
-3
390
F
  0
LAYER
  5
206
100
AcDbSymbolTableRecord
100
AcDbLayerTableRecord
  2
10_NOTES
 70
0
 62
7
  6
CONTINUOUS
370
-3
390
F
  0
LAYER
  5
207
100
AcDbSymbolTableRecord
100
AcDbLayerTableRecord
  2
11_NOTES_PUB
 70
0
 62
7
  6
CONTINUOUS
370
-3
390
F
  0
LAYER
  5
208
100
AcDbSymbolTableRecord
100
AcDbLayerTableRecord
  2
13_REF_GTOL
 70
0
 62
7
  6
CONTINUOUS
370
-3
390
F
  0
LAYER
  5
209
100
AcDbSymbolTableRecord
100
AcDbLayerTableRecord
  2
16_MISC
 70
0
 62
7
  6
CONTINUOUS
370
-3
390
F
  0
LAYER
  5
20A
100
AcDbSymbolTableRecord
100
AcDbLayerTableRecord
  2
17_NO_PRINT
 70
0
 62
7
  6
CONTINUOUS
370
-3
390
F
  0
LAYER
  5
20B
100
AcDbSymbolTableRecord
100
AcDbLayerTableRecord
  2
18_DATUM_CAMS_JOINTS
 70
0
 62
7
  6
CONTINUOUS
370
-3
390
F
  0
LAYER
  5
20C
100
AcDbSymbolTableRecord
100
AcDbLayerTableRecord
  2
19_DATUM_FUNCTIONAL
 70
0
 62
7
  6
CONTINUOUS
370
-3
390
F
  0
LAYER
  5
20D
100
AcDbSymbolTableRecord
100
AcDbLayerTableRecord
  2
20_DATUM_KINEMATIC_SCHEME
 70
0
 62
7
  6
CONTINUOUS
370
-3
390
F
  0
ENDTAB
  0
TABLE
  2
STYLE
  5
3
100
AcDbSymbolTable
 70
1
  0
STYLE
  5
11
100
AcDbSymbolTableRecord
100
AcDbTextStyleTableRecord
  2
STANDARD
 70
0
 40
0.0
 41
1.0
 50
0.0
 71
0
 42
0.2
  3
ARIAL.TTF
  4

  0
STYLE
  5
20E
100
AcDbSymbolTableRecord
100
AcDbTextStyleTableRecord
  2
TEXTSTYLE_1
 70
0
 40
0.0
 41
0.8
 50
0.0
 71
0
 42
0.2
  3
gdt
  4

  0
ENDTAB
  0
TABLE
  2
VIEW
  5
6
100
AcDbSymbolTable
 70
0
  0
ENDTAB
  0
TABLE
  2
UCS
  5
7
100
AcDbSymbolTable
 70
0
  0
ENDTAB
  0
TABLE
  2
APPID
  5
9
100
AcDbSymbolTable
 70
1
  0
APPID
  5
20F
100
AcDbSymbolTableRecord
100
AcDbRegAppTableRecord
  2
ACAD
 70
0
  0
ENDTAB
  0
TABLE
  2
BLOCK_RECORD
  5
1
100
AcDbSymbolTable
 70
0
  0
BLOCK_RECORD
  5
210
100
AcDbSymbolTableRecord
100
AcDbBlockTableRecord
  2
*Model_Space
  0
BLOCK_RECORD
  5
211
100
AcDbSymbolTableRecord
100
AcDbBlockTableRecord
  2
*Paper_Space
  0
BLOCK_RECORD
  5
212
100
AcDbSymbolTableRecord
100
AcDbBlockTableRecord
  2
_FILLED
  0
ENDTAB
  0
TABLE
  2
DIMSTYLE
  5
A
100
AcDbSymbolTable
 70
1
100
AcDbDimStyleTable
 71
0
  0
DIMSTYLE
105
213
100
AcDbSymbolTableRecord
100
AcDbDimStyleTableRecord
  2
STANDARD
 70
0
  3

  4

 40
1.0
 41
0.6267645455
 42
1.0
 43
0.38
 44
1.0
 45
0.0
 46
0.0
 47
0.01
 48
0.01
140
0.8774703637
141
0.09
142
0.0
143
25.4
144
1.0
145
0.0
146
1.0
147
0.625
 71
1
 72
0
 73
0
 74
0
 75
0
 76
0
 77
1
 78
8
 79
2
170
0
171
1
172
0
173
0
174
0
175
0
176
0
177
0
178
0
270
2
179
2
271
2
272
2
273
2
274
2
275
0
280
0
281
0
282
0
283
1
284
8
285
0
286
0
287
3
288
0
340
11
278
46
341
212
342
212
343
212
344
212
  0
ENDTAB
  0
ENDSEC
  0
SECTION
  2
BLOCKS
  0
BLOCK
  5
20
100
AcDbEntity
  8
0
100
AcDbBlockBegin
  2
*Model_Space
 70
0
 10
0.0
 20
0.0
 30
0.0
  3
*Model_Space
  1

  0
ENDBLK
  5
21
100
AcDbEntity
  8
0
100
AcDbBlockEnd
  0
BLOCK
  5
1C
100
AcDbEntity
  8
0
100
AcDbBlockBegin
  2
*Paper_Space
 70
0
 10
0.0
 20
0.0
 30
0.0
  3
*Paper_Space
  1

  0
ENDBLK
  5
1D
100
AcDbEntity
  8
0
100
AcDbBlockEnd
  0
BLOCK
  5
214
100
AcDbEntity
  8
0
100
AcDbBlockBegin
  2
_FILLED
 70
64
 10
0.0
 20
0.0
  3
_FILLED
  1

  0
SOLID
  5
215
100
AcDbEntity
  8
0
  6
BYBLOCK
 62
0
100
AcDbTrace
 10
0.0
 20
0.0
 11
-1.0
 21
0.25
 12
-1.0
 22
-0.25
 13
-1.0
 23
-0.25
  0
ENDBLK
  5
216
100
AcDbEntity
  8
0
  6
BYBLOCK
 62
0
100
AcDbBlockEnd
  0
ENDSEC
  0
SECTION
  2
ENTITIES
  0
LINE
  5
217
100
AcDbEntity
  8
0
100
AcDbLine
 62
7
  6
BYLAYER
 10
10.4782137568
 20
39.4120896989
 11
10.4782137568
 21
35.4120897201
  0
LINE
  5
218
100
AcDbEntity
  8
0
100
AcDbLine
 62
7
  6
BYLAYER
 10
10.7282137568
 20
40.7120897159
 11
10.7282137568
 21
40.2405168406
  0
LINE
  5
219
100
AcDbEntity
  8
0
100
AcDbLine
 62
7
  6
BYLAYER
 10
10.7282137568
 20
34.1120897159
 11
10.7282137568
 21
40.1382632209
  0
LINE
  5
21A
100
AcDbEntity
  8
0
100
AcDbLine
 62
7
  6
BYLAYER
 10
10.6603250459
 20
40.1190782948
 11
10.6747508545
 21
40.1711342557
  0
LINE
  5
21B
100
AcDbEntity
  8
0
100
AcDbLine
 62
7
  6
BYLAYER
 10
11.1505619064
 20
31.4607823732
 11
11.18523223
 21
30.6667014077
  0
LINE
  5
21C
100
AcDbEntity
  8
0
100
AcDbLine
 62
7
  6
BYLAYER
 10
10.9282137568
 20
40.9120897159
 11
10.9282137568
 21
39.6120897159
  0
LINE
  5
21D
100
AcDbEntity
  8
0
100
AcDbLine
 62
7
  6
BYLAYER
 10
10.9282137568
 20
33.9120897159
 11
10.9282137568
 21
35.2120897159
  0
LINE
  5
21E
100
AcDbEntity
  8
0
100
AcDbLine
 62
7
  6
BYLAYER
 10
11.18523223
 20
44.157478024
 11
11.1505619064
 21
43.3633970586
  0
LINE
  5
21F
100
AcDbEntity
  8
0
100
AcDbLine
 62
7
  6
BYLAYER
 10
13.034754272
 20
44.7152160641
 11
12.7957420337
 21
43.9571660915
  0
LINE
  5
220
100
AcDbEntity
  8
0
100
AcDbLine
 62
7
  6
BYLAYER
 10
12.7957420337
 20
30.8670133403
 11
13.034754272
 21
30.1089633677
  0
LINE
  5
221
100
AcDbEntity
  8
0
100
AcDbLine
 62
7
  6
BYLAYER
 10
13.5782137568
 20
41.6120891705
 11
13.5782137568
 21
42.4120897159
  0
LINE
  5
222
100
AcDbEntity
  8
0
100
AcDbLine
 62
7
  6
BYLAYER
 10
14.9656086055
 20
44.7752581125
 11
14.5385427417
 21
44.1048989856
  0
LINE
  5
223
100
AcDbEntity
  8
0
100
AcDbLine
 62
7
  6
BYLAYER
 10
14.5385427417
 20
30.7192804461
 11
14.9656086055
 21
30.0489213192
  0
LINE
  5
224
100
AcDbEntity
  8
0
100
AcDbLine
 62
7
  6
BYLAYER
 10
14.2282137565
 20
41.1620897159
 11
14.2282137565
 21
40.9120897159
  0
LINE
  5
225
100
AcDbEntity
  8
0
100
AcDbLine
 62
7
  6
BYLAYER
 10
14.2282137568
 20
33.9120897159
 11
14.2282137568
 21
33.6620897159
  0
LINE
  5
226
100
AcDbEntity
  8
0
100
AcDbLine
 62
7
  6
BYLAYER
 10
14.8782137568
 20
42.4120897159
 11
14.8782137568
 21
41.6120891407
  0
LINE
  5
227
100
AcDbEntity
  8
0
100
AcDbLine
 62
7
  6
BYLAYER
 10
7.8437754843
 20
35.3801084305
 11
7.3067910698
 21
34.794092774
  0
LINE
  5
228
100
AcDbEntity
  8
0
100
AcDbLine
 62
7
  6
BYLAYER
 10
16.8462106986
 20
44.3335124029
 11
16.2601950422
 21
43.7965279884
  0
LINE
  5
229
100
AcDbEntity
  8
0
100
AcDbLine
 62
7
  6
BYLAYER
 10
16.2601950422
 20
31.0276514433
 11
16.8462106986
 21
30.4906670288
  0
LINE
  5
22A
100
AcDbEntity
  8
0
100
AcDbLine
 62
7
  6
BYLAYER
 10
7.3067910698
 20
40.0300866577
 11
7.8437754843
 21
39.4440710012
  0
LINE
  5
22B
100
AcDbEntity
  8
0
100
AcDbLine
 62
7
  6
BYLAYER
 10
12.1476917212
 20
33.5111129622
 11
12.2282129333
 21
33.6620901551
  0
LINE
  5
22C
100
AcDbEntity
  8
0
100
AcDbLine
 62
7
  6
BYLAYER
 10
7.5354044871
 20
37.101760731
 11
6.8650453602
 21
36.6746948672
  0
LINE
  5
22D
100
AcDbEntity
  8
0
100
AcDbLine
 62
7
  6
BYLAYER
 10
6.8650453602
 20
38.1494845645
 11
7.5354044871
 21
37.7224187007
  0
LINE
  5
22E
100
AcDbEntity
  8
0
100
AcDbLine
 62
7
  6
BYLAYER
 10
12.2282122994
 20
41.1620889386
 11
12.1125964771
 21
41.3788714179
  0
LINE
  5
22F
100
AcDbEntity
  8
0
100
AcDbLine
 62
7
  6
BYLAYER
 10
17.3058656073
 20
43.3633970586
 11
17.2711952836
 21
44.157478024
  0
LINE
  5
230
100
AcDbEntity
  8
0
100
AcDbLine
 62
7
  6
BYLAYER
 10
16.8782137568
 20
36.6800431035
 11
16.8782137568
 21
38.1441363283
  0
LINE
  5
231
100
AcDbEntity
  8
0
100
AcDbLine
 62
7
  6
BYLAYER
 10
17.2711952836
 20
30.6667014077
 11
17.3058656073
 21
31.4607823732
  0
LINE
  5
232
100
AcDbEntity
  8
0
100
AcDbLine
 62
7
  6
BYLAYER
 10
15.4216732417
 20
30.1089633677
 11
15.66068548
 21
30.8670133403
  0
LINE
  5
233
100
AcDbEntity
  8
0
100
AcDbLine
 62
7
  6
BYLAYER
 10
15.66068548
 20
43.9571660915
 11
15.4216732417
 21
44.7152160641
  0
LINE
  5
234
100
AcDbEntity
  8
0
100
AcDbLine
 62
7
  6
BYLAYER
 10
13.4908189082
 20
30.0489213192
 11
13.917884772
 21
30.7192804461
  0
LINE
  5
235
100
AcDbEntity
  8
0
100
AcDbLine
 62
7
  6
BYLAYER
 10
14.2282137568
 20
29.4120897159
 11
36.8782137568
 21
29.4120897159
  0
LINE
  5
236
100
AcDbEntity
  8
0
100
AcDbLine
 62
7
  6
BYLAYER
 10
37.5782137568
 20
29.5120897159
 11
37.1282137568
 21
29.5120897159
  0
LINE
  5
237
100
AcDbEntity
  8
0
100
AcDbLine
 62
7
  6
BYLAYER
 10
16.5086205406
 20
29.6978040016
 11
36.8782137568
 21
29.6978040016
  0
LINE
  5
238
100
AcDbEntity
  8
0
100
AcDbLine
 62
7
  6
BYLAYER
 10
13.917884772
 20
44.1048989856
 11
13.4908189082
 21
44.7752581125
  0
LINE
  5
239
100
AcDbEntity
  8
0
100
AcDbLine
 62
7
  6
BYLAYER
 10
20.6126520294
 20
39.4440710012
 11
21.1496364439
 21
40.0300866577
  0
LINE
  5
23A
100
AcDbEntity
  8
0
100
AcDbLine
 62
7
  6
BYLAYER
 10
7.6831373812
 20
38.844561439
 11
6.9250874086
 21
38.6055492007
  0
LINE
  5
23B
100
AcDbEntity
  8
0
100
AcDbLine
 62
7
  6
BYLAYER
 10
6.9250874086
 20
36.218630231
 11
7.6831373812
 21
35.9796179927
  0
LINE
  5
23C
100
AcDbEntity
  8
0
100
AcDbLine
 62
7
  6
BYLAYER
 10
21.1496364439
 20
34.794092774
 11
20.6126520294
 21
35.3801084305
  0
LINE
  5
23D
100
AcDbEntity
  8
0
100
AcDbLine
 62
7
  6
BYLAYER
 10
11.610216815
 20
30.4906670288
 11
12.1962324715
 21
31.0276514433
  0
LINE
  5
23E
100
AcDbEntity
  8
0
100
AcDbLine
 62
7
  6
BYLAYER
 10
15.295921582
 20
31.7620897159
 11
13.1605059316
 21
31.7620897159
  0
LINE
  5
23F
100
AcDbEntity
  8
0
100
AcDbLine
 62
7
  6
BYLAYER
 10
12.1962324715
 20
43.7965279884
 11
11.610216815
 21
44.3335124029
  0
LINE
  5
240
100
AcDbEntity
  8
0
100
AcDbLine
 62
7
  6
BYLAYER
 10
20.9210230266
 20
37.7224187007
 11
21.5913821535
 21
38.1494845645
  0
LINE
  5
241
100
AcDbEntity
  8
0
100
AcDbLine
 62
7
  6
BYLAYER
 10
38.6782137568
 20
33.4120897159
 11
46.8448184654
 21
33.4120897159
  0
LINE
  5
242
100
AcDbEntity
  8
0
100
AcDbLine
 62
7
  6
BYLAYER
 10
12.2282137568
 20
33.6620897159
 11
14.2282137568
 21
33.6620899256
  0
LINE
  5
243
100
AcDbEntity
  8
0
100
AcDbLine
 62
7
  6
BYLAYER
 10
10.9282137568
 20
33.9120897159
 11
14.2282137566
 21
33.9120897159
  0
LINE
  5
244
100
AcDbEntity
  8
0
100
AcDbLine
 62
7
  6
BYLAYER
 10
15.215846039
 20
34.1120897159
 11
10.9282137568
 21
34.1120897159
  0
LINE
  5
245
100
AcDbEntity
  8
0
100
AcDbLine
 62
7
  6
BYLAYER
 10
7.4828254487
 20
34.3691081891
 11
8.2769064141
 21
34.3344378654
  0
LINE
  5
246
100
AcDbEntity
  8
0
100
AcDbLine
 62
7
  6
BYLAYER
 10
16.8782137568
 20
36.6800389083
 11
17.5492180364
 21
36.5002438535
  0
LINE
  5
247
100
AcDbEntity
  8
0
100
AcDbLine
 62
7
  6
BYLAYER
 10
21.5913821535
 20
36.6746948672
 11
20.9210230266
 21
37.101760731
  0
LINE
  5
248
100
AcDbEntity
  8
0
100
AcDbLine
 62
7
  6
BYLAYER
 10
20.1795210995
 20
34.3344378654
 11
20.973602065
 21
34.3691081891
  0
LINE
  5
249
100
AcDbEntity
  8
0
100
AcDbLine
 62
7
  6
BYLAYER
 10
10.7282137568
 20
35.4120896694
 11
10.4782137568
 21
35.4120896694
  0
LINE
  5
24A
100
AcDbEntity
  8
0
100
AcDbLine
 62
7
  6
BYLAYER
 10
36.8782137568
 20
35.7757828987
 11
32.3782137568
 21
35.7757828978
  0
LINE
  5
24B
100
AcDbEntity
  8
0
100
AcDbLine
 62
7
  6
BYLAYER
 10
20.7732901324
 20
35.9796179927
 11
21.531340105
 21
36.218630231
  0
LINE
  5
24C
100
AcDbEntity
  8
0
100
AcDbLine
 62
7
  6
BYLAYER
 10
10.7282137568
 20
36.4120897159
 11
17.5319133427
 21
36.4120897159
  0
LINE
  5
24D
100
AcDbEntity
  8
0
100
AcDbLine
 62
7
  6
BYLAYER
 10
16.9452010549
 20
36.6620897159
 11
10.7282137568
 21
36.6620897159
  0
LINE
  5
24E
100
AcDbEntity
  8
0
100
AcDbLine
 62
7
  6
BYLAYER
 10
22.2282091804
 20
37.4120897279
 11
22.4782137565
 21
37.4120898175
  0
LINE
  5
24F
100
AcDbEntity
  8
0
100
AcDbLine
 62
7
  6
BYLAYER
 10
21.531340105
 20
38.6055492007
 11
20.7732901324
 21
38.844561439
  0
LINE
  5
250
100
AcDbEntity
  8
0
100
AcDbLine
 62
7
  6
BYLAYER
 10
10.7282137568
 20
38.1620897159
 11
16.9452010549
 21
38.1620897159
  0
LINE
  5
251
100
AcDbEntity
  8
0
100
AcDbLine
 62
7
  6
BYLAYER
 10
17.5293013894
 20
38.4120897159
 11
10.7282137568
 21
38.4120897159
  0
LINE
  5
252
100
AcDbEntity
  8
0
100
AcDbLine
 62
7
  6
BYLAYER
 10
32.3782137568
 20
39.048396534
 11
36.8782137568
 21
39.0483965331
  0
LINE
  5
253
100
AcDbEntity
  8
0
100
AcDbLine
 62
7
  6
BYLAYER
 10
10.4782137568
 20
39.4120897159
 11
10.7282137568
 21
39.4120897159
  0
LINE
  5
254
100
AcDbEntity
  8
0
100
AcDbLine
 62
7
  6
BYLAYER
 10
20.973602065
 20
40.4550712426
 11
20.1795210995
 21
40.4897415663
  0
LINE
  5
255
100
AcDbEntity
  8
0
100
AcDbLine
 62
7
  6
BYLAYER
 10
16.8782137568
 20
38.1441405234
 11
17.546956855
 21
38.3233296965
  0
LINE
  5
256
100
AcDbEntity
  8
0
100
AcDbLine
 62
7
  6
BYLAYER
 10
8.2769064141
 20
40.4897415663
 11
7.4828254487
 21
40.4550712426
  0
LINE
  5
257
100
AcDbEntity
  8
0
100
AcDbLine
 62
7
  6
BYLAYER
 10
10.9282137568
 20
40.7120897159
 11
15.2336816552
 21
40.7120897159
  0
LINE
  5
258
100
AcDbEntity
  8
0
100
AcDbLine
 62
7
  6
BYLAYER
 10
10.9282137568
 20
40.9120897159
 11
14.2282137565
 21
40.9120897159
  0
LINE
  5
259
100
AcDbEntity
  8
0
100
AcDbLine
 62
7
  6
BYLAYER
 10
14.2282094694
 20
41.1620897159
 11
12.2282137568
 21
41.1620897159
  0
LINE
  5
25A
100
AcDbEntity
  8
0
100
AcDbLine
 62
7
  6
BYLAYER
 10
38.6782137568
 20
41.4120897159
 11
46.8448184654
 21
41.4120897159
  0
LINE
  5
25B
100
AcDbEntity
  8
0
100
AcDbLine
 62
7
  6
BYLAYER
 10
32.3782137568
 20
39.0483965317
 11
32.3782137568
 21
35.7757829
  0
LINE
  5
25C
100
AcDbEntity
  8
0
100
AcDbLine
 62
7
  6
BYLAYER
 10
13.5782137568
 20
42.1620897159
 11
14.8782137568
 21
42.1620897159
  0
LINE
  5
25D
100
AcDbEntity
  8
0
100
AcDbLine
 62
7
  6
BYLAYER
 10
14.8782137568
 20
42.4120897159
 11
13.5782137568
 21
42.4120897159
  0
LINE
  5
25E
100
AcDbEntity
  8
0
100
AcDbLine
 62
7
  6
BYLAYER
 10
13.1605059316
 20
43.0620897159
 11
15.295921582
 21
43.0620897159
  0
LINE
  5
25F
100
AcDbEntity
  8
0
100
AcDbLine
 62
7
  6
BYLAYER
 10
36.8782137568
 20
45.1263754301
 11
16.5086205407
 21
45.1263754301
  0
LINE
  5
260
100
AcDbEntity
  8
0
100
AcDbLine
 62
7
  6
BYLAYER
 10
37.5782137568
 20
45.3120897159
 11
37.1282137568
 21
45.3120897159
  0
LINE
  5
261
100
AcDbEntity
  8
0
100
AcDbLine
 62
7
  6
BYLAYER
 10
36.8782137568
 20
45.4120897159
 11
14.2282137568
 21
45.4120897159
  0
LINE
  5
262
100
AcDbEntity
  8
0
100
AcDbLine
 62
7
  6
BYLAYER
 10
36.8782137568
 20
45.4120897159
 11
36.8782137568
 21
29.4120897159
  0
LINE
  5
263
100
AcDbEntity
  8
0
100
AcDbLine
 62
7
  6
BYLAYER
 10
37.1282137568
 20
29.5120897159
 11
37.1282137568
 21
45.3120897159
  0
LINE
  5
264
100
AcDbEntity
  8
0
100
AcDbLine
 62
7
  6
BYLAYER
 10
37.5782137568
 20
45.3120897159
 11
37.5782137568
 21
29.5120897159
  0
LINE
  5
265
100
AcDbEntity
  8
0
100
AcDbLine
 62
7
  6
BYLAYER
 10
38.1782137568
 20
33.7827711935
 11
38.1782137568
 21
33.5781440183
  0
LINE
  5
266
100
AcDbEntity
  8
0
100
AcDbLine
 62
7
  6
BYLAYER
 10
38.2188874211
 20
45.0234049045
 11
38.2188874211
 21
41.4159042586
  0
LINE
  5
267
100
AcDbEntity
  8
0
100
AcDbLine
 62
7
  6
BYLAYER
 10
38.2188874211
 20
41.0195899622
 11
38.2188874211
 21
33.8045890558
  0
LINE
  5
268
100
AcDbEntity
  8
0
100
AcDbLine
 62
7
  6
BYLAYER
 10
38.2188874211
 20
33.4082747735
 11
38.2188874211
 21
29.8007745131
  0
LINE
  5
269
100
AcDbEntity
  8
0
100
AcDbLine
 62
7
  6
BYLAYER
 10
38.2782137568
 20
40.955205518
 11
38.2782137568
 21
33.8689739138
  0
LINE
  5
26A
100
AcDbEntity
  8
0
100
AcDbLine
 62
7
  6
BYLAYER
 10
38.2782137568
 20
33.5477244038
 11
38.2782137568
 21
29.8928454097
  0
LINE
  5
26B
100
AcDbEntity
  8
0
100
AcDbLine
 62
7
  6
BYLAYER
 10
38.2782137568
 20
41.2764550279
 11
38.2782137568
 21
44.931334022
  0
LINE
  5
26C
100
AcDbEntity
  8
0
100
AcDbLine
 62
7
  6
BYLAYER
 10
38.6782137568
 20
42.4120841901
 11
38.6782137568
 21
32.4120952416
  0
LINE
  5
26D
100
AcDbEntity
  8
0
100
AcDbLine
 62
7
  6
BYLAYER
 10
38.6782137568
 20
32.4120897159
 11
38.2782137568
 21
32.0120897159
  0
LINE
  5
26E
100
AcDbEntity
  8
0
100
AcDbLine
 62
7
  6
BYLAYER
 10
37.6848946769
 20
29.559772191
 11
37.5782137568
 21
29.5120931996
  0
LINE
  5
26F
100
AcDbEntity
  8
0
100
AcDbLine
 62
7
  6
BYLAYER
 10
37.1282137568
 20
29.5120897159
 11
36.8782137568
 21
29.4120897159
  0
LINE
  5
270
100
AcDbEntity
  8
0
100
AcDbLine
 62
7
  6
BYLAYER
 10
37.1282137568
 20
45.3120897159
 11
36.8782137568
 21
45.4120897159
  0
LINE
  5
271
100
AcDbEntity
  8
0
100
AcDbLine
 62
7
  6
BYLAYER
 10
37.5782137568
 20
45.3120905616
 11
37.6849264438
 21
45.2644877332
  0
LINE
  5
272
100
AcDbEntity
  8
0
100
AcDbLine
 62
7
  6
BYLAYER
 10
38.6782137568
 20
42.4120897159
 11
38.2782137568
 21
42.8120897159
  0
LINE
  5
273
100
AcDbEntity
  8
0
100
AcDbLine
 62
7
  6
BYLAYER
 10
46.8448184654
 20
41.4120897159
 11
46.8448184654
 21
33.4120897159
  0
LINE
  5
274
100
AcDbEntity
  8
0
100
AcDbLine
 62
7
  6
BYLAYER
 10
47.1221361922
 20
33.5976568605
 11
47.1221361922
 21
41.2265225712
  0
ARC
  5
275
100
AcDbEntity
  8
0
100
AcDbCircle
 62
7
  6
BYLAYER
 10
-43.2391240684
 20
-110.5845057808
 40
172.1023245186
100
AcDbArc
 50
61.7505353939
 51
61.9923868395
  0
ARC
  5
276
100
AcDbEntity
  8
0
100
AcDbCircle
 62
7
  6
BYLAYER
 10
-42.0567325049
 20
183.1969154301
 40
169.5943459439
100
AcDbArc
 50
298.0058251397
 51
298.2512594572
  0
ARC
  5
277
100
AcDbEntity
  8
0
100
AcDbCircle
 62
7
  6
BYLAYER
 10
47.7315282567
 20
-75.6717088485
 40
117.4733986655
100
AcDbArc
 50
94.6447230207
 51
94.9583038951
  0
ARC
  5
278
100
AcDbEntity
  8
0
100
AcDbCircle
 62
7
  6
BYLAYER
 10
6.4482029359
 20
-24.6328590193
 40
76.55959756
100
AcDbArc
 50
65.4819680774
 51
65.9204060984
  0
ARC
  5
279
100
AcDbEntity
  8
0
100
AcDbCircle
 62
7
  6
BYLAYER
 10
14.2315126073
 20
36.1938296386
 40
9.2182606676
100
AcDbArc
 50
76.0870340644
 51
90.020503891
  0
ARC
  5
27A
100
AcDbEntity
  8
0
100
AcDbCircle
 62
7
  6
BYLAYER
 10
46.8448184654
 20
33.7120897159
 40
0.3
100
AcDbArc
 50
270.0
 51
337.576887393
  0
ARC
  5
27B
100
AcDbEntity
  8
0
100
AcDbCircle
 62
7
  6
BYLAYER
 10
10.7282137568
 20
35.2120897159
 40
0.2
100
AcDbArc
 50
0.0
 51
90.0
  0
ARC
  5
27C
100
AcDbEntity
  8
0
100
AcDbCircle
 62
7
  6
BYLAYER
 10
10.9282137568
 20
34.1120897159
 40
0.2
100
AcDbArc
 50
180.0
 51
270.0
  0
ARC
  5
27D
100
AcDbEntity
  8
0
100
AcDbCircle
 62
7
  6
BYLAYER
 10
10.7282137568
 20
39.6120897159
 40
0.2
100
AcDbArc
 50
270.0
 51
360.0
  0
ARC
  5
27E
100
AcDbEntity
  8
0
100
AcDbCircle
 62
7
  6
BYLAYER
 10
10.9282137568
 20
40.7120897159
 40
0.2
100
AcDbArc
 50
90.0
 51
180.0
  0
ARC
  5
27F
100
AcDbEntity
  8
0
100
AcDbCircle
 62
7
  6
BYLAYER
 10
14.2619598575
 20
36.3387170343
 40
9.0703045322
100
AcDbArc
 50
75.6588987793
 51
76.0536567559
  0
CIRCLE
  5
280
100
AcDbEntity
  8
0
100
AcDbCircle
 62
7
  6
BYLAYER
 10
14.2282137568
 20
37.4120897159
 40
8.0
  0
ARC
  5
281
100
AcDbEntity
  8
0
100
AcDbCircle
 62
7
  6
BYLAYER
 10
14.2282137568
 20
37.4120897159
 40
7.4
100
AcDbArc
 50
350.7188983855
 51
354.2811016145
  0
ARC
  5
282
100
AcDbEntity
  8
0
100
AcDbCircle
 62
7
  6
BYLAYER
 10
14.2282137568
 20
37.4120897159
 40
7.4
100
AcDbArc
 50
335.7188983855
 51
339.2811016145
  0
ARC
  5
283
100
AcDbEntity
  8
0
100
AcDbCircle
 62
7
  6
BYLAYER
 10
14.2282137568
 20
37.4120897159
 40
7.4
100
AcDbArc
 50
290.7188983855
 51
294.2811016145
  0
ARC
  5
284
100
AcDbEntity
  8
0
100
AcDbCircle
 62
7
  6
BYLAYER
 10
14.2282137568
 20
37.4120897159
 40
7.4
100
AcDbArc
 50
275.7188983855
 51
279.2811016145
  0
ARC
  5
285
100
AcDbEntity
  8
0
100
AcDbCircle
 62
7
  6
BYLAYER
 10
14.2282137568
 20
37.4120897159
 40
7.4
100
AcDbArc
 50
260.7188983855
 51
264.2811016145
  0
ARC
  5
286
100
AcDbEntity
  8
0
100
AcDbCircle
 62
7
  6
BYLAYER
 10
14.2282137568
 20
37.4120897159
 40
7.4
100
AcDbArc
 50
245.7188983855
 51
249.2811016145
  0
ARC
  5
287
100
AcDbEntity
  8
0
100
AcDbCircle
 62
7
  6
BYLAYER
 10
14.2282137568
 20
37.4120897159
 40
7.4
100
AcDbArc
 50
155.7188983855
 51
159.2811016145
  0
ARC
  5
288
100
AcDbEntity
  8
0
100
AcDbCircle
 62
7
  6
BYLAYER
 10
14.2282137568
 20
37.4120897159
 40
7.4
100
AcDbArc
 50
200.7188983855
 51
204.2811016145
  0
ARC
  5
289
100
AcDbEntity
  8
0
100
AcDbCircle
 62
7
  6
BYLAYER
 10
14.2282137568
 20
37.4120897159
 40
7.4
100
AcDbArc
 50
185.7188983855
 51
189.2811016145
  0
ARC
  5
28A
100
AcDbEntity
  8
0
100
AcDbCircle
 62
7
  6
BYLAYER
 10
14.2282137568
 20
37.4120897159
 40
7.4
100
AcDbArc
 50
170.7188983855
 51
174.2811016145
  0
ARC
  5
28B
100
AcDbEntity
  8
0
100
AcDbCircle
 62
7
  6
BYLAYER
 10
14.2282137568
 20
37.4120897159
 40
7.4
100
AcDbArc
 50
110.7188983855
 51
114.2811016145
  0
ARC
  5
28C
100
AcDbEntity
  8
0
100
AcDbCircle
 62
7
  6
BYLAYER
 10
14.2282137568
 20
37.4120897159
 40
7.4
100
AcDbArc
 50
95.7188983855
 51
99.2811016145
  0
ARC
  5
28D
100
AcDbEntity
  8
0
100
AcDbCircle
 62
7
  6
BYLAYER
 10
14.2282137568
 20
37.4120897159
 40
7.4
100
AcDbArc
 50
5.7188983855
 51
9.2811016145
  0
ARC
  5
28E
100
AcDbEntity
  8
0
100
AcDbCircle
 62
7
  6
BYLAYER
 10
14.2282137568
 20
37.4120897159
 40
7.4
100
AcDbArc
 50
80.7188983855
 51
84.2811016145
  0
ARC
  5
28F
100
AcDbEntity
  8
0
100
AcDbCircle
 62
7
  6
BYLAYER
 10
14.2282137568
 20
37.4120897159
 40
7.4
100
AcDbArc
 50
65.7188983855
 51
69.2811016145
  0
ARC
  5
290
100
AcDbEntity
  8
0
100
AcDbCircle
 62
7
  6
BYLAYER
 10
14.2282137568
 20
37.4120897159
 40
7.4
100
AcDbArc
 50
20.7188983855
 51
24.2811016145
  0
ARC
  5
291
100
AcDbEntity
  8
0
100
AcDbCircle
 62
7
  6
BYLAYER
 10
14.2282137568
 20
37.4120897159
 40
7.2
100
AcDbArc
 50
349.9127185415
 51
355.087281476
  0
ARC
  5
292
100
AcDbEntity
  8
0
100
AcDbCircle
 62
7
  6
BYLAYER
 10
14.2282137568
 20
37.4120897159
 40
7.2
100
AcDbArc
 50
334.9127185415
 51
340.087281476
  0
ARC
  5
293
100
AcDbEntity
  8
0
100
AcDbCircle
 62
7
  6
BYLAYER
 10
14.2282137568
 20
37.4120897159
 40
7.2
100
AcDbArc
 50
289.9127185415
 51
295.087281476
  0
ARC
  5
294
100
AcDbEntity
  8
0
100
AcDbCircle
 62
7
  6
BYLAYER
 10
14.2282137568
 20
37.4120897159
 40
7.2
100
AcDbArc
 50
274.9127185415
 51
280.087281476
  0
ARC
  5
295
100
AcDbEntity
  8
0
100
AcDbCircle
 62
7
  6
BYLAYER
 10
14.2282137568
 20
37.4120897159
 40
7.2
100
AcDbArc
 50
259.9127185415
 51
265.087281476
  0
ARC
  5
296
100
AcDbEntity
  8
0
100
AcDbCircle
 62
7
  6
BYLAYER
 10
14.2282137568
 20
37.4120897159
 40
7.2
100
AcDbArc
 50
154.9127185521
 51
160.0872814469
  0
ARC
  5
297
100
AcDbEntity
  8
0
100
AcDbCircle
 62
7
  6
BYLAYER
 10
14.2282137568
 20
37.4120897159
 40
7.2
100
AcDbArc
 50
244.9127185415
 51
250.087281476
  0
ARC
  5
298
100
AcDbEntity
  8
0
100
AcDbCircle
 62
7
  6
BYLAYER
 10
14.2282137568
 20
37.4120897159
 40
7.2
100
AcDbArc
 50
199.9127185521
 51
205.0872814469
  0
ARC
  5
299
100
AcDbEntity
  8
0
100
AcDbCircle
 62
7
  6
BYLAYER
 10
14.2282137568
 20
37.4120897159
 40
7.2
100
AcDbArc
 50
184.9127185521
 51
190.0872814469
  0
ARC
  5
29A
100
AcDbEntity
  8
0
100
AcDbCircle
 62
7
  6
BYLAYER
 10
14.2282137568
 20
37.4120897159
 40
7.2
100
AcDbArc
 50
109.9127185521
 51
115.0872814469
  0
ARC
  5
29B
100
AcDbEntity
  8
0
100
AcDbCircle
 62
7
  6
BYLAYER
 10
14.2282137568
 20
37.4120897159
 40
7.2
100
AcDbArc
 50
169.9127185521
 51
175.0872814469
  0
ARC
  5
29C
100
AcDbEntity
  8
0
100
AcDbCircle
 62
7
  6
BYLAYER
 10
14.2282137568
 20
37.4120897159
 40
7.2
100
AcDbArc
 50
94.9127185521
 51
100.0872814469
  0
ARC
  5
29D
100
AcDbEntity
  8
0
100
AcDbCircle
 62
7
  6
BYLAYER
 10
14.2282137568
 20
37.4120897159
 40
7.2
100
AcDbArc
 50
79.9127185521
 51
85.0872814469
  0
ARC
  5
29E
100
AcDbEntity
  8
0
100
AcDbCircle
 62
7
  6
BYLAYER
 10
14.2282137568
 20
37.4120897159
 40
7.2
100
AcDbArc
 50
4.9127185415
 51
10.087281476
  0
ARC
  5
29F
100
AcDbEntity
  8
0
100
AcDbCircle
 62
7
  6
BYLAYER
 10
14.2282137568
 20
37.4120897159
 40
7.2
100
AcDbArc
 50
64.9127185521
 51
70.0872814469
  0
ARC
  5
2A0
100
AcDbEntity
  8
0
100
AcDbCircle
 62
7
  6
BYLAYER
 10
14.2282137568
 20
37.4120897159
 40
7.2
100
AcDbArc
 50
19.9127185415
 51
25.087281476
  0
CIRCLE
  5
2A1
100
AcDbEntity
  8
0
100
AcDbCircle
 62
7
  6
BYLAYER
 10
14.2282137568
 20
37.4120897159
 40
6.7
  0
CIRCLE
  5
2A2
100
AcDbEntity
  8
0
100
AcDbCircle
 62
7
  6
BYLAYER
 10
14.2282137568
 20
37.4120897159
 40
6.5
  0
CIRCLE
  5
2A3
100
AcDbEntity
  8
0
100
AcDbCircle
 62
7
  6
BYLAYER
 10
14.2282137568
 20
37.4120897159
 40
6.35
  0
ARC
  5
2A4
100
AcDbEntity
  8
0
100
AcDbCircle
 62
7
  6
BYLAYER
 10
14.2282137568
 20
37.4120897159
 40
5.75
100
AcDbArc
 50
280.7012654404
 51
79.2987345596
  0
ARC
  5
2A5
100
AcDbEntity
  8
0
100
AcDbCircle
 62
7
  6
BYLAYER
 10
14.2282137568
 20
37.4120897159
 40
5.75
100
AcDbArc
 50
100.7012654404
 51
259.2987345596
  0
CIRCLE
  5
2A6
100
AcDbEntity
  8
0
100
AcDbCircle
 62
7
  6
BYLAYER
 10
14.2282137568
 20
37.4120897159
 40
5.4999998494
  0
CIRCLE
  5
2A7
100
AcDbEntity
  8
0
100
AcDbCircle
 62
7
  6
BYLAYER
 10
14.2282137568
 20
37.4120897159
 40
5.25
  0
ARC
  5
2A8
100
AcDbEntity
  8
0
100
AcDbCircle
 62
7
  6
BYLAYER
 10
14.2282137568
 20
37.4120897159
 40
4.5
100
AcDbArc
 50
98.3051095281
 51
128.9424403558
  0
ARC
  5
2A9
100
AcDbEntity
  8
0
100
AcDbCircle
 62
7
  6
BYLAYER
 10
14.2282137568
 20
37.4120897159
 40
4.5
100
AcDbArc
 50
231.0575568018
 51
81.6948904719
  0
ARC
  5
2AA
100
AcDbEntity
  8
0
100
AcDbCircle
 62
7
  6
BYLAYER
 10
14.2282137568
 20
37.4120897159
 40
4.5
100
AcDbArc
 50
141.057558731
 51
218.942441269
  0
ARC
  5
2AB
100
AcDbEntity
  8
0
100
AcDbCircle
 62
7
  6
BYLAYER
 10
14.2282137568
 20
37.4120897159
 40
4.25
100
AcDbArc
 50
151.9275132656
 51
208.0724868855
  0
ARC
  5
2AC
100
AcDbEntity
  8
0
100
AcDbCircle
 62
7
  6
BYLAYER
 10
14.2282137568
 20
37.4120897159
 40
4.25
100
AcDbArc
 50
241.927513064
 51
81.2025900092
  0
ARC
  5
2AD
100
AcDbEntity
  8
0
100
AcDbCircle
 62
7
  6
BYLAYER
 10
14.2282137568
 20
37.4120897159
 40
4.25
100
AcDbArc
 50
98.7974102892
 51
118.072486936
  0
ARC
  5
2AE
100
AcDbEntity
  8
0
100
AcDbCircle
 62
7
  6
BYLAYER
 10
14.2282137568
 20
37.4120897159
 40
3.7499995806
100
AcDbArc
 50
270.0
 51
90.0000655074
  0
ARC
  5
2AF
100
AcDbEntity
  8
0
100
AcDbCircle
 62
7
  6
BYLAYER
 10
14.2282137568
 20
37.4120897159
 40
3.5
100
AcDbArc
 50
269.999999998
 51
90.0000000023
  0
ARC
  5
2B0
100
AcDbEntity
  8
0
100
AcDbCircle
 62
7
  6
BYLAYER
 10
14.2619520103
 20
38.4854962947
 40
9.0703393169
100
AcDbArc
 50
283.9463351482
 51
284.3410962086
  0
ARC
  5
2B1
100
AcDbEntity
  8
0
100
AcDbCircle
 62
7
  6
BYLAYER
 10
14.3765015179
 20
37.2950574131
 40
8.1112817279
100
AcDbArc
 50
66.7743166033
 51
68.0971437904
  0
ARC
  5
2B2
100
AcDbEntity
  8
0
100
AcDbCircle
 62
7
  6
BYLAYER
 10
14.2316634444
 20
38.6294056763
 40
9.2173079768
100
AcDbArc
 50
270.1207521428
 51
283.9134624225
  0
ARC
  5
2B3
100
AcDbEntity
  8
0
100
AcDbCircle
 62
7
  6
BYLAYER
 10
6.6197182492
 20
99.076220439
 40
76.1419383602
100
AcDbArc
 50
294.0786803627
 51
294.519538236
  0
ARC
  5
2B4
100
AcDbEntity
  8
0
100
AcDbCircle
 62
7
  6
BYLAYER
 10
37.8782137568
 20
37.4120897159
 40
10.0
100
AcDbArc
 50
337.5768882255
 51
22.4231117745
  0
ARC
  5
2B5
100
AcDbEntity
  8
0
100
AcDbCircle
 62
7
  6
BYLAYER
 10
46.8448184654
 20
41.1120897159
 40
0.3
100
AcDbArc
 50
22.423112607
 51
90.0
  0
ARC
  5
2B6
100
AcDbEntity
  8
0
100
AcDbCircle
 62
7
  6
BYLAYER
 10
47.8905688412
 20
152.3892408138
 40
119.3734142775
100
AcDbArc
 50
265.0441913028
 51
265.3527730696
  0
SPLINE
  5
2B7
100
AcDbEntity
  8
0
100
AcDbSpline
 62
7
  6
BYLAYER
 70
0
 71
3
 72
11
 73
7
 74
0
 42
0.0000001
 43
0.0000001
 44
0.0000000001
 40
0.0
 40
0.0
 40
0.0
 40
0.0
 40
0.3092985013
 40
0.5873527443
 40
0.8187831824
 40
1.0
 40
1.0
 40
1.0
 40
1.0
 10
38.2188742506
 20
41.0195990929
 30
0.0
 10
38.2271103391
 20
41.0151732007
 30
0.0
 10
38.2422519506
 20
41.0057865877
 30
0.0
 10
38.2611903423
 20
40.9896358297
 30
0.0
 10
38.2741003267
 20
40.9730397684
 30
0.0
 10
38.2782137568
 20
40.9606836217
 30
0.0
 10
38.2782137568
 20
40.955205518
 30
0.0
  0
SPLINE
  5
2B8
100
AcDbEntity
  8
0
100
AcDbSpline
 62
7
  6
BYLAYER
 70
0
 71
3
 72
9
 73
5
 74
0
 42
0.0000001
 43
0.0000001
 44
0.0000000001
 40
0.0
 40
0.0
 40
0.0
 40
0.0
 40
0.4930428313
 40
1.0
 40
1.0
 40
1.0
 40
1.0
 10
38.2188742506
 20
45.023414372
 30
0.0
 10
38.2359436126
 20
45.0156279045
 30
0.0
 10
38.2667016598
 20
44.9895091441
 30
0.0
 10
38.2782137568
 20
44.9506249507
 30
0.0
 10
38.2782137568
 20
44.931334022
 30
0.0
  0
SPLINE
  5
2B9
100
AcDbEntity
  8
0
100
AcDbSpline
 62
7
  6
BYLAYER
 70
0
 71
3
 72
9
 73
5
 74
0
 42
0.0000001
 43
0.0000001
 44
0.0000000001
 40
0.0
 40
0.0
 40
0.0
 40
0.0
 40
0.506960946
 40
1.0
 40
1.0
 40
1.0
 40
1.0
 10
38.2782137568
 20
29.8928454097
 30
0.0
 10
38.2782137568
 20
29.8735578552
 30
0.0
 10
38.2667047588
 20
29.8346820486
 30
0.0
 10
38.2359569051
 20
29.8085619263
 30
0.0
 10
38.2188907866
 20
29.8007769385
 30
0.0
  0
SPLINE
  5
2BA
100
AcDbEntity
  8
0
100
AcDbSpline
 62
7
  6
BYLAYER
 70
0
 71
3
 72
11
 73
7
 74
0
 42
0.0000001
 43
0.0000001
 44
0.0000000001
 40
0.0
 40
0.0
 40
0.0
 40
0.0
 40
0.1812458826
 40
0.4126499471
 40
0.690679005
 40
1.0
 40
1.0
 40
1.0
 40
1.0
 10
38.2782137568
 20
33.8689739138
 30
0.0
 10
38.2782137568
 20
33.8634961902
 30
0.0
 10
38.2740984306
 20
33.8511437327
 30
0.0
 10
38.2611961987
 20
33.8345494715
 30
0.0
 10
38.2422622016
 20
33.8184030709
 30
0.0
 10
38.2271255818
 20
33.8090165898
 30
0.0
 10
38.2188907866
 20
33.8045913927
 30
0.0
  0
SPLINE
  5
2BB
100
AcDbEntity
  8
0
100
AcDbSpline
 62
7
  6
BYLAYER
 70
0
 71
3
 72
9
 73
5
 74
0
 42
0.0000001
 43
0.0000001
 44
0.0000000001
 40
0.0
 40
0.0
 40
0.0
 40
0.0
 40
0.2731521391
 40
1.0
 40
1.0
 40
1.0
 40
1.0
 10
10.4782139543
 20
39.4120896508
 30
0.0
 10
10.4927496313
 20
39.474351004
 30
0.0
 10
10.5476245568
 20
39.7019012938
 30
0.0
 10
10.6077277442
 20
39.928157126
 30
0.0
 10
10.6528954447
 20
40.0921821352
 30
0.0
  0
LINE
  5
2BC
100
AcDbEntity
  8
0
100
AcDbLine
 62
7
  6
BYLAYER
 10
10.6528954447
 20
40.0921821352
 11
10.6607916694
 21
40.1208005606
  0
SPLINE
  5
2BD
100
AcDbEntity
  8
0
100
AcDbSpline
 62
7
  6
BYLAYER
 70
0
 71
3
 72
12
 73
8
 74
0
 42
0.0000001
 43
0.0000001
 44
0.0000000001
 40
0.0
 40
0.0
 40
0.0
 40
0.0
 40
0.3259053016
 40
0.5946528733
 40
0.8070354043
 40
0.9028328127
 40
1.0
 40
1.0
 40
1.0
 40
1.0
 10
38.2188742508
 20
33.4082744368
 30
0.0
 10
38.2267658449
 20
33.4076335475
 30
0.0
 10
38.2413110355
 20
33.4075768186
 30
0.0
 10
38.2606749907
 20
33.4117118426
 30
0.0
 10
38.272856524
 20
33.4199827346
 30
0.0
 10
38.2775062493
 20
33.428872137
 30
0.0
 10
38.2782137568
 20
33.4336006227
 30
0.0
 10
38.2782137568
 20
33.4359612119
 30
0.0
  0
LINE
  5
2BE
100
AcDbEntity
  8
0
100
AcDbLine
 62
7
  6
BYLAYER
 10
10.6675562909
 20
34.6789465204
 11
10.6607954101
 21
34.7033653362
  0
LINE
  5
2BF
100
AcDbEntity
  8
0
100
AcDbLine
 62
7
  6
BYLAYER
 10
10.6607954101
 20
34.7033653362
 11
10.6527434926
 21
34.7325491235
  0
SPLINE
  5
2C0
100
AcDbEntity
  8
0
100
AcDbSpline
 62
7
  6
BYLAYER
 70
0
 71
3
 72
9
 73
5
 74
0
 42
0.0000001
 43
0.0000001
 44
0.0000000001
 40
0.0
 40
0.0
 40
0.0
 40
0.0
 40
0.2138467479
 40
1.0
 40
1.0
 40
1.0
 40
1.0
 10
10.6527434926
 20
34.7325491235
 30
0.0
 10
10.6394666458
 20
34.7807673377
 30
0.0
 10
10.5779825772
 20
35.0064088442
 30
0.0
 10
10.5200140592
 20
35.2330454066
 30
0.0
 10
10.4782139526
 20
35.4120897805
 30
0.0
  0
SPLINE
  5
2C1
100
AcDbEntity
  8
0
100
AcDbSpline
 62
7
  6
BYLAYER
 70
0
 71
3
 72
21
 73
17
 74
0
 42
0.0000001
 43
0.0000001
 44
0.0000000001
 40
0.0
 40
0.0
 40
0.0
 40
0.0
 40
0.1564245776
 40
0.3108563363
 40
0.4623016077
 40
0.608627538
 40
0.679028184
 40
0.7467187393
 40
0.8107449138
 40
0.8696383238
 40
0.9214526143
 40
0.9628472359
 40
0.9784897414
 40
0.9901794412
 40
0.9974912487
 40
1.0
 40
1.0
 40
1.0
 40
1.0
 10
12.2282143945
 20
41.1620873243
 30
0.0
 10
12.1888985482
 20
41.1516032127
 30
0.0
 10
12.1109619847
 20
41.1300316903
 30
0.0
 10
11.9957006786
 20
41.0957083853
 30
0.0
 10
11.8836554353
 20
41.0598746893
 30
0.0
 10
11.7930225177
 20
41.0289036105
 30
0.0
 10
11.7233960573
 20
41.0038935522
 30
0.0
 10
11.6740867451
 20
40.985627732
 30
0.0
 10
11.6277858406
 20
40.9679589955
 30
0.0
 10
11.5853928693
 20
40.9513353773
 30
0.0
 10
11.5489167271
 20
40.9366682941
 30
0.0
 10
11.5221756662
 20
40.9256792566
 30
0.0
 10
11.5064700607
 20
40.9191779827
 30
0.0
 10
11.4967127962
 20
40.9150640921
 30
0.0
 10
11.4942300432
 20
40.9140774882
 30
0.0
 10
11.4890197135
 20
40.9118205069
 30
0.0
 10
11.4896123213
 20
40.9120937895
 30
0.0
  0
SPLINE
  5
2C2
100
AcDbEntity
  8
0
100
AcDbSpline
 62
7
  6
BYLAYER
 70
0
 71
3
 72
27
 73
23
 74
0
 42
0.0000001
 43
0.0000001
 44
0.0000000001
 40
0.0
 40
0.0
 40
0.0
 40
0.0
 40
0.034260417
 40
0.0685007922
 40
0.1026424961
 40
0.1366129389
 40
0.1703759935
 40
0.2039022425
 40
0.2701306013
 40
0.3351106466
 40
0.3987991023
 40
0.4612530751
 40
0.5225588004
 40
0.5828797663
 40
0.6424318902
 40
0.7014502816
 40
0.7601668693
 40
0.8189208544
 40
0.8781624826
 40
0.9081356485
 40
0.9384225239
 40
1.0
 40
1.0
 40
1.0
 40
1.0
 10
22.4782137569
 20
37.4120897157
 30
0.0
 10
22.4793092481
 20
37.2924868494
 30
0.0
 10
22.4745143971
 20
37.0532421083
 30
0.0
 10
22.4486536889
 20
36.6957055253
 30
0.0
 10
22.4066293811
 20
36.3407435294
 30
0.0
 10
22.3498321595
 20
35.9895390582
 30
0.0
 10
22.2780406926
 20
35.6432661815
 30
0.0
 10
22.1627429781
 20
35.1914815098
 30
0.0
 10
21.9828621293
 20
34.6443627012
 30
0.0
 10
21.7151491125
 20
34.0179507962
 30
0.0
 10
21.4010895758
 20
33.4283376515
 30
0.0
 10
21.0461901097
 20
32.8776681316
 30
0.0
 10
20.6556431004
 20
32.366458527
 30
0.0
 10
20.2328207992
 20
31.8951535416
 30
0.0
 10
19.7801044857
 20
31.4639990874
 30
0.0
 10
19.2998821692
 20
31.0726274776
 30
0.0
 10
18.7949960524
 20
30.7185272395
 30
0.0
 10
18.2647740677
 20
30.4020525926
 30
0.0
 10
17.8019099539
 20
30.1714421647
 30
0.0
 10
17.4182565454
 20
30.0073051875
 30
0.0
 10
17.0209317847
 20
29.8552290794
 30
0.0
 10
16.7152709304
 20
29.7570500843
 30
0.0
 10
16.5086205406
 20
29.6978040016
 30
0.0
  0
SPLINE
  5
2C3
100
AcDbEntity
  8
0
100
AcDbSpline
 62
7
  6
BYLAYER
 70
0
 71
3
 72
11
 73
7
 74
0
 42
0.0000001
 43
0.0000001
 44
0.0000000001
 40
0.0
 40
0.0
 40
0.0
 40
0.0
 40
0.1952974295
 40
0.4188427499
 40
0.683651104
 40
1.0
 40
1.0
 40
1.0
 40
1.0
 10
16.4395178744
 20
29.723773825
 30
0.0
 10
16.4443223082
 20
29.72515655
 30
0.0
 10
16.4552488694
 20
29.7261395021
 30
0.0
 10
16.4725099998
 20
29.7221450244
 30
0.0
 10
16.4909666226
 20
29.7126313717
 30
0.0
 10
16.5026676151
 20
29.7033010517
 30
0.0
 10
16.5086206651
 20
29.6978107753
 30
0.0
  0
SPLINE
  5
2C4
100
AcDbEntity
  8
0
100
AcDbSpline
 62
7
  6
BYLAYER
 70
0
 71
3
 72
25
 73
21
 74
0
 42
0.0000001
 43
0.0000001
 44
0.0000000001
 40
0.0
 40
0.0
 40
0.0
 40
0.0
 40
0.0682944221
 40
0.1023838281
 40
0.1363427483
 40
0.203696575
 40
0.2370558049
 40
0.270171574
 40
0.3356079246
 40
0.3999042193
 40
0.4630554635
 40
0.5251241168
 40
0.5861891806
 40
0.6463779969
 40
0.7058693947
 40
0.7648429512
 40
0.8234596973
 40
0.8819702384
 40
0.9406868918
 40
1.0
 40
1.0
 40
1.0
 40
1.0
 10
22.4782137569
 20
37.4120897157
 30
0.0
 10
22.4799626055
 20
37.6247426946
 30
0.0
 10
22.4666974909
 20
37.9438729413
 30
0.0
 10
22.4219793133
 20
38.3661319119
 30
0.0
 10
22.3611887067
 20
38.7834415455
 30
0.0
 10
22.2768475243
 20
39.1947397688
 30
0.0
 10
22.1688693929
 20
39.597329884
 30
0.0
 10
22.0464991346
 20
39.98953582
 30
0.0
 10
21.8669607111
 20
40.4643707705
 30
0.0
 10
21.6120853929
 20
41.0088396692
 30
0.0
 10
21.3222472999
 20
41.5235234939
 30
0.0
 10
21.0008841327
 20
42.0070364402
 30
0.0
 10
20.6519945061
 20
42.4594332261
 30
0.0
 10
20.2776726232
 20
42.8803568688
 30
0.0
 10
19.8790361409
 20
43.269043729
 30
0.0
 10
19.4585201584
 20
43.6263386105
 30
0.0
 10
19.0183624777
 20
43.9540107656
 30
0.0
 10
18.5583769142
 20
44.2517858114
 30
0.0
 10
18.077795762
 20
44.5194974522
 30
0.0
 10
17.7449411633
 20
44.6761519511
 30
0.0
 10
17.5752169509
 20
44.7489899891
 30
0.0
  0
SPLINE
  5
2C5
100
AcDbEntity
  8
0
100
AcDbSpline
 62
7
  6
BYLAYER
 70
0
 71
3
 72
9
 73
5
 74
0
 42
0.0000001
 43
0.0000001
 44
0.0000000001
 40
0.0
 40
0.0
 40
0.0
 40
0.0
 40
0.2470994382
 40
1.0
 40
1.0
 40
1.0
 40
1.0
 10
17.4022856698
 20
44.820847839
 30
0.0
 10
17.3300948658
 20
44.8498817325
 30
0.0
 10
17.0362963249
 20
44.9632715683
 30
0.0
 10
16.7364579428
 20
45.0608051476
 30
0.0
 10
16.5086205407
 20
45.1263754301
 30
0.0
  0
SPLINE
  5
2C6
100
AcDbEntity
  8
0
100
AcDbSpline
 62
7
  6
BYLAYER
 70
0
 71
3
 72
11
 73
7
 74
0
 42
0.0000001
 43
0.0000001
 44
0.0000000001
 40
0.0
 40
0.0
 40
0.0
 40
0.0
 40
0.206538455
 40
0.4360984203
 40
0.6991514588
 40
1.0
 40
1.0
 40
1.0
 40
1.0
 10
16.4395176482
 20
45.1004011589
 30
0.0
 10
16.4445975289
 20
45.0989402201
 30
0.0
 10
16.4560128684
 20
45.0980504191
 30
0.0
 10
16.473566384
 20
45.1025028579
 30
0.0
 10
16.4916290473
 20
45.1120959082
 30
0.0
 10
16.5029612275
 20
45.121155552
 30
0.0
 10
16.5086205995
 20
45.1263759136
 30
0.0
  0
SPLINE
  5
2C7
100
AcDbEntity
  8
0
100
AcDbSpline
 62
7
  6
BYLAYER
 70
0
 71
3
 72
12
 73
8
 74
0
 42
0.0000001
 43
0.0000001
 44
0.0000000001
 40
0.0
 40
0.0
 40
0.0
 40
0.0
 40
0.0971750608
 40
0.192988909
 40
0.4053530686
 40
0.674076569
 40
1.0
 40
1.0
 40
1.0
 40
1.0
 10
38.2782137568
 20
41.3882182199
 30
0.0
 10
38.2782137568
 20
41.3905783982
 30
0.0
 10
38.27750531
 20
41.3953062554
 30
0.0
 10
38.2728553972
 20
41.4041924003
 30
0.0
 10
38.2606811807
 20
41.4124650328
 30
0.0
 10
38.2413218815
 20
41.4165988447
 30
0.0
 10
38.2267808071
 20
41.4165449316
 30
0.0
 10
38.2188907866
 20
41.4159041701
 30
0.0
  0
SPLINE
  5
2C8
100
AcDbEntity
  8
0
100
AcDbSpline
 62
7
  6
BYLAYER
 70
0
 71
3
 72
20
 73
16
 74
0
 42
0.0000001
 43
0.0000001
 44
0.0000000001
 40
0.0
 40
0.0
 40
0.0
 40
0.0
 40
0.0025354196
 40
0.0098432912
 40
0.0215120149
 40
0.0371300657
 40
0.0784978402
 40
0.1303036795
 40
0.1891897965
 40
0.2532111865
 40
0.3913087636
 40
0.5376480859
 40
0.6891080532
 40
0.8435571629
 40
1.0
 40
1.0
 40
1.0
 40
1.0
 10
11.489614935
 20
33.9120841877
 30
0.0
 10
11.4902082755
 20
33.9117962434
 30
0.0
 10
11.4925995259
 20
33.9108715965
 30
0.0
 10
11.4977273266
 20
33.9086355239
 30
0.0
 10
11.5060463528
 20
33.9052009466
 30
0.0
 10
11.5225302845
 20
33.8983319436
 30
0.0
 10
11.5487177554
 20
33.8876035741
 30
0.0
 10
11.5854106069
 20
33.872832934
 30
0.0
 10
11.627723339
 20
33.8562463418
 30
0.0
 10
11.6911550215
 20
33.8320387658
 30
0.0
 10
11.7763191647
 20
33.8009869634
 30
0.0
 10
11.8836196767
 20
33.7643160639
 30
0.0
 10
11.9956763404
 20
33.7284789916
 30
0.0
 10
12.1109491365
 20
33.6941515117
 30
0.0
 10
12.1888942141
 20
33.6725775199
 30
0.0
 10
12.2282144346
 20
33.6620922579
 30
0.0
  0
ELLIPSE
  5
2C9
100
AcDbEntity
  8
0
100
AcDbEllipse
 62
7
  6
BYLAYER
 10
37.5782137568
 20
37.4120897159
 30
0.0
 11
20.4126526173
 21
-6.5022740143
 31
0.0
 40
0.1625559039
 41
-1.5016102927
 42
-1.4848084806
  0
ELLIPSE
  5
2CA
100
AcDbEntity
  8
0
100
AcDbEllipse
 62
7
  6
BYLAYER
 10
37.5782137568
 20
37.4120897159
 30
0.0
 11
20.4126526173
 21
6.5022740143
 31
0.0
 40
0.1625559039
 41
1.4848084806
 42
1.5016104192
  0
ENDSEC
  0
SECTION
  2
OBJECTS
  0
DICTIONARY
  5
C
100
AcDbDictionary
280
0
281
1
  3
ACAD_GROUP
350
D
  3
ACAD_MLINESTYLE
350
17
  3
ACAD_LAYOUT
350
1A
  3
ACAD_PLOTSETTINGS
350
19
  3
ACAD_PLOTSTYLENAME
350
E
  0
DICTIONARY
  5
D
102
{ACAD_REACTORS
330
C
102
}
100
AcDbDictionary
280
0
281
1
  0
ACDBDICTIONARYWDFLT
  5
E
102
{ACAD_REACTORS
330
C
102
}
100
AcDbDictionary
281
1
  3
Normal
350
F
100
AcDbDictionaryWithDefault
340
F
  0
DICTIONARY
  5
17
102
{ACAD_REACTORS
330
C
102
}
100
AcDbDictionary
280
0
281
1
  3
Standard
350
18
  0
DICTIONARY
  5
19
102
{ACAD_REACTORS
330
C
102
}
100
AcDbDictionary
281
1
  0
DICTIONARY
  5
1A
102
{ACAD_REACTORS
330
C
102
}
100
AcDbDictionary
281
1
  3
Model
350
2CB
  3
Layout1
350
2CC
  0
ACDBPLACEHOLDER
  5
F
102
{ACAD_REACTORS
330
E
102
}
  0
MLINESTYLE
  5
18
102
{ACAD_REACTORS
330
17
102
}
100
AcDbMlineStyle
  2
STANDARD
 70
0
  3

 62
256
 51
90.0
 52
90.0
 71
2
 49
0.5
 62
256
  6
BYLAYER
 49
-0.5
 62
256
  6
BYLAYER
  0
LAYOUT
  5
2CB
102
{ACAD_REACTORS
330
1A
102
}
100
AcDbPlotSettings
  1

  2
none_device
  4

  6

 40
0.0
 41
0.0
 42
0.0
 43
0.0
 44
210.0
 45
297.0
 46
0.0
 47
0.0
 48
0.0
 49
0.0
140
0.0
141
0.0
142
1.0
143
1.0
 70
1024
 72
1
 73
0
 74
0
  7

 75
0
147
1.0
148
0.0
149
0.0
100
AcDbLayout
  1
Model
 70
0
 71
0
 10
0.0
 20
0.0
 11
210.0
 21
297.0
 12
0.0
 22
0.0
 32
0.0
 14
0.0
 24
0.0
 34
0.0
 15
0.0
 25
0.0
 35
0.0
146
0.0
 13
0.0
 23
0.0
 33
0.0
 16
1.0
 26
0.0
 36
0.0
 17
0.0
 27
1.0
 37
0.0
 76
0
330
210
345
0
346
0
  0
LAYOUT
  5
2CC
102
{ACAD_REACTORS
330
1A
102
}
100
AcDbPlotSettings
  1

  2
none_device
  4

  6

 40
0.0
 41
0.0
 42
0.0
 43
0.0
 44
210.0
 45
297.0
 46
0.0
 47
0.0
 48
0.0
 49
0.0
140
0.0
141
0.0
142
1.0
143
1.0
 70
0
 72
1
 73
0
 74
0
  7

 75
0
147
1.0
148
0.0
149
0.0
100
AcDbLayout
  1
Layout1
 70
0
 71
1
 10
0.0
 20
0.0
 11
210.0
 21
297.0
 12
0.0
 22
0.0
 32
0.0
 14
0.0
 24
0.0
 34
0.0
 15
0.0
 25
0.0
 35
0.0
146
0.0
 13
0.0
 23
0.0
 33
0.0
 16
1.0
 26
0.0
 36
0.0
 17
0.0
 27
1.0
 37
0.0
 76
0
330
211
345
0
346
0
  0
ENDSEC
  0
EOF
