999
DXF file: C:\Users\sesa63760\Dev\_Creo\CAD\MCADID0004750_3D-CAD\drw0001_5.dxf
999
Pro/ENGINEER 2019471 by Parametric Technology Corporation
  0
SECTION
  2
HEADER
  9
$ACADVER
  1
AC1024
  9
$DWGCODEPAGE
  3
ANSI_1252
  9
$EXTMAX
 10
23.9996907854
 20
33.9424198251
 30
0.0
  9
$EXTMIN
 10
0.0
 20
0.0
 30
0.0
  9
$LIMMIN
 10
0.0
 20
0.0
  9
$LIMMAX
 10
23.9996907854
 20
33.9424198251
  9
$VIEWCTR
 10
11.9998453927
 20
16.9712099125
  9
$VIEWSIZE
 40
33.9424198251
  9
$CLAYER
  8
0
  9
$LTSCALE
 40
2.2125429219
  9
$CELTYPE
  6
BYLAYER
  9
$DIMSCALE
 40
1.0
  9
$DIMASZ
 40
0.2857106046
  9
$DIMEXO
 40
1.0
  9
$DIMDLI
 40
1.5286660188
  9
$DIMEXE
 40
1.0
  9
$DIMCEN
 40
0.3620524781
  9
$DIMLFAC
 40
1.0
  9
$DIMBLK
  1
_FILLED
  9
$DIMALT
 70
0
  9
$DIMALTF
 40
0.0393700787
  9
$DIMTXT
 40
0.3999948464
  9
$DIMTOL
 70
1
  9
$DIMLIM
 70
0
  9
$DIMTFAC
 40
1.0
  9
$DIMTP
 40
0.01
  9
$DIMTM
 40
0.01
  9
$DIMGAP
 40
0.625
  9
$DIMDSEP
 70
46
  9
$AUNITS
 70
0
  9
$PDMODE
 70
3
  9
$PDSIZE
 40
0.3125
  9
$HANDSEED
  5
289
  9
$TILEMODE
 70
1
  9
$MEASUREMENT
 70
1
  9
$INSUNITS
 70
4
  0
ENDSEC
  0
SECTION
  2
CLASSES
  0
CLASS
  1
ACDBDICTIONARYWDFLT
  2
AcDbDictionaryWithDefault
  3
AutoCAD 2000
 90
0
 91
1
280
0
281
0
  0
CLASS
  1
ACDBPLACEHOLDER
  2
AcDbPlaceHolder
  3
AutoCAD 2000
 90
0
 91
1
280
0
281
0
  0
CLASS
  1
LAYOUT
  2
AcDbLayout
  3
AutoCAD 2000
 90
0
 91
0
280
0
281
0
  0
ENDSEC
  0
SECTION
  2
TABLES
  0
TABLE
  2
VPORT
  5
8
100
AcDbSymbolTable
 70
2
  0
VPORT
  5
1F4
100
AcDbSymbolTableRecord
100
AcDbViewportTableRecord
  2
*ACTIVE
 70
0
 10
0.0
 20
0.0
 11
1.0
 21
1.0
 12
11.9998453927
 22
16.9712099125
 13
0.0
 23
0.0
 14
1.0
 24
1.0
 15
0.0
 25
0.0
 16
0.0
 26
0.0
 36
1.0
 17
0.0
 27
0.0
 37
0.0
 40
33.9424198251
 41
0.7070707071
 42
50.0
 43
0.0
 44
0.0
 50
0.0
 51
0.0
 71
0
 72
100
 73
1
 74
1
 75
0
 76
0
 77
0
 78
0
  0
ENDTAB
  0
TABLE
  2
LTYPE
  5
5
100
AcDbSymbolTable
 70
6
  0
LTYPE
  5
14
100
AcDbSymbolTableRecord
100
AcDbLinetypeTableRecord
  2
BYBLOCK
 70
0
  3

 72
65
 73
0
 40
0.0
  0
LTYPE
  5
15
100
AcDbSymbolTableRecord
100
AcDbLinetypeTableRecord
  2
BYLAYER
 70
0
  3

 72
65
 73
0
 40
0.0
  0
LTYPE
  5
16
100
AcDbSymbolTableRecord
100
AcDbLinetypeTableRecord
  2
CONTINUOUS
 70
64
  3
Solid line
 72
65
 73
0
 40
0.0
  0
LTYPE
  5
1F5
100
AcDbSymbolTableRecord
100
AcDbLinetypeTableRecord
  2
CENTER
 70
64
  3
____ _ ____ _ ____ _ ____ _ ____ _ ____ _ ____
 72
65
 73
4
 40
0.6
 49
0.375
 74
0
 49
-0.075
 74
0
 49
0.075
 74
0
 49
-0.075
 74
0
  0
LTYPE
  5
1F6
100
AcDbSymbolTableRecord
100
AcDbLinetypeTableRecord
  2
HIDDEN
 70
64
  3
- - - - - - - - - - - - - - - - - - - -
 72
65
 73
2
 40
0.2
 49
0.1
 74
0
 49
-0.1
 74
0
  0
LTYPE
  5
1F7
100
AcDbSymbolTableRecord
100
AcDbLinetypeTableRecord
  2
PHANTOM
 70
64
  3
_____ _ _ _____ _ _ _____ _ _ _____
 72
65
 73
6
 40
0.8
 49
0.45
 74
0
 49
-0.05
 74
0
 49
0.1
 74
0
 49
-0.05
 74
0
 49
0.1
 74
0
 49
-0.05
 74
0
  0
LTYPE
  5
1F8
100
AcDbSymbolTableRecord
100
AcDbLinetypeTableRecord
  2
DOT
 70
64
  3
. . . . . . . . . . . . . . . . . . . .
 72
65
 73
2
 40
0.2
 49
0.1
 74
0
 49
-0.1
 74
0
  0
LTYPE
  5
1F9
100
AcDbSymbolTableRecord
100
AcDbLinetypeTableRecord
  2
DASHED
 70
64
  3
- - - - - - - - - - - - - - - - - - - -
 72
65
 73
2
 40
0.2
 49
0.1
 74
0
 49
-0.1
 74
0
  0
ENDTAB
  0
TABLE
  2
LAYER
  5
2
100
AcDbSymbolTable
 70
36
  0
LAYER
  5
10
100
AcDbSymbolTableRecord
100
AcDbLayerTableRecord
  2
0
 70
0
 62
7
  6
CONTINUOUS
370
-3
390
F
  0
LAYER
  5
1FA
100
AcDbSymbolTableRecord
100
AcDbLayerTableRecord
  2
DEFAULT_1
 70
0
 62
7
  6
CENTER
370
-3
390
F
  0
LAYER
  5
1FB
100
AcDbSymbolTableRecord
100
AcDbLayerTableRecord
  2
DEFAULT_2
 70
0
 62
7
  6
HIDDEN
370
-3
390
F
  0
LAYER
  5
1FC
100
AcDbSymbolTableRecord
100
AcDbLayerTableRecord
  2
DEFAULT_3
 70
0
 62
7
  6
PHANTOM
370
-3
390
F
  0
LAYER
  5
1FD
100
AcDbSymbolTableRecord
100
AcDbLayerTableRecord
  2
00_COMPONENTS
 70
0
 62
7
  6
CONTINUOUS
370
-3
390
F
  0
LAYER
  5
1FE
100
AcDbSymbolTableRecord
100
AcDbLayerTableRecord
  2
01_1_DEFAULT_DATUMS
 70
0
 62
7
  6
CONTINUOUS
370
-3
390
F
  0
LAYER
  5
1FF
100
AcDbSymbolTableRecord
100
AcDbLayerTableRecord
  2
01_PLANES
 70
0
 62
7
  6
CONTINUOUS
370
-3
390
F
  0
LAYER
  5
200
100
AcDbSymbolTableRecord
100
AcDbLayerTableRecord
  2
02_COORD_SYS
 70
0
 62
7
  6
CONTINUOUS
370
-3
390
F
  0
LAYER
  5
201
100
AcDbSymbolTableRecord
100
AcDbLayerTableRecord
  2
03_AXES
 70
0
 62
7
  6
CONTINUOUS
370
-3
390
F
  0
LAYER
  5
202
100
AcDbSymbolTableRecord
100
AcDbLayerTableRecord
  2
04_POINTS
 70
0
 62
7
  6
CONTINUOUS
370
-3
390
F
  0
LAYER
  5
203
100
AcDbSymbolTableRecord
100
AcDbLayerTableRecord
  2
05_CURVES
 70
0
 62
7
  6
CONTINUOUS
370
-3
390
F
  0
LAYER
  5
204
100
AcDbSymbolTableRecord
100
AcDbLayerTableRecord
  2
06_SURFS
 70
0
 62
7
  6
CONTINUOUS
370
-3
390
F
  0
LAYER
  5
205
100
AcDbSymbolTableRecord
100
AcDbLayerTableRecord
  2
07_COSMETICS
 70
0
 62
7
  6
CONTINUOUS
370
-3
390
F
  0
LAYER
  5
206
100
AcDbSymbolTableRecord
100
AcDbLayerTableRecord
  2
10_NOTES
 70
0
 62
7
  6
CONTINUOUS
370
-3
390
F
  0
LAYER
  5
207
100
AcDbSymbolTableRecord
100
AcDbLayerTableRecord
  2
11_NOTES_PUB
 70
0
 62
7
  6
CONTINUOUS
370
-3
390
F
  0
LAYER
  5
208
100
AcDbSymbolTableRecord
100
AcDbLayerTableRecord
  2
13_REF_GTOL
 70
0
 62
7
  6
CONTINUOUS
370
-3
390
F
  0
LAYER
  5
209
100
AcDbSymbolTableRecord
100
AcDbLayerTableRecord
  2
16_MISC
 70
0
 62
7
  6
CONTINUOUS
370
-3
390
F
  0
LAYER
  5
20A
100
AcDbSymbolTableRecord
100
AcDbLayerTableRecord
  2
17_NO_PRINT
 70
0
 62
7
  6
CONTINUOUS
370
-3
390
F
  0
LAYER
  5
20B
100
AcDbSymbolTableRecord
100
AcDbLayerTableRecord
  2
18_DATUM_CAMS_JOINTS
 70
0
 62
7
  6
CONTINUOUS
370
-3
390
F
  0
LAYER
  5
20C
100
AcDbSymbolTableRecord
100
AcDbLayerTableRecord
  2
19_DATUM_FUNCTIONAL
 70
0
 62
7
  6
CONTINUOUS
370
-3
390
F
  0
LAYER
  5
20D
100
AcDbSymbolTableRecord
100
AcDbLayerTableRecord
  2
20_DATUM_KINEMATIC_SCHEME
 70
0
 62
7
  6
CONTINUOUS
370
-3
390
F
  0
ENDTAB
  0
TABLE
  2
STYLE
  5
3
100
AcDbSymbolTable
 70
1
  0
STYLE
  5
11
100
AcDbSymbolTableRecord
100
AcDbTextStyleTableRecord
  2
STANDARD
 70
0
 40
0.0
 41
1.0
 50
0.0
 71
0
 42
0.2
  3
ARIAL.TTF
  4

  0
STYLE
  5
20E
100
AcDbSymbolTableRecord
100
AcDbTextStyleTableRecord
  2
TEXTSTYLE_1
 70
0
 40
0.0
 41
0.8
 50
0.0
 71
0
 42
0.2
  3
gdt
  4

  0
ENDTAB
  0
TABLE
  2
VIEW
  5
6
100
AcDbSymbolTable
 70
0
  0
ENDTAB
  0
TABLE
  2
UCS
  5
7
100
AcDbSymbolTable
 70
0
  0
ENDTAB
  0
TABLE
  2
APPID
  5
9
100
AcDbSymbolTable
 70
1
  0
APPID
  5
20F
100
AcDbSymbolTableRecord
100
AcDbRegAppTableRecord
  2
ACAD
 70
0
  0
ENDTAB
  0
TABLE
  2
BLOCK_RECORD
  5
1
100
AcDbSymbolTable
 70
0
  0
BLOCK_RECORD
  5
210
100
AcDbSymbolTableRecord
100
AcDbBlockTableRecord
  2
*Model_Space
  0
BLOCK_RECORD
  5
211
100
AcDbSymbolTableRecord
100
AcDbBlockTableRecord
  2
*Paper_Space
  0
BLOCK_RECORD
  5
212
100
AcDbSymbolTableRecord
100
AcDbBlockTableRecord
  2
_FILLED
  0
ENDTAB
  0
TABLE
  2
DIMSTYLE
  5
A
100
AcDbSymbolTable
 70
1
100
AcDbDimStyleTable
 71
0
  0
DIMSTYLE
105
213
100
AcDbSymbolTableRecord
100
AcDbDimStyleTableRecord
  2
STANDARD
 70
0
  3

  4

 40
1.0
 41
0.2857106046
 42
1.0
 43
0.38
 44
1.0
 45
0.0
 46
0.0
 47
0.01
 48
0.01
140
0.3999948464
141
0.09
142
0.0
143
25.4
144
1.0
145
0.0
146
1.0
147
0.625
 71
1
 72
0
 73
0
 74
0
 75
0
 76
0
 77
1
 78
8
 79
2
170
0
171
1
172
0
173
0
174
0
175
0
176
0
177
0
178
0
270
2
179
2
271
2
272
2
273
2
274
2
275
0
280
0
281
0
282
0
283
1
284
8
285
0
286
0
287
3
288
0
340
11
278
46
341
212
342
212
343
212
344
212
  0
ENDTAB
  0
ENDSEC
  0
SECTION
  2
BLOCKS
  0
BLOCK
  5
20
100
AcDbEntity
  8
0
100
AcDbBlockBegin
  2
*Model_Space
 70
0
 10
0.0
 20
0.0
 30
0.0
  3
*Model_Space
  1

  0
ENDBLK
  5
21
100
AcDbEntity
  8
0
100
AcDbBlockEnd
  0
BLOCK
  5
1C
100
AcDbEntity
  8
0
100
AcDbBlockBegin
  2
*Paper_Space
 70
0
 10
0.0
 20
0.0
 30
0.0
  3
*Paper_Space
  1

  0
ENDBLK
  5
1D
100
AcDbEntity
  8
0
100
AcDbBlockEnd
  0
BLOCK
  5
214
100
AcDbEntity
  8
0
100
AcDbBlockBegin
  2
_FILLED
 70
64
 10
0.0
 20
0.0
  3
_FILLED
  1

  0
SOLID
  5
215
100
AcDbEntity
  8
0
  6
BYBLOCK
 62
0
100
AcDbTrace
 10
0.0
 20
0.0
 11
-1.0
 21
0.25
 12
-1.0
 22
-0.25
 13
-1.0
 23
-0.25
  0
ENDBLK
  5
216
100
AcDbEntity
  8
0
  6
BYBLOCK
 62
0
100
AcDbBlockEnd
  0
ENDSEC
  0
SECTION
  2
ENTITIES
  0
LINE
  5
217
100
AcDbEntity
  8
0
100
AcDbLine
 62
7
  6
BYLAYER
 10
6.832212632
 20
2.762755102
 11
17.8322011861
 21
2.762755102
  0
LINE
  5
218
100
AcDbEntity
  8
0
100
AcDbLine
 62
7
  6
BYLAYER
 10
17.9822069091
 20
3.012755102
 11
6.6822069091
 21
3.012755102
  0
LINE
  5
219
100
AcDbEntity
  8
0
100
AcDbLine
 62
7
  6
BYLAYER
 10
9.4572069096
 20
4.412755102
 11
15.2072069089
 21
4.412755102
  0
LINE
  5
21A
100
AcDbEntity
  8
0
100
AcDbLine
 62
7
  6
BYLAYER
 10
9.5822069089
 20
4.662755102
 11
15.0822069092
 21
4.662755102
  0
LINE
  5
21B
100
AcDbEntity
  8
0
100
AcDbLine
 62
7
  6
BYLAYER
 10
8.9344796357
 20
4.9127561338
 11
9.3322069091
 21
4.9127505439
  0
LINE
  5
21C
100
AcDbEntity
  8
0
100
AcDbLine
 62
7
  6
BYLAYER
 10
15.7299341825
 20
4.9127551102
 11
15.3322069091
 21
4.9127551102
  0
LINE
  5
21D
100
AcDbEntity
  8
0
100
AcDbLine
 62
7
  6
BYLAYER
 10
8.9344796357
 20
6.1127550937
 11
9.3322069091
 21
6.1127550937
  0
LINE
  5
21E
100
AcDbEntity
  8
0
100
AcDbLine
 62
7
  6
BYLAYER
 10
15.7299341825
 20
6.1127621323
 11
15.3322069091
 21
6.1127635566
  0
LINE
  5
21F
100
AcDbEntity
  8
0
100
AcDbLine
 62
7
  6
BYLAYER
 10
18.6821048582
 20
6.362755102
 11
5.9823089599
 21
6.362755102
  0
LINE
  5
220
100
AcDbEntity
  8
0
100
AcDbLine
 62
7
  6
BYLAYER
 10
5.9823089599
 20
6.962755102
 11
18.6821048582
 21
6.962755102
  0
LINE
  5
221
100
AcDbEntity
  8
0
100
AcDbLine
 62
7
  6
BYLAYER
 10
18.3182195242
 20
7.062755102
 11
6.3835377408
 21
7.062755102
  0
LINE
  5
222
100
AcDbEntity
  8
0
100
AcDbLine
 62
7
  6
BYLAYER
 10
18.3182195242
 20
8.062755102
 11
6.3835377408
 21
8.062755102
  0
LINE
  5
223
100
AcDbEntity
  8
0
100
AcDbLine
 62
7
  6
BYLAYER
 10
18.6821048582
 20
8.162755102
 11
5.9823089599
 21
8.162755102
  0
LINE
  5
224
100
AcDbEntity
  8
0
100
AcDbLine
 62
7
  6
BYLAYER
 10
4.3322069091
 20
28.6503813373
 11
4.3322069091
 21
12.762755102
  0
LINE
  5
225
100
AcDbEntity
  8
0
100
AcDbLine
 62
7
  6
BYLAYER
 10
5.9823089599
 20
9.312755102
 11
18.6821048582
 21
9.312755102
  0
LINE
  5
226
100
AcDbEntity
  8
0
100
AcDbLine
 62
7
  6
BYLAYER
 10
4.9690385124
 20
12.762755102
 11
4.9690385124
 21
10.962755102
  0
LINE
  5
227
100
AcDbEntity
  8
0
100
AcDbLine
 62
7
  6
BYLAYER
 10
5.0290805609
 20
10.962755102
 11
5.0290805609
 21
12.762755102
  0
LINE
  5
228
100
AcDbEntity
  8
0
100
AcDbLine
 62
7
  6
BYLAYER
 10
5.410784222
 20
12.762755102
 11
5.410784222
 21
10.962755102
  0
LINE
  5
229
100
AcDbEntity
  8
0
100
AcDbLine
 62
7
  6
BYLAYER
 10
5.5868186009
 20
10.962755102
 11
5.5868186009
 21
12.762755102
  0
LINE
  5
22A
100
AcDbEntity
  8
0
100
AcDbLine
 62
7
  6
BYLAYER
 10
5.6322069091
 20
10.762755102
 11
5.6322069091
 21
10.612755102
  0
LINE
  5
22B
100
AcDbEntity
  8
0
100
AcDbLine
 62
7
  6
BYLAYER
 10
19.0320988869
 20
10.612755102
 11
5.6323149313
 21
10.612755102
  0
LINE
  5
22C
100
AcDbEntity
  8
0
100
AcDbLine
 62
7
  6
BYLAYER
 10
5.9822069091
 20
9.312755102
 11
5.9822069091
 21
8.162755102
  0
LINE
  5
22D
100
AcDbEntity
  8
0
100
AcDbLine
 62
7
  6
BYLAYER
 10
5.9822069091
 20
6.962755102
 11
5.9822069091
 21
6.362755102
  0
LINE
  5
22E
100
AcDbEntity
  8
0
100
AcDbLine
 62
7
  6
BYLAYER
 10
6.3808995664
 20
12.762755102
 11
6.3808995664
 21
10.762755102
  0
LINE
  5
22F
100
AcDbEntity
  8
0
100
AcDbLine
 62
7
  6
BYLAYER
 10
6.6822069091
 20
2.8127687042
 11
6.6822069091
 21
6.362755102
  0
LINE
  5
230
100
AcDbEntity
  8
0
100
AcDbLine
 62
7
  6
BYLAYER
 10
6.8322069091
 20
10.612755102
 11
6.8322069091
 21
9.312755102
  0
LINE
  5
231
100
AcDbEntity
  8
0
100
AcDbLine
 62
7
  6
BYLAYER
 10
19.5057563498
 20
10.762755102
 11
18.2835142518
 21
10.762755102
  0
LINE
  5
232
100
AcDbEntity
  8
0
100
AcDbLine
 62
7
  6
BYLAYER
 10
15.4098587595
 20
10.762755102
 11
14.3641881944
 21
10.762755102
  0
LINE
  5
233
100
AcDbEntity
  8
0
100
AcDbLine
 62
7
  6
BYLAYER
 10
13.7646786322
 20
10.762755102
 11
12.6425358939
 21
10.762755102
  0
LINE
  5
234
100
AcDbEntity
  8
0
100
AcDbLine
 62
7
  6
BYLAYER
 10
12.0218779242
 20
10.762755102
 11
10.8997351859
 21
10.762755102
  0
LINE
  5
235
100
AcDbEntity
  8
0
100
AcDbLine
 62
7
  6
BYLAYER
 10
10.3002256237
 20
10.762755102
 11
9.2545550586
 21
10.762755102
  0
LINE
  5
236
100
AcDbEntity
  8
0
100
AcDbLine
 62
7
  6
BYLAYER
 10
6.3808995664
 20
10.762755102
 11
5.2435039056
 21
10.762755102
  0
LINE
  5
237
100
AcDbEntity
  8
0
100
AcDbLine
 62
7
  6
BYLAYER
 10
19.6953753057
 20
10.962755102
 11
19.6353332573
 21
10.962755102
  0
LINE
  5
238
100
AcDbEntity
  8
0
100
AcDbLine
 62
7
  6
BYLAYER
 10
19.2536295961
 20
10.962755102
 11
19.0775952172
 21
10.962755102
  0
LINE
  5
239
100
AcDbEntity
  8
0
100
AcDbLine
 62
7
  6
BYLAYER
 10
15.3751884358
 20
10.962755102
 11
14.9502038509
 21
10.962755102
  0
LINE
  5
23A
100
AcDbEntity
  8
0
100
AcDbLine
 62
7
  6
BYLAYER
 10
13.5256663939
 20
10.962755102
 11
13.0696017577
 21
10.962755102
  0
LINE
  5
23B
100
AcDbEntity
  8
0
100
AcDbLine
 62
7
  6
BYLAYER
 10
11.5948120604
 20
10.962755102
 11
11.1387474242
 21
10.962755102
  0
LINE
  5
23C
100
AcDbEntity
  8
0
100
AcDbLine
 62
7
  6
BYLAYER
 10
9.7142099672
 20
10.962755102
 11
9.2892253823
 21
10.962755102
  0
LINE
  5
23D
100
AcDbEntity
  8
0
100
AcDbLine
 62
7
  6
BYLAYER
 10
5.5868186009
 20
10.962755102
 11
5.410784222
 21
10.962755102
  0
LINE
  5
23E
100
AcDbEntity
  8
0
100
AcDbLine
 62
7
  6
BYLAYER
 10
5.0290805609
 20
10.962755102
 11
4.9690385124
 21
10.962755102
  0
LINE
  5
23F
100
AcDbEntity
  8
0
100
AcDbLine
 62
7
  6
BYLAYER
 10
20.3321985645
 20
12.762755102
 11
4.3322152536
 21
12.762755102
  0
LINE
  5
240
100
AcDbEntity
  8
0
100
AcDbLine
 62
7
  6
BYLAYER
 10
8.9344796357
 20
4.9127551126
 11
8.9344796357
 21
6.1127550929
  0
LINE
  5
241
100
AcDbEntity
  8
0
100
AcDbLine
 62
7
  6
BYLAYER
 10
9.2545550586
 20
10.762755102
 11
9.2545550586
 21
12.762755102
  0
LINE
  5
242
100
AcDbEntity
  8
0
100
AcDbLine
 62
7
  6
BYLAYER
 10
9.2892253823
 20
12.762755102
 11
9.2892253823
 21
10.962755102
  0
LINE
  5
243
100
AcDbEntity
  8
0
100
AcDbLine
 62
7
  6
BYLAYER
 10
9.3322069091
 20
4.9127551028
 11
9.3322069091
 21
6.1127551013
  0
LINE
  5
244
100
AcDbEntity
  8
0
100
AcDbLine
 62
7
  6
BYLAYER
 10
9.7142099672
 20
10.962755102
 11
9.7142099672
 21
12.762755102
  0
LINE
  5
245
100
AcDbEntity
  8
0
100
AcDbLine
 62
7
  6
BYLAYER
 10
10.3002256237
 20
12.762755102
 11
10.3002256237
 21
10.762755102
  0
LINE
  5
246
100
AcDbEntity
  8
0
100
AcDbLine
 62
7
  6
BYLAYER
 10
10.8997351859
 20
10.762755102
 11
10.8997351859
 21
12.762755102
  0
LINE
  5
247
100
AcDbEntity
  8
0
100
AcDbLine
 62
7
  6
BYLAYER
 10
11.1387474242
 20
12.762755102
 11
11.1387474242
 21
10.962755102
  0
LINE
  5
248
100
AcDbEntity
  8
0
100
AcDbLine
 62
7
  6
BYLAYER
 10
11.5948120604
 20
10.962755102
 11
11.5948120604
 21
12.762755102
  0
LINE
  5
249
100
AcDbEntity
  8
0
100
AcDbLine
 62
7
  6
BYLAYER
 10
12.0218779242
 20
12.762755102
 11
12.0218779242
 21
10.762755102
  0
LINE
  5
24A
100
AcDbEntity
  8
0
100
AcDbLine
 62
7
  6
BYLAYER
 10
12.3322069702
 20
31.2627544052
 11
12.3322069369
 21
29.2627551023
  0
LINE
  5
24B
100
AcDbEntity
  8
0
100
AcDbLine
 62
7
  6
BYLAYER
 10
12.6425358939
 20
10.762755102
 11
12.6425358939
 21
12.762755102
  0
LINE
  5
24C
100
AcDbEntity
  8
0
100
AcDbLine
 62
7
  6
BYLAYER
 10
13.0696017577
 20
12.762755102
 11
13.0696017577
 21
10.962755102
  0
LINE
  5
24D
100
AcDbEntity
  8
0
100
AcDbLine
 62
7
  6
BYLAYER
 10
13.5256663939
 20
10.962755102
 11
13.5256663939
 21
12.762755102
  0
LINE
  5
24E
100
AcDbEntity
  8
0
100
AcDbLine
 62
7
  6
BYLAYER
 10
13.7646786322
 20
12.762755102
 11
13.7646786322
 21
10.762755102
  0
LINE
  5
24F
100
AcDbEntity
  8
0
100
AcDbLine
 62
7
  6
BYLAYER
 10
14.3641881944
 20
10.762755102
 11
14.3641881944
 21
12.762755102
  0
LINE
  5
250
100
AcDbEntity
  8
0
100
AcDbLine
 62
7
  6
BYLAYER
 10
14.9502038509
 20
12.762755102
 11
14.9502038509
 21
10.962755102
  0
LINE
  5
251
100
AcDbEntity
  8
0
100
AcDbLine
 62
7
  6
BYLAYER
 10
15.3322069091
 20
6.1127551003
 11
15.3322069091
 21
4.9127551028
  0
LINE
  5
252
100
AcDbEntity
  8
0
100
AcDbLine
 62
7
  6
BYLAYER
 10
15.3751884358
 20
10.962755102
 11
15.3751884358
 21
12.762755102
  0
LINE
  5
253
100
AcDbEntity
  8
0
100
AcDbLine
 62
7
  6
BYLAYER
 10
15.4098587595
 20
12.762755102
 11
15.4098587595
 21
10.762755102
  0
LINE
  5
254
100
AcDbEntity
  8
0
100
AcDbLine
 62
7
  6
BYLAYER
 10
15.7299341825
 20
6.1127550785
 11
15.7299341825
 21
4.9127551133
  0
LINE
  5
255
100
AcDbEntity
  8
0
100
AcDbLine
 62
7
  6
BYLAYER
 10
17.8322069091
 20
10.612755102
 11
17.8322069091
 21
9.312755102
  0
LINE
  5
256
100
AcDbEntity
  8
0
100
AcDbLine
 62
7
  6
BYLAYER
 10
17.9822069091
 20
2.8127687042
 11
17.9822069091
 21
6.362755102
  0
LINE
  5
257
100
AcDbEntity
  8
0
100
AcDbLine
 62
7
  6
BYLAYER
 10
18.2835142518
 20
10.762755102
 11
18.2835142518
 21
12.762755102
  0
LINE
  5
258
100
AcDbEntity
  8
0
100
AcDbLine
 62
7
  6
BYLAYER
 10
18.6822069091
 20
9.312755102
 11
18.6822069091
 21
8.162755102
  0
LINE
  5
259
100
AcDbEntity
  8
0
100
AcDbLine
 62
7
  6
BYLAYER
 10
18.6822069091
 20
6.962755102
 11
18.6822069091
 21
6.362755102
  0
LINE
  5
25A
100
AcDbEntity
  8
0
100
AcDbLine
 62
7
  6
BYLAYER
 10
19.0322069091
 20
10.762755102
 11
19.0322069091
 21
10.612755102
  0
LINE
  5
25B
100
AcDbEntity
  8
0
100
AcDbLine
 62
7
  6
BYLAYER
 10
19.0775952172
 20
12.762755102
 11
19.0775952172
 21
10.962755102
  0
LINE
  5
25C
100
AcDbEntity
  8
0
100
AcDbLine
 62
7
  6
BYLAYER
 10
19.2536295961
 20
10.962755102
 11
19.2536295961
 21
12.762755102
  0
LINE
  5
25D
100
AcDbEntity
  8
0
100
AcDbLine
 62
7
  6
BYLAYER
 10
19.6353332573
 20
12.762755102
 11
19.6353332573
 21
10.962755102
  0
LINE
  5
25E
100
AcDbEntity
  8
0
100
AcDbLine
 62
7
  6
BYLAYER
 10
19.6953753057
 20
10.962755102
 11
19.6953753057
 21
12.762755102
  0
LINE
  5
25F
100
AcDbEntity
  8
0
100
AcDbLine
 62
7
  6
BYLAYER
 10
20.3322069091
 20
12.762755102
 11
20.3322069091
 21
28.6503813373
  0
ARC
  5
260
100
AcDbEntity
  8
0
100
AcDbCircle
 62
7
  6
BYLAYER
 10
12.3322069091
 20
-0.437244898
 40
31.7
100
AcDbArc
 50
78.3448801337
 51
101.6551198663
  0
ARC
  5
261
100
AcDbEntity
  8
0
100
AcDbCircle
 62
7
  6
BYLAYER
 10
18.3322069091
 20
28.6503813373
 40
2.0
100
AcDbArc
 50
0.0
 51
78.3448801338
  0
ARC
  5
262
100
AcDbEntity
  8
0
100
AcDbCircle
 62
7
  6
BYLAYER
 10
6.3322069091
 20
28.6503813373
 40
2.0
100
AcDbArc
 50
101.6551198663
 51
180.0
  0
ARC
  5
263
100
AcDbEntity
  8
0
100
AcDbCircle
 62
7
  6
BYLAYER
 10
6.3322069091
 20
7.562755102
 40
0.5
100
AcDbArc
 50
90.0
 51
270.0
  0
ARC
  5
264
100
AcDbEntity
  8
0
100
AcDbCircle
 62
7
  6
BYLAYER
 10
18.3322069091
 20
7.562755102
 40
0.5
100
AcDbArc
 50
270.0
 51
90.0
  0
ARC
  5
265
100
AcDbEntity
  8
0
100
AcDbCircle
 62
7
  6
BYLAYER
 10
6.8322069091
 20
3.012755102
 40
0.25
100
AcDbArc
 50
233.1301023542
 51
270.0
  0
ARC
  5
266
100
AcDbEntity
  8
0
100
AcDbCircle
 62
7
  6
BYLAYER
 10
17.8322069091
 20
3.012755102
 40
0.25
100
AcDbArc
 50
270.0
 51
306.8698976458
  0
ARC
  5
267
100
AcDbEntity
  8
0
100
AcDbCircle
 62
7
  6
BYLAYER
 10
18.1822069091
 20
7.912755102
 40
0.25
100
AcDbArc
 50
90.0000126816
 51
148.3436210357
  0
ARC
  5
268
100
AcDbEntity
  8
0
100
AcDbCircle
 62
7
  6
BYLAYER
 10
6.4822069091
 20
7.912755102
 40
0.25
100
AcDbArc
 50
31.6563789643
 51
89.9999873184
  0
ARC
  5
269
100
AcDbEntity
  8
0
100
AcDbCircle
 62
7
  6
BYLAYER
 10
6.4822069091
 20
7.212755102
 40
0.25
100
AcDbArc
 50
270.000036775
 51
328.3436109657
  0
ARC
  5
26A
100
AcDbEntity
  8
0
100
AcDbCircle
 62
7
  6
BYLAYER
 10
18.1822069091
 20
7.212755102
 40
0.25
100
AcDbArc
 50
211.6563890343
 51
269.999963225
  0
ARC
  5
26B
100
AcDbEntity
  8
0
100
AcDbCircle
 62
7
  6
BYLAYER
 10
9.5822069091
 20
6.112755102
 40
0.25
100
AcDbArc
 50
89.9993508778
 51
180.0
  0
ARC
  5
26C
100
AcDbEntity
  8
0
100
AcDbCircle
 62
7
  6
BYLAYER
 10
9.5822069091
 20
4.912755102
 40
0.25
100
AcDbArc
 50
180.0
 51
269.9999999852
  0
ARC
  5
26D
100
AcDbEntity
  8
0
100
AcDbCircle
 62
7
  6
BYLAYER
 10
15.0822069091
 20
4.912755102
 40
0.25
100
AcDbArc
 50
270.0000000149
 51
360.0
  0
ARC
  5
26E
100
AcDbEntity
  8
0
100
AcDbCircle
 62
7
  6
BYLAYER
 10
15.0822069091
 20
6.112755102
 40
0.25
100
AcDbArc
 50
0.0
 51
90.0006475769
  0
SPLINE
  5
26F
100
AcDbEntity
  8
0
100
AcDbSpline
 62
7
  6
BYLAYER
 70
0
 71
3
 72
15
 73
11
 74
0
 42
0.0000001
 43
0.0000001
 44
0.0000000001
 40
0.0
 40
0.0
 40
0.0
 40
0.0
 40
0.1017305125
 40
0.2070017162
 40
0.3183330283
 40
0.4377125395
 40
0.5665802368
 40
0.7046745973
 40
0.850520921
 40
1.0
 40
1.0
 40
1.0
 40
1.0
 10
19.1017373522
 20
10.762755102
 30
0.0
 10
19.1111405372
 20
10.762755102
 30
0.0
 10
19.1303481737
 20
10.76513776
 30
0.0
 10
19.1580975976
 20
10.7756716876
 30
0.0
 10
19.1840934196
 20
10.7931184489
 30
0.0
 10
19.2073993002
 20
10.8171260143
 30
0.0
 10
19.2270096041
 20
10.8472080254
 30
0.0
 10
19.2420614248
 20
10.8824754755
 30
0.0
 10
19.2514349969
 20
10.9215972982
 30
0.0
 10
19.2536295961
 20
10.9489384073
 30
0.0
 10
19.2536295961
 20
10.962755102
 30
0.0
  0
SPLINE
  5
270
100
AcDbEntity
  8
0
100
AcDbSpline
 62
7
  6
BYLAYER
 70
0
 71
3
 72
11
 73
7
 74
0
 42
0.0000001
 43
0.0000001
 44
0.0000000001
 40
0.0
 40
0.0
 40
0.0
 40
0.0
 40
0.2314914963
 40
0.4727175913
 40
0.7297742237
 40
1.0
 40
1.0
 40
1.0
 40
1.0
 10
19.5057564839
 20
10.762755102
 30
0.0
 10
19.5292281953
 20
10.762755102
 30
0.0
 10
19.5776637167
 20
10.7723556899
 30
0.0
 10
19.6406167025
 20
10.8147097334
 30
0.0
 10
19.6847754836
 20
10.8812827692
 30
0.0
 10
19.6953753057
 20
10.93535599
 30
0.0
 10
19.6953753057
 20
10.962755102
 30
0.0
  0
SPLINE
  5
271
100
AcDbEntity
  8
0
100
AcDbSpline
 62
7
  6
BYLAYER
 70
0
 71
3
 72
12
 73
8
 74
0
 42
0.0000001
 43
0.0000001
 44
0.0000000001
 40
0.0
 40
0.0
 40
0.0
 40
0.0
 40
0.1363620685
 40
0.2712596266
 40
0.5278859228
 40
0.7687588293
 40
1.0
 40
1.0
 40
1.0
 40
1.0
 10
4.9690385124
 20
10.962755102
 30
0.0
 10
4.9690385124
 20
10.9489110555
 30
0.0
 10
4.9718392018
 20
10.921294727
 30
0.0
 10
4.9873477481
 20
10.8697264553
 30
0.0
 10
5.0238240928
 20
10.8146577974
 30
0.0
 10
5.086739198
 20
10.7723732868
 30
0.0
 10
5.1351809907
 20
10.762755102
 30
0.0
 10
5.1586575597
 20
10.762755102
 30
0.0
  0
SPLINE
  5
272
100
AcDbEntity
  8
0
100
AcDbSpline
 62
7
  6
BYLAYER
 70
0
 71
3
 72
15
 73
11
 74
0
 42
0.0000001
 43
0.0000001
 44
0.0000000001
 40
0.0
 40
0.0
 40
0.0
 40
0.0
 40
0.1495108984
 40
0.2954237522
 40
0.4334812843
 40
0.5622805394
 40
0.6816286288
 40
0.7929540819
 40
0.8982509044
 40
1.0
 40
1.0
 40
1.0
 40
1.0
 10
5.410784222
 20
10.962755102
 30
0.0
 10
5.410784222
 20
10.9489355089
 30
0.0
 10
5.4129886216
 20
10.9215862098
 30
0.0
 10
5.4223564471
 20
10.8824579955
 30
0.0
 10
5.4374065745
 20
10.8471927411
 30
0.0
 10
5.457018703
 20
10.8171277193
 30
0.0
 10
5.4803136134
 20
10.7931241048
 30
0.0
 10
5.5063081264
 20
10.7756767528
 30
0.0
 10
5.5340604053
 20
10.7651414116
 30
0.0
 10
5.553271773
 20
10.762755102
 30
0.0
 10
5.5626766466
 20
10.762755102
 30
0.0
  0
SPLINE
  5
273
100
AcDbEntity
  8
0
100
AcDbSpline
 62
7
  6
BYLAYER
 70
0
 71
3
 72
13
 73
9
 74
0
 42
0.0000001
 43
0.0000001
 44
0.0000000001
 40
0.0
 40
0.0
 40
0.0
 40
0.0
 40
0.1250929808
 40
0.250678815
 40
0.3759649666
 40
0.5011631717
 40
0.7505811113
 40
1.0
 40
1.0
 40
1.0
 40
1.0
 10
19.0775952172
 20
10.962755102
 30
0.0
 10
19.0775952172
 20
10.9488835557
 30
0.0
 10
19.0742276455
 20
10.920994757
 30
0.0
 10
19.060009418
 20
10.8814462785
 30
0.0
 10
19.0373305991
 20
10.8460488929
 30
0.0
 10
18.9983271424
 20
10.8061960691
 30
0.0
 10
18.9363679603
 20
10.7718527814
 30
0.0
 10
18.8806382881
 20
10.762755102
 30
0.0
 10
18.8529802561
 20
10.762755102
 30
0.0
  0
SPLINE
  5
274
100
AcDbEntity
  8
0
100
AcDbSpline
 62
7
  6
BYLAYER
 70
0
 71
3
 72
49
 73
45
 74
0
 42
0.0000001
 43
0.0000001
 44
0.0000000001
 40
0.0
 40
0.0
 40
0.0
 40
0.0
 40
0.0977571886
 40
0.1946178711
 40
0.2895726238
 40
0.3817450237
 40
0.4702647518
 40
0.5542851972
 40
0.6330175535
 40
0.7057204502
 40
0.7395904113
 40
0.7716974773
 40
0.8019638647
 40
0.8303126604
 40
0.8566750476
 40
0.8809857351
 40
0.9031797966
 40
0.9232004759
 40
0.9409974353
 40
0.9490463138
 40
0.9565205719
 40
0.9634155213
 40
0.9697271844
 40
0.9754515855
 40
0.9805847459
 40
0.9851226843
 40
0.9890614386
 40
0.9923980789
 40
0.9938401376
 40
0.9951311272
 40
0.9962708762
 40
0.9972592136
 40
0.9980959681
 40
0.9987809683
 40
0.999066507
 40
0.9993140429
 40
0.9995235546
 40
0.9996950207
 40
0.9998284196
 40
0.9999237301
 40
0.9999570955
 40
0.9999809307
 40
0.9999952331
 40
1.0
 40
1.0
 40
1.0
 40
1.0
 10
12.3322069091
 20
29.262755102
 30
0.0
 10
12.5939102127
 20
29.2627493923
 30
0.0
 10
13.1149249384
 20
29.258860937
 30
0.0
 10
13.8899678553
 20
29.2416411282
 30
0.0
 10
14.6497355948
 20
29.213635005
 30
0.0
 10
15.3867228304
 20
29.1759231979
 30
0.0
 10
16.0939087975
 20
29.1299769555
 30
0.0
 10
16.7645518273
 20
29.0774865442
 30
0.0
 10
17.3923154496
 20
29.0204703379
 30
0.0
 10
17.8858132593
 20
28.9698505025
 30
0.0
 10
18.2548096107
 20
28.928934555
 30
0.0
 10
18.5107439693
 20
28.8992339941
 30
0.0
 10
18.7518583441
 20
28.8700751817
 30
0.0
 10
18.9775789713
 20
28.8417409652
 30
0.0
 10
19.187365976
 20
28.8145014584
 30
0.0
 10
19.3807125186
 20
28.7886190109
 30
0.0
 10
19.5571460109
 20
28.7643567417
 30
0.0
 10
19.7162317695
 20
28.7419492866
 30
0.0
 10
19.8377680257
 20
28.7244593536
 30
0.0
 10
19.9260330948
 20
28.7115756445
 30
0.0
 10
19.98540861
 20
28.7028385323
 30
0.0
 10
20.0401741689
 20
28.6947185912
 30
0.0
 10
20.090298076
 20
28.6872332204
 30
0.0
 10
20.1357505911
 20
28.6803998994
 30
0.0
 10
20.1765019846
 20
28.6742360787
 30
0.0
 10
20.212522542
 20
28.6687589138
 30
0.0
 10
20.2437854638
 20
28.6639859129
 30
0.0
 10
20.2668538806
 20
28.6604536929
 30
0.0
 10
20.2829147992
 20
28.6579884913
 30
0.0
 10
20.2931621968
 20
28.6564132204
 30
0.0
 10
20.3022087283
 20
28.6550204325
 30
0.0
 10
20.3100531361
 20
28.6538108955
 30
0.0
 10
20.316694093
 20
28.6527853417
 30
0.0
 10
20.3214755755
 20
28.6520458815
 30
0.0
 10
20.3246979329
 20
28.6515468324
 30
0.0
 10
20.32666271
 20
28.6512425207
 30
0.0
 10
20.3283246287
 20
28.6509842832
 30
0.0
 10
20.3296875232
 20
28.6507740993
 30
0.0
 10
20.3307405785
 20
28.6506070356
 30
0.0
 10
20.3314453455
 20
28.6505046762
 30
0.0
 10
20.3318333127
 20
28.6504346023
 30
0.0
 10
20.3320478669
 20
28.6504171414
 30
0.0
 10
20.3321164708
 20
28.6503782747
 30
0.0
 10
20.3322133907
 20
28.6503923299
 30
0.0
 10
20.3322069091
 20
28.6503813373
 30
0.0
  0
SPLINE
  5
275
100
AcDbEntity
  8
0
100
AcDbSpline
 62
7
  6
BYLAYER
 70
0
 71
3
 72
13
 73
9
 74
0
 42
0.0000001
 43
0.0000001
 44
0.0000000001
 40
0.0
 40
0.0
 40
0.0
 40
0.0
 40
0.1281711599
 40
0.2562713776
 40
0.3830675375
 40
0.5086183149
 40
0.755567282
 40
1.0
 40
1.0
 40
1.0
 40
1.0
 10
19.6353332573
 20
10.962755102
 30
0.0
 10
19.6353332573
 20
10.948892028
 30
0.0
 10
19.6321352154
 20
10.9210900364
 30
0.0
 10
19.6186146873
 20
10.8815976547
 30
0.0
 10
19.5970099598
 20
10.8462009031
 30
0.0
 10
19.5599684093
 20
10.8064717776
 30
0.0
 10
19.500932666
 20
10.7719684263
 30
0.0
 10
19.4473480761
 20
10.762755102
 30
0.0
 10
19.4209100781
 20
10.762755102
 30
0.0
  0
SPLINE
  5
276
100
AcDbEntity
  8
0
100
AcDbSpline
 62
7
  6
BYLAYER
 70
0
 71
3
 72
15
 73
11
 74
0
 42
0.0000001
 43
0.0000001
 44
0.0000000001
 40
0.0
 40
0.0
 40
0.0
 40
0.0
 40
0.1367833477
 40
0.2702987101
 40
0.3990509449
 40
0.5233273968
 40
0.6442707776
 40
0.7632186211
 40
0.8814276144
 40
1.0
 40
1.0
 40
1.0
 40
1.0
 10
8.9344796357
 20
4.9127551126
 30
0.0
 10
8.9344796032
 20
4.876187052
 30
0.0
 10
8.9428620841
 20
4.8036517712
 30
0.0
 10
8.9788159862
 20
4.7023252914
 30
0.0
 10
9.0337754344
 20
4.613912517
 30
0.0
 10
9.1029837265
 20
4.5408755553
 30
0.0
 10
9.182615539
 20
4.4838905071
 30
0.0
 10
9.2697580594
 20
4.4430174122
 30
0.0
 10
9.3620632547
 20
4.4182639223
 30
0.0
 10
9.4255074216
 20
4.4127484342
 30
0.0
 10
9.4572069096
 20
4.412755102
 30
0.0
  0
SPLINE
  5
277
100
AcDbEntity
  8
0
100
AcDbSpline
 62
7
  6
BYLAYER
 70
0
 71
3
 72
15
 73
11
 74
0
 42
0.0000001
 43
0.0000001
 44
0.0000000001
 40
0.0
 40
0.0
 40
0.0
 40
0.0
 40
0.1695136766
 40
0.3378979112
 40
0.4960723714
 40
0.6368993165
 40
0.7555102911
 40
0.8528631394
 40
0.9322678953
 40
1.0
 40
1.0
 40
1.0
 40
1.0
 10
9.4572089091
 20
4.4127551021
 30
0.0
 10
9.4572086633
 20
4.4298371508
 30
0.0
 10
9.4590011404
 20
4.4639076007
 30
0.0
 10
9.4667393997
 20
4.5134017068
 30
0.0
 10
9.4797394029
 20
4.5588008461
 30
0.0
 10
9.4966706492
 20
4.5975123391
 30
0.0
 10
9.5167782259
 20
4.6275835611
 30
0.0
 10
9.5384091033
 20
4.6484623798
 30
0.0
 10
9.5604625291
 20
4.6602492254
 30
0.0
 10
9.5753811581
 20
4.662758334
 30
0.0
 10
9.5822065843
 20
4.662758452
 30
0.0
  0
SPLINE
  5
278
100
AcDbEntity
  8
0
100
AcDbSpline
 62
7
  6
BYLAYER
 70
0
 71
3
 72
13
 73
9
 74
0
 42
0.0000001
 43
0.0000001
 44
0.0000000001
 40
0.0
 40
0.0
 40
0.0
 40
0.0
 40
0.2443827184
 40
0.4913732729
 40
0.6169858955
 40
0.7438163524
 40
0.87185798
 40
1.0
 40
1.0
 40
1.0
 40
1.0
 10
5.2435038687
 20
10.762755102
 30
0.0
 10
5.2170711742
 20
10.762755102
 30
0.0
 10
5.1634883589
 20
10.7719652189
 30
0.0
 10
5.1044410323
 20
10.8064664336
 30
0.0
 10
5.067400009
 20
10.8462173326
 30
0.0
 10
5.0457927543
 20
10.8816158118
 30
0.0
 10
5.0322638653
 20
10.9211007684
 30
0.0
 10
5.0290805609
 20
10.948895125
 30
0.0
 10
5.0290805609
 20
10.962755102
 30
0.0
  0
SPLINE
  5
279
100
AcDbEntity
  8
0
100
AcDbSpline
 62
7
  6
BYLAYER
 70
0
 71
3
 72
15
 73
11
 74
0
 42
0.0000001
 43
0.0000001
 44
0.0000000001
 40
0.0
 40
0.0
 40
0.0
 40
0.0
 40
0.1695133547
 40
0.3378973905
 40
0.4960717769
 40
0.6368987811
 40
0.7555098985
 40
0.8528629157
 40
0.9322678161
 40
1.0
 40
1.0
 40
1.0
 40
1.0
 10
15.2072074128
 20
4.4127551021
 30
0.0
 10
15.2072075978
 20
4.4298371389
 30
0.0
 10
15.2054149957
 20
4.4639075707
 30
0.0
 10
15.1976765606
 20
4.5134016491
 30
0.0
 10
15.1846763931
 20
4.5588007778
 30
0.0
 10
15.1677449986
 20
4.5975122742
 30
0.0
 10
15.1476373016
 20
4.627583512
 30
0.0
 10
15.1260063263
 20
4.6484623444
 30
0.0
 10
15.1039528331
 20
4.6602492073
 30
0.0
 10
15.0890341641
 20
4.6627583228
 30
0.0
 10
15.0822087216
 20
4.6627584409
 30
0.0
  0
SPLINE
  5
27A
100
AcDbEntity
  8
0
100
AcDbSpline
 62
7
  6
BYLAYER
 70
0
 71
3
 72
13
 73
9
 74
0
 42
0.0000001
 43
0.0000001
 44
0.0000000001
 40
0.0
 40
0.0
 40
0.0
 40
0.0
 40
0.2493680296
 40
0.4988282791
 40
0.6240870859
 40
0.7494070868
 40
0.8749357543
 40
1.0
 40
1.0
 40
1.0
 40
1.0
 10
5.8114336968
 20
10.762755102
 30
0.0
 10
5.7837811906
 20
10.762755102
 30
0.0
 10
5.7280533774
 20
10.7718497248
 30
0.0
 10
5.6660824485
 20
10.8061903076
 30
0.0
 10
5.6270790434
 20
10.8460654117
 30
0.0
 10
5.6043977495
 20
10.8814645156
 30
0.0
 10
5.5901707428
 20
10.9210053811
 30
0.0
 10
5.5868186009
 20
10.948886685
 30
0.0
 10
5.5868186009
 20
10.962755102
 30
0.0
  0
SPLINE
  5
27B
100
AcDbEntity
  8
0
100
AcDbSpline
 62
7
  6
BYLAYER
 70
0
 71
3
 72
9
 73
5
 74
0
 42
0.0000001
 43
0.0000001
 44
0.0000000001
 40
0.0
 40
0.0
 40
0.0
 40
0.0
 40
0.4916357617
 40
1.0
 40
1.0
 40
1.0
 40
1.0
 10
15.6598770153
 20
6.362755102
 30
0.0
 10
15.6820702268
 20
6.3259896384
 30
0.0
 10
15.7176329337
 20
6.2449596897
 30
0.0
 10
15.729933442
 20
6.1571609097
 30
0.0
 10
15.7299341825
 20
6.1127550785
 30
0.0
  0
SPLINE
  5
27C
100
AcDbEntity
  8
0
100
AcDbSpline
 62
7
  6
BYLAYER
 70
0
 71
3
 72
15
 73
11
 74
0
 42
0.0000001
 43
0.0000001
 44
0.0000000001
 40
0.0
 40
0.0
 40
0.0
 40
0.0
 40
0.1367836507
 40
0.2702987971
 40
0.3990508979
 40
0.5233274663
 40
0.6442706091
 40
0.7632179783
 40
0.8814269224
 40
1.0
 40
1.0
 40
1.0
 40
1.0
 10
15.7299341825
 20
4.9127551133
 30
0.0
 10
15.7299341338
 20
4.8761869714
 30
0.0
 10
15.721551784
 20
4.8036516598
 30
0.0
 10
15.6855977671
 20
4.7023252176
 30
0.0
 10
15.6306383648
 20
4.6139125023
 30
0.0
 10
15.561430129
 20
4.5408755753
 30
0.0
 10
15.4817984414
 20
4.4838906256
 30
0.0
 10
15.3946561252
 20
4.4430175996
 30
0.0
 10
15.3023509295
 20
4.4182639288
 30
0.0
 10
15.2389065821
 20
4.4127484405
 30
0.0
 10
15.2072069089
 20
4.412755102
 30
0.0
  0
SPLINE
  5
27D
100
AcDbEntity
  8
0
100
AcDbSpline
 62
7
  6
BYLAYER
 70
0
 71
3
 72
9
 73
5
 74
0
 42
0.0000001
 43
0.0000001
 44
0.0000000001
 40
0.0
 40
0.0
 40
0.0
 40
0.0
 40
0.5083750564
 40
1.0
 40
1.0
 40
1.0
 40
1.0
 10
8.9344796357
 20
6.1127550929
 30
0.0
 10
8.9344797268
 20
6.1571618703
 30
0.0
 10
8.9467813154
 20
6.2449607213
 30
0.0
 10
8.9823440836
 20
6.3259904457
 30
0.0
 10
9.0045368062
 20
6.362755102
 30
0.0
  0
SPLINE
  5
27E
100
AcDbEntity
  8
0
100
AcDbSpline
 62
7
  6
BYLAYER
 70
0
 71
3
 72
15
 73
11
 74
0
 42
0.0000001
 43
0.0000001
 44
0.0000000001
 40
0.0
 40
0.0
 40
0.0
 40
0.0
 40
0.1069495454
 40
0.2166495272
 40
0.3309249022
 40
0.4513340892
 40
0.5791708771
 40
0.7143307449
 40
0.8557435867
 40
1.0
 40
1.0
 40
1.0
 40
1.0
 10
9.8799712644
 20
10.762755102
 30
0.0
 10
9.8697215932
 20
10.762755102
 30
0.0
 10
9.8488898904
 20
10.7651122992
 30
0.0
 10
9.8186921402
 20
10.775567261
 30
0.0
 10
9.790334966
 20
10.7929351679
 30
0.0
 10
9.7648572502
 20
10.8168978789
 30
0.0
 10
9.7433863786
 20
10.8469856167
 30
0.0
 10
9.7268947049
 20
10.8822980111
 30
0.0
 10
9.7166174755
 20
10.9215008433
 30
0.0
 10
9.7142099672
 20
10.9489300707
 30
0.0
 10
9.7142099672
 20
10.962755102
 30
0.0
  0
SPLINE
  5
27F
100
AcDbEntity
  8
0
100
AcDbSpline
 62
7
  6
BYLAYER
 70
0
 71
3
 72
19
 73
15
 74
0
 42
0.0000001
 43
0.0000001
 44
0.0000000001
 40
0.0
 40
0.0
 40
0.0
 40
0.0
 40
0.2057383778
 40
0.4014931258
 40
0.5766314418
 40
0.725172875
 40
0.7880678208
 40
0.8430310879
 40
0.8898656375
 40
0.9283832165
 40
0.9584953572
 40
0.9802465661
 40
0.9937952217
 40
1.0
 40
1.0
 40
1.0
 40
1.0
 10
9.2892253823
 20
10.962755102
 30
0.0
 10
9.2892253823
 20
10.9489792013
 30
0.0
 10
9.2890867663
 20
10.9220957374
 30
0.0
 10
9.288498598
 20
10.8834890837
 30
0.0
 10
9.2875554197
 20
10.848720812
 30
0.0
 10
9.286492706
 20
10.8228562585
 30
0.0
 10
9.2854834094
 20
10.8050477157
 30
0.0
 10
9.2847206383
 20
10.7940440315
 30
0.0
 10
9.283926891
 20
10.7846883353
 30
0.0
 10
9.283089586
 20
10.7769831859
 30
0.0
 10
9.2822792796
 20
10.7710329881
 30
0.0
 10
9.2813711243
 20
10.7666282549
 30
0.0
 10
9.2807002587
 20
10.7641524433
 30
0.0
 10
9.279833943
 20
10.762755102
 30
0.0
 10
9.2794184813
 20
10.762755102
 30
0.0
  0
SPLINE
  5
280
100
AcDbEntity
  8
0
100
AcDbSpline
 62
7
  6
BYLAYER
 70
0
 71
3
 72
15
 73
11
 74
0
 42
0.0000001
 43
0.0000001
 44
0.0000000001
 40
0.0
 40
0.0
 40
0.0
 40
0.0
 40
0.0881927466
 40
0.1822717029
 40
0.2865583842
 40
0.4038811786
 40
0.5357368916
 40
0.6812649671
 40
0.8379397808
 40
1.0
 40
1.0
 40
1.0
 40
1.0
 10
11.7156125728
 20
10.762755102
 30
0.0
 10
11.7081023028
 20
10.762755102
 30
0.0
 10
11.6924939288
 20
10.7652308685
 30
0.0
 10
11.6702719343
 20
10.7760064394
 30
0.0
 10
11.6496423682
 20
10.793624623
 30
0.0
 10
11.6312403363
 20
10.8176767967
 30
0.0
 10
11.6157863534
 20
10.8476918355
 30
0.0
 10
11.6039243522
 20
10.8828345736
 30
0.0
 10
11.5965400034
 20
10.921784206
 30
0.0
 10
11.5948120604
 20
10.948954466
 30
0.0
 10
11.5948120604
 20
10.962755102
 30
0.0
  0
SPLINE
  5
281
100
AcDbEntity
  8
0
100
AcDbSpline
 62
7
  6
BYLAYER
 70
0
 71
3
 72
17
 73
13
 74
0
 42
0.0000001
 43
0.0000001
 44
0.0000000001
 40
0.0
 40
0.0
 40
0.0
 40
0.0
 40
0.1853438597
 40
0.3625906401
 40
0.5230722074
 40
0.6623273298
 40
0.7778738458
 40
0.8699748246
 40
0.9080230316
 40
0.9415869072
 40
0.9717529157
 40
1.0
 40
1.0
 40
1.0
 40
1.0
 10
11.1387474242
 20
10.962755102
 30
0.0
 10
11.1387474242
 20
10.9489706754
 30
0.0
 10
11.1377872627
 20
10.9219957146
 30
0.0
 10
11.1337069223
 20
10.8832728417
 30
0.0
 10
11.1271616713
 20
10.8483661091
 30
0.0
 10
11.1186690596
 20
10.8186053922
 30
0.0
 10
11.1086279696
 20
10.7947734762
 30
0.0
 10
11.0987409332
 20
10.7792020693
 30
0.0
 10
11.0901603426
 20
10.7704975867
 30
0.0
 10
11.0839556561
 20
10.7660784787
 30
0.0
 10
11.0776046063
 20
10.7633752768
 30
0.0
 10
11.0732408528
 20
10.762755102
 30
0.0
 10
11.0711400556
 20
10.762755102
 30
0.0
  0
SPLINE
  5
282
100
AcDbEntity
  8
0
100
AcDbSpline
 62
7
  6
BYLAYER
 70
0
 71
3
 72
17
 73
13
 74
0
 42
0.0000001
 43
0.0000001
 44
0.0000000001
 40
0.0
 40
0.0
 40
0.0
 40
0.0
 40
0.0282435967
 40
0.0583999734
 40
0.091952033
 40
0.1299918871
 40
0.2220930184
 40
0.3376655612
 40
0.4770074738
 40
0.6375327448
 40
0.8146946114
 40
1.0
 40
1.0
 40
1.0
 40
1.0
 10
13.5932737662
 20
10.762755102
 30
0.0
 10
13.5911732186
 20
10.762755102
 30
0.0
 10
13.5868103984
 20
10.7633742981
 30
0.0
 10
13.5804603678
 20
10.7660752928
 30
0.0
 10
13.5742568409
 20
10.7704923652
 30
0.0
 10
13.5656772459
 20
10.7791958447
 30
0.0
 10
13.5557885607
 20
10.7947677162
 30
0.0
 10
13.5457421886
 20
10.8186069119
 30
0.0
 10
13.5372517033
 20
10.8483806193
 30
0.0
 10
13.5307047662
 20
10.8832903778
 30
0.0
 10
13.5266220429
 20
10.9220074072
 30
0.0
 10
13.5256663939
 20
10.9489734719
 30
0.0
 10
13.5256663939
 20
10.962755102
 30
0.0
  0
SPLINE
  5
283
100
AcDbEntity
  8
0
100
AcDbSpline
 62
7
  6
BYLAYER
 70
0
 71
3
 72
15
 73
11
 74
0
 42
0.0000001
 43
0.0000001
 44
0.0000000001
 40
0.0
 40
0.0
 40
0.0
 40
0.0
 40
0.1620945297
 40
0.318843341
 40
0.4643320874
 40
0.5961122068
 40
0.7134054616
 40
0.8176883559
 40
0.9117908853
 40
1.0
 40
1.0
 40
1.0
 40
1.0
 10
13.0696017577
 20
10.962755102
 30
0.0
 10
13.0696017577
 20
10.9489515986
 30
0.0
 10
13.0678657244
 20
10.9217727373
 30
0.0
 10
13.0604858268
 20
10.8828169596
 30
0.0
 10
13.0486260856
 20
10.8476765193
 30
0.0
 10
13.0331697928
 20
10.8176770371
 30
0.0
 10
13.0147767993
 20
10.7936303794
 30
0.0
 10
12.9941483995
 20
10.7760117509
 30
0.0
 10
12.97192421
 20
10.7652346517
 30
0.0
 10
12.9563128861
 20
10.762755102
 30
0.0
 10
12.9488012519
 20
10.762755102
 30
0.0
  0
SPLINE
  5
284
100
AcDbEntity
  8
0
100
AcDbSpline
 62
7
  6
BYLAYER
 70
0
 71
3
 72
19
 73
15
 74
0
 42
0.0000001
 43
0.0000001
 44
0.0000000001
 40
0.0
 40
0.0
 40
0.0
 40
0.0
 40
0.0062013119
 40
0.0197397966
 40
0.0414796258
 40
0.0715842655
 40
0.1101003263
 40
0.1569336809
 40
0.211902276
 40
0.2748166439
 40
0.423455382
 40
0.5986421938
 40
0.7943032211
 40
1.0
 40
1.0
 40
1.0
 40
1.0
 10
15.3849953374
 20
10.762755102
 30
0.0
 10
15.3845801072
 20
10.762755102
 30
0.0
 10
15.3837136077
 20
10.7641506216
 30
0.0
 10
15.3830429973
 20
10.7666253807
 30
0.0
 10
15.3821349642
 20
10.7710278664
 30
0.0
 10
15.381324887
 20
10.7769768427
 30
0.0
 10
15.3804876363
 20
10.7846812798
 30
0.0
 10
15.3796936573
 20
10.7940371595
 30
0.0
 10
15.3789306172
 20
10.8050424189
 30
0.0
 10
15.3779208042
 20
10.8228591479
 30
0.0
 10
15.3768583561
 20
10.8487348248
 30
0.0
 10
15.3759149048
 20
10.883506624
 30
0.0
 10
15.3753263984
 20
10.9221075197
 30
0.0
 10
15.3751884358
 20
10.9489819661
 30
0.0
 10
15.3751884358
 20
10.962755102
 30
0.0
  0
SPLINE
  5
285
100
AcDbEntity
  8
0
100
AcDbSpline
 62
7
  6
BYLAYER
 70
0
 71
3
 72
15
 73
11
 74
0
 42
0.0000001
 43
0.0000001
 44
0.0000000001
 40
0.0
 40
0.0
 40
0.0
 40
0.0
 40
0.144287805
 40
0.2857663192
 40
0.4208900248
 40
0.5486593989
 40
0.669036014
 40
0.7833052557
 40
0.8930314517
 40
1.0
 40
1.0
 40
1.0
 40
1.0
 10
14.9502038509
 20
10.962755102
 30
0.0
 10
14.9502038509
 20
10.9489271126
 30
0.0
 10
14.9477852291
 20
10.921489684
 30
0.0
 10
14.9375142912
 20
10.8822801939
 30
0.0
 10
14.9210248495
 20
10.846969668
 30
0.0
 10
14.8995526815
 20
10.8168996464
 30
0.0
 10
14.8740863527
 20
10.7929407818
 30
0.0
 10
14.8457304592
 20
10.7755725294
 30
0.0
 10
14.8155297194
 20
10.7651159826
 30
0.0
 10
14.7946940178
 20
10.762755102
 30
0.0
 10
14.7844425627
 20
10.762755102
 30
0.0
  0
SPLINE
  5
286
100
AcDbEntity
  8
0
100
AcDbSpline
 62
7
  6
BYLAYER
 70
0
 71
3
 72
49
 73
45
 74
0
 42
0.0000001
 43
0.0000001
 44
0.0000000001
 40
0.0
 40
0.0
 40
0.0
 40
0.0
 40
0.0000047707
 40
0.0000190762
 40
0.0000429139
 40
0.0000762811
 40
0.0001715934
 40
0.0003049918
 40
0.0004764551
 40
0.000685962
 40
0.0009334913
 40
0.0012190218
 40
0.0019040013
 40
0.0027407304
 40
0.0037290394
 40
0.0048687583
 40
0.0061597172
 40
0.0076017464
 40
0.0109383362
 40
0.0148770447
 40
0.0194149002
 40
0.0245479519
 40
0.0302722346
 40
0.036583786
 40
0.0434786466
 40
0.0509528508
 40
0.0590016444
 40
0.0767983277
 40
0.0968187318
 40
0.1190126426
 40
0.1433230806
 40
0.1696851977
 40
0.198033855
 40
0.2283000621
 40
0.2604069099
 40
0.2942767698
 40
0.3669794716
 40
0.4457118126
 40
0.5297323281
 40
0.6182523917
 40
0.7104250662
 40
0.8053805022
 40
0.9022423456
 40
1.0
 40
1.0
 40
1.0
 40
1.0
 10
4.3322069091
 20
28.6503813373
 30
0.0
 10
4.3322082693
 20
28.6503940362
 30
0.0
 10
4.3322861135
 20
28.6503759227
 30
0.0
 10
4.3323731819
 20
28.6504187551
 30
0.0
 10
4.3325773059
 20
28.6504340189
 30
0.0
 10
4.3329716388
 20
28.6505054854
 30
0.0
 10
4.3336716801
 20
28.6506068733
 30
0.0
 10
4.3347270073
 20
28.6507744519
 30
0.0
 10
4.3360889879
 20
28.6509844641
 30
0.0
 10
4.3377511887
 20
28.6512427772
 30
0.0
 10
4.3397158033
 20
28.6515470628
 30
0.0
 10
4.342938114
 20
28.6520461051
 30
0.0
 10
4.3477194273
 20
28.6527855171
 30
0.0
 10
4.3543602051
 20
28.6538110037
 30
0.0
 10
4.3622043947
 20
28.6550204555
 30
0.0
 10
4.3712507
 20
28.6564131531
 30
0.0
 10
4.3814978662
 20
28.6579883355
 30
0.0
 10
4.3975585014
 20
28.6604534322
 30
0.0
 10
4.420626589
 20
28.6639855771
 30
0.0
 10
4.4518890257
 20
28.6687585788
 30
0.0
 10
4.4879089627
 20
28.6742355988
 30
0.0
 10
4.528659546
 20
28.6803992298
 30
0.0
 10
4.5741111738
 20
28.6872323545
 30
0.0
 10
4.6242342376
 20
28.6947175955
 30
0.0
 10
4.6789991115
 20
28.7028375163
 30
0.0
 10
4.738373984
 20
28.7115748154
 30
0.0
 10
4.8266379242
 20
28.7244585762
 30
0.0
 10
4.9481724983
 20
28.741948254
 30
0.0
 10
5.1072563993
 20
28.7643554312
 30
0.0
 10
5.283688028
 20
28.788617994
 30
0.0
 10
5.477032774
 20
28.8145003576
 30
0.0
 10
5.6868180269
 20
28.8417396909
 30
0.0
 10
5.9125370583
 20
28.8700739824
 30
0.0
 10
6.1536499716
 20
28.8992329298
 30
0.0
 10
6.4095829807
 20
28.928933543
 30
0.0
 10
6.7785779696
 20
28.9698493151
 30
0.0
 10
7.2720748963
 20
29.0204696506
 30
0.0
 10
7.8998382018
 20
29.0774852769
 30
0.0
 10
8.5704822341
 20
29.1299763315
 30
0.0
 10
9.2776700545
 20
29.1759223082
 30
0.0
 10
10.0146607564
 20
29.2136341957
 30
0.0
 10
10.7744341614
 20
29.2416408993
 30
0.0
 10
11.5494832718
 20
29.2588605773
 30
0.0
 10
12.0705023558
 20
29.2627496578
 30
0.0
 10
12.3322069091
 20
29.262755102
 30
0.0
  0
ENDSEC
  0
SECTION
  2
OBJECTS
  0
DICTIONARY
  5
C
100
AcDbDictionary
280
0
281
1
  3
ACAD_GROUP
350
D
  3
ACAD_MLINESTYLE
350
17
  3
ACAD_LAYOUT
350
1A
  3
ACAD_PLOTSETTINGS
350
19
  3
ACAD_PLOTSTYLENAME
350
E
  0
DICTIONARY
  5
D
102
{ACAD_REACTORS
330
C
102
}
100
AcDbDictionary
280
0
281
1
  0
ACDBDICTIONARYWDFLT
  5
E
102
{ACAD_REACTORS
330
C
102
}
100
AcDbDictionary
281
1
  3
Normal
350
F
100
AcDbDictionaryWithDefault
340
F
  0
DICTIONARY
  5
17
102
{ACAD_REACTORS
330
C
102
}
100
AcDbDictionary
280
0
281
1
  3
Standard
350
18
  0
DICTIONARY
  5
19
102
{ACAD_REACTORS
330
C
102
}
100
AcDbDictionary
281
1
  0
DICTIONARY
  5
1A
102
{ACAD_REACTORS
330
C
102
}
100
AcDbDictionary
281
1
  3
Model
350
287
  3
Layout1
350
288
  0
ACDBPLACEHOLDER
  5
F
102
{ACAD_REACTORS
330
E
102
}
  0
MLINESTYLE
  5
18
102
{ACAD_REACTORS
330
17
102
}
100
AcDbMlineStyle
  2
STANDARD
 70
0
  3

 62
256
 51
90.0
 52
90.0
 71
2
 49
0.5
 62
256
  6
BYLAYER
 49
-0.5
 62
256
  6
BYLAYER
  0
LAYOUT
  5
287
102
{ACAD_REACTORS
330
1A
102
}
100
AcDbPlotSettings
  1

  2
none_device
  4

  6

 40
0.0
 41
0.0
 42
0.0
 43
0.0
 44
210.0
 45
297.0
 46
0.0
 47
0.0
 48
0.0
 49
0.0
140
0.0
141
0.0
142
1.0
143
1.0
 70
1024
 72
1
 73
0
 74
0
  7

 75
0
147
1.0
148
0.0
149
0.0
100
AcDbLayout
  1
Model
 70
0
 71
0
 10
0.0
 20
0.0
 11
210.0
 21
297.0
 12
0.0
 22
0.0
 32
0.0
 14
0.0
 24
0.0
 34
0.0
 15
0.0
 25
0.0
 35
0.0
146
0.0
 13
0.0
 23
0.0
 33
0.0
 16
1.0
 26
0.0
 36
0.0
 17
0.0
 27
1.0
 37
0.0
 76
0
330
210
345
0
346
0
  0
LAYOUT
  5
288
102
{ACAD_REACTORS
330
1A
102
}
100
AcDbPlotSettings
  1

  2
none_device
  4

  6

 40
0.0
 41
0.0
 42
0.0
 43
0.0
 44
210.0
 45
297.0
 46
0.0
 47
0.0
 48
0.0
 49
0.0
140
0.0
141
0.0
142
1.0
143
1.0
 70
0
 72
1
 73
0
 74
0
  7

 75
0
147
1.0
148
0.0
149
0.0
100
AcDbLayout
  1
Layout1
 70
0
 71
1
 10
0.0
 20
0.0
 11
210.0
 21
297.0
 12
0.0
 22
0.0
 32
0.0
 14
0.0
 24
0.0
 34
0.0
 15
0.0
 25
0.0
 35
0.0
146
0.0
 13
0.0
 23
0.0
 33
0.0
 16
1.0
 26
0.0
 36
0.0
 17
0.0
 27
1.0
 37
0.0
 76
0
330
211
345
0
346
0
  0
ENDSEC
  0
EOF
