999
DXF file: C:\Users\sesa63760\Dev\_Creo\CAD\MCADID0004763_3D-CAD\drw0001_5.dxf
999
Pro/ENGINEER 2019471 by Parametric Technology Corporation
  0
SECTION
  2
HEADER
  9
$ACADVER
  1
AC1024
  9
$DWGCODEPAGE
  3
ANSI_1252
  9
$EXTMAX
 10
186.8324970841
 20
264.2345315904
 30
0.0
  9
$EXTMIN
 10
0.0
 20
0.0
 30
0.0
  9
$LIMMIN
 10
0.0
 20
0.0
  9
$LIMMAX
 10
186.8324970841
 20
264.2345315904
  9
$VIEWCTR
 10
93.4162485421
 20
132.1172657952
  9
$VIEWSIZE
 40
264.2345315904
  9
$CLAYER
  8
0
  9
$LTSCALE
 40
17.224176874
  9
$CELTYPE
  6
BYLAYER
  9
$DIMSCALE
 40
1.0
  9
$DIMASZ
 40
2.2241963939
  9
$DIMEXO
 40
1.0
  9
$DIMDLI
 40
11.9003403857
  9
$DIMEXE
 40
1.0
  9
$DIMCEN
 40
2.8185016703
  9
$DIMLFAC
 40
1.0
  9
$DIMBLK
  1
_FILLED
  9
$DIMALT
 70
0
  9
$DIMALTF
 40
0.0393700787
  9
$DIMTXT
 40
3.1138749514
  9
$DIMTOL
 70
1
  9
$DIMLIM
 70
0
  9
$DIMTFAC
 40
1.0
  9
$DIMTP
 40
0.01
  9
$DIMTM
 40
0.01
  9
$DIMGAP
 40
0.625
  9
$DIMDSEP
 70
46
  9
$AUNITS
 70
0
  9
$PDMODE
 70
3
  9
$PDSIZE
 40
0.3125
  9
$HANDSEED
  5
2BB
  9
$TILEMODE
 70
1
  9
$MEASUREMENT
 70
1
  9
$INSUNITS
 70
4
  0
ENDSEC
  0
SECTION
  2
CLASSES
  0
CLASS
  1
ACDBDICTIONARYWDFLT
  2
AcDbDictionaryWithDefault
  3
AutoCAD 2000
 90
0
 91
1
280
0
281
0
  0
CLASS
  1
ACDBPLACEHOLDER
  2
AcDbPlaceHolder
  3
AutoCAD 2000
 90
0
 91
1
280
0
281
0
  0
CLASS
  1
LAYOUT
  2
AcDbLayout
  3
AutoCAD 2000
 90
0
 91
0
280
0
281
0
  0
ENDSEC
  0
SECTION
  2
TABLES
  0
TABLE
  2
VPORT
  5
8
100
AcDbSymbolTable
 70
2
  0
VPORT
  5
1F4
100
AcDbSymbolTableRecord
100
AcDbViewportTableRecord
  2
*ACTIVE
 70
0
 10
0.0
 20
0.0
 11
1.0
 21
1.0
 12
93.4162485421
 22
132.1172657952
 13
0.0
 23
0.0
 14
1.0
 24
1.0
 15
0.0
 25
0.0
 16
0.0
 26
0.0
 36
1.0
 17
0.0
 27
0.0
 37
0.0
 40
264.2345315904
 41
0.7070707071
 42
50.0
 43
0.0
 44
0.0
 50
0.0
 51
0.0
 71
0
 72
100
 73
1
 74
1
 75
0
 76
0
 77
0
 78
0
  0
ENDTAB
  0
TABLE
  2
LTYPE
  5
5
100
AcDbSymbolTable
 70
6
  0
LTYPE
  5
14
100
AcDbSymbolTableRecord
100
AcDbLinetypeTableRecord
  2
BYBLOCK
 70
0
  3

 72
65
 73
0
 40
0.0
  0
LTYPE
  5
15
100
AcDbSymbolTableRecord
100
AcDbLinetypeTableRecord
  2
BYLAYER
 70
0
  3

 72
65
 73
0
 40
0.0
  0
LTYPE
  5
16
100
AcDbSymbolTableRecord
100
AcDbLinetypeTableRecord
  2
CONTINUOUS
 70
64
  3
Solid line
 72
65
 73
0
 40
0.0
  0
LTYPE
  5
1F5
100
AcDbSymbolTableRecord
100
AcDbLinetypeTableRecord
  2
CENTER
 70
64
  3
____ _ ____ _ ____ _ ____ _ ____ _ ____ _ ____
 72
65
 73
4
 40
0.6
 49
0.375
 74
0
 49
-0.075
 74
0
 49
0.075
 74
0
 49
-0.075
 74
0
  0
LTYPE
  5
1F6
100
AcDbSymbolTableRecord
100
AcDbLinetypeTableRecord
  2
HIDDEN
 70
64
  3
- - - - - - - - - - - - - - - - - - - -
 72
65
 73
2
 40
0.2
 49
0.1
 74
0
 49
-0.1
 74
0
  0
LTYPE
  5
1F7
100
AcDbSymbolTableRecord
100
AcDbLinetypeTableRecord
  2
PHANTOM
 70
64
  3
_____ _ _ _____ _ _ _____ _ _ _____
 72
65
 73
6
 40
0.8
 49
0.45
 74
0
 49
-0.05
 74
0
 49
0.1
 74
0
 49
-0.05
 74
0
 49
0.1
 74
0
 49
-0.05
 74
0
  0
LTYPE
  5
1F8
100
AcDbSymbolTableRecord
100
AcDbLinetypeTableRecord
  2
DOT
 70
64
  3
. . . . . . . . . . . . . . . . . . . .
 72
65
 73
2
 40
0.2
 49
0.1
 74
0
 49
-0.1
 74
0
  0
LTYPE
  5
1F9
100
AcDbSymbolTableRecord
100
AcDbLinetypeTableRecord
  2
DASHED
 70
64
  3
- - - - - - - - - - - - - - - - - - - -
 72
65
 73
2
 40
0.2
 49
0.1
 74
0
 49
-0.1
 74
0
  0
ENDTAB
  0
TABLE
  2
LAYER
  5
2
100
AcDbSymbolTable
 70
36
  0
LAYER
  5
10
100
AcDbSymbolTableRecord
100
AcDbLayerTableRecord
  2
0
 70
0
 62
7
  6
CONTINUOUS
370
-3
390
F
  0
LAYER
  5
1FA
100
AcDbSymbolTableRecord
100
AcDbLayerTableRecord
  2
DEFAULT_1
 70
0
 62
7
  6
CENTER
370
-3
390
F
  0
LAYER
  5
1FB
100
AcDbSymbolTableRecord
100
AcDbLayerTableRecord
  2
DEFAULT_2
 70
0
 62
7
  6
HIDDEN
370
-3
390
F
  0
LAYER
  5
1FC
100
AcDbSymbolTableRecord
100
AcDbLayerTableRecord
  2
DEFAULT_3
 70
0
 62
7
  6
PHANTOM
370
-3
390
F
  0
LAYER
  5
1FD
100
AcDbSymbolTableRecord
100
AcDbLayerTableRecord
  2
00_COMPONENTS
 70
0
 62
7
  6
CONTINUOUS
370
-3
390
F
  0
LAYER
  5
1FE
100
AcDbSymbolTableRecord
100
AcDbLayerTableRecord
  2
01_1_DEFAULT_DATUMS
 70
0
 62
7
  6
CONTINUOUS
370
-3
390
F
  0
LAYER
  5
1FF
100
AcDbSymbolTableRecord
100
AcDbLayerTableRecord
  2
01_PLANES
 70
0
 62
7
  6
CONTINUOUS
370
-3
390
F
  0
LAYER
  5
200
100
AcDbSymbolTableRecord
100
AcDbLayerTableRecord
  2
02_COORD_SYS
 70
0
 62
7
  6
CONTINUOUS
370
-3
390
F
  0
LAYER
  5
201
100
AcDbSymbolTableRecord
100
AcDbLayerTableRecord
  2
03_AXES
 70
0
 62
7
  6
CONTINUOUS
370
-3
390
F
  0
LAYER
  5
202
100
AcDbSymbolTableRecord
100
AcDbLayerTableRecord
  2
04_POINTS
 70
0
 62
7
  6
CONTINUOUS
370
-3
390
F
  0
LAYER
  5
203
100
AcDbSymbolTableRecord
100
AcDbLayerTableRecord
  2
05_CURVES
 70
0
 62
7
  6
CONTINUOUS
370
-3
390
F
  0
LAYER
  5
204
100
AcDbSymbolTableRecord
100
AcDbLayerTableRecord
  2
06_SURFS
 70
0
 62
7
  6
CONTINUOUS
370
-3
390
F
  0
LAYER
  5
205
100
AcDbSymbolTableRecord
100
AcDbLayerTableRecord
  2
07_COSMETICS
 70
0
 62
7
  6
CONTINUOUS
370
-3
390
F
  0
LAYER
  5
206
100
AcDbSymbolTableRecord
100
AcDbLayerTableRecord
  2
10_NOTES
 70
0
 62
7
  6
CONTINUOUS
370
-3
390
F
  0
LAYER
  5
207
100
AcDbSymbolTableRecord
100
AcDbLayerTableRecord
  2
11_NOTES_PUB
 70
0
 62
7
  6
CONTINUOUS
370
-3
390
F
  0
LAYER
  5
208
100
AcDbSymbolTableRecord
100
AcDbLayerTableRecord
  2
13_REF_GTOL
 70
0
 62
7
  6
CONTINUOUS
370
-3
390
F
  0
LAYER
  5
209
100
AcDbSymbolTableRecord
100
AcDbLayerTableRecord
  2
16_MISC
 70
0
 62
7
  6
CONTINUOUS
370
-3
390
F
  0
LAYER
  5
20A
100
AcDbSymbolTableRecord
100
AcDbLayerTableRecord
  2
17_NO_PRINT
 70
0
 62
7
  6
CONTINUOUS
370
-3
390
F
  0
LAYER
  5
20B
100
AcDbSymbolTableRecord
100
AcDbLayerTableRecord
  2
18_DATUM_CAMS_JOINTS
 70
0
 62
7
  6
CONTINUOUS
370
-3
390
F
  0
LAYER
  5
20C
100
AcDbSymbolTableRecord
100
AcDbLayerTableRecord
  2
19_DATUM_FUNCTIONAL
 70
0
 62
7
  6
CONTINUOUS
370
-3
390
F
  0
LAYER
  5
20D
100
AcDbSymbolTableRecord
100
AcDbLayerTableRecord
  2
20_DATUM_KINEMATIC_SCHEME
 70
0
 62
7
  6
CONTINUOUS
370
-3
390
F
  0
ENDTAB
  0
TABLE
  2
STYLE
  5
3
100
AcDbSymbolTable
 70
1
  0
STYLE
  5
11
100
AcDbSymbolTableRecord
100
AcDbTextStyleTableRecord
  2
STANDARD
 70
0
 40
0.0
 41
1.0
 50
0.0
 71
0
 42
0.2
  3
ARIAL.TTF
  4

  0
STYLE
  5
20E
100
AcDbSymbolTableRecord
100
AcDbTextStyleTableRecord
  2
TEXTSTYLE_1
 70
0
 40
0.0
 41
0.8
 50
0.0
 71
0
 42
0.2
  3
gdt
  4

  0
ENDTAB
  0
TABLE
  2
VIEW
  5
6
100
AcDbSymbolTable
 70
0
  0
ENDTAB
  0
TABLE
  2
UCS
  5
7
100
AcDbSymbolTable
 70
0
  0
ENDTAB
  0
TABLE
  2
APPID
  5
9
100
AcDbSymbolTable
 70
1
  0
APPID
  5
20F
100
AcDbSymbolTableRecord
100
AcDbRegAppTableRecord
  2
ACAD
 70
0
  0
ENDTAB
  0
TABLE
  2
BLOCK_RECORD
  5
1
100
AcDbSymbolTable
 70
0
  0
BLOCK_RECORD
  5
210
100
AcDbSymbolTableRecord
100
AcDbBlockTableRecord
  2
*Model_Space
  0
BLOCK_RECORD
  5
211
100
AcDbSymbolTableRecord
100
AcDbBlockTableRecord
  2
*Paper_Space
  0
BLOCK_RECORD
  5
212
100
AcDbSymbolTableRecord
100
AcDbBlockTableRecord
  2
_FILLED
  0
ENDTAB
  0
TABLE
  2
DIMSTYLE
  5
A
100
AcDbSymbolTable
 70
1
100
AcDbDimStyleTable
 71
0
  0
DIMSTYLE
105
213
100
AcDbSymbolTableRecord
100
AcDbDimStyleTableRecord
  2
STANDARD
 70
0
  3

  4

 40
1.0
 41
2.2241963939
 42
1.0
 43
0.38
 44
1.0
 45
0.0
 46
0.0
 47
0.01
 48
0.01
140
3.1138749514
141
0.09
142
0.0
143
25.4
144
1.0
145
0.0
146
1.0
147
0.625
 71
1
 72
0
 73
0
 74
0
 75
0
 76
0
 77
1
 78
8
 79
2
170
0
171
1
172
0
173
0
174
0
175
0
176
0
177
0
178
0
270
2
179
2
271
2
272
2
273
2
274
2
275
0
280
0
281
0
282
0
283
1
284
8
285
0
286
0
287
3
288
0
340
11
278
46
341
212
342
212
343
212
344
212
  0
ENDTAB
  0
ENDSEC
  0
SECTION
  2
BLOCKS
  0
BLOCK
  5
20
100
AcDbEntity
  8
0
100
AcDbBlockBegin
  2
*Model_Space
 70
0
 10
0.0
 20
0.0
 30
0.0
  3
*Model_Space
  1

  0
ENDBLK
  5
21
100
AcDbEntity
  8
0
100
AcDbBlockEnd
  0
BLOCK
  5
1C
100
AcDbEntity
  8
0
100
AcDbBlockBegin
  2
*Paper_Space
 70
0
 10
0.0
 20
0.0
 30
0.0
  3
*Paper_Space
  1

  0
ENDBLK
  5
1D
100
AcDbEntity
  8
0
100
AcDbBlockEnd
  0
BLOCK
  5
214
100
AcDbEntity
  8
0
100
AcDbBlockBegin
  2
_FILLED
 70
64
 10
0.0
 20
0.0
  3
_FILLED
  1

  0
SOLID
  5
215
100
AcDbEntity
  8
0
  6
BYBLOCK
 62
0
100
AcDbTrace
 10
0.0
 20
0.0
 11
-1.0
 21
0.25
 12
-1.0
 22
-0.25
 13
-1.0
 23
-0.25
  0
ENDBLK
  5
216
100
AcDbEntity
  8
0
  6
BYBLOCK
 62
0
100
AcDbBlockEnd
  0
ENDSEC
  0
SECTION
  2
ENTITIES
  0
LINE
  5
217
100
AcDbEntity
  8
0
100
AcDbLine
 62
7
  6
BYLAYER
 10
21.7786123765
 20
134.3406862745
 11
21.7786123765
 21
135.5406862745
  0
LINE
  5
218
100
AcDbEntity
  8
0
100
AcDbLine
 62
7
  6
BYLAYER
 10
169.5306424176
 20
126.3128093762
 11
166.8178624205
 21
125.9745723321
  0
LINE
  5
219
100
AcDbEntity
  8
0
100
AcDbLine
 62
7
  6
BYLAYER
 10
166.8225213118
 20
126.1889220279
 11
169.5046596032
 21
126.5233364044
  0
LINE
  5
21A
100
AcDbEntity
  8
0
100
AcDbLine
 62
7
  6
BYLAYER
 10
149.3786123765
 20
118.9406862745
 11
150.3786123765
 21
118.9406862745
  0
LINE
  5
21B
100
AcDbEntity
  8
0
100
AcDbLine
 62
7
  6
BYLAYER
 10
152.8786123765
 20
118.9406862745
 11
159.3786123765
 21
118.9406862745
  0
LINE
  5
21C
100
AcDbEntity
  8
0
100
AcDbLine
 62
7
  6
BYLAYER
 10
150.3786123765
 20
118.9906862745
 11
152.8786123765
 21
118.9906862745
  0
LINE
  5
21D
100
AcDbEntity
  8
0
100
AcDbLine
 62
7
  6
BYLAYER
 10
147.3786123765
 20
119.4406862745
 11
150.3786123765
 21
119.4406862745
  0
LINE
  5
21E
100
AcDbEntity
  8
0
100
AcDbLine
 62
7
  6
BYLAYER
 10
159.3786123765
 20
119.6405906452
 11
152.8786123765
 21
119.640586984
  0
LINE
  5
21F
100
AcDbEntity
  8
0
100
AcDbLine
 62
7
  6
BYLAYER
 10
152.8786123765
 20
119.6906862745
 11
150.3786123765
 21
119.6906862745
  0
LINE
  5
220
100
AcDbEntity
  8
0
100
AcDbLine
 62
7
  6
BYLAYER
 10
159.9786123765
 20
120.4406862745
 11
159.3786123765
 21
120.4406862745
  0
LINE
  5
221
100
AcDbEntity
  8
0
100
AcDbLine
 62
7
  6
BYLAYER
 10
159.9786123765
 20
120.5993451284
 11
159.3786123765
 21
120.5993451284
  0
LINE
  5
222
100
AcDbEntity
  8
0
100
AcDbLine
 62
7
  6
BYLAYER
 10
160.8786123765
 20
120.9406862745
 11
165.6786123765
 21
120.9406862745
  0
LINE
  5
223
100
AcDbEntity
  8
0
100
AcDbLine
 62
7
  6
BYLAYER
 10
159.3786123765
 20
121.1406862745
 11
160.6786123765
 21
121.1406862745
  0
LINE
  5
224
100
AcDbEntity
  8
0
100
AcDbLine
 62
7
  6
BYLAYER
 10
159.3786123765
 20
121.6600053002
 11
159.9786123765
 21
121.6600053002
  0
LINE
  5
225
100
AcDbEntity
  8
0
100
AcDbLine
 62
7
  6
BYLAYER
 10
159.9786123765
 20
122.9583243647
 11
159.3786123765
 21
122.9583243647
  0
LINE
  5
226
100
AcDbEntity
  8
0
100
AcDbLine
 62
7
  6
BYLAYER
 10
159.9786123765
 20
120.7940846396
 11
159.3786123765
 21
120.8022890531
  0
LINE
  5
227
100
AcDbEntity
  8
0
100
AcDbLine
 62
7
  6
BYLAYER
 10
160.3786123765
 20
124.8125440562
 11
165.4052012429
 21
124.8746098551
  0
LINE
  5
228
100
AcDbEntity
  8
0
100
AcDbLine
 62
7
  6
BYLAYER
 10
165.4052012429
 20
125.5817166363
 11
160.3786123765
 21
125.5196508374
  0
LINE
  5
229
100
AcDbEntity
  8
0
100
AcDbLine
 62
7
  6
BYLAYER
 10
164.9468559174
 20
125.1785634044
 11
160.3746851958
 21
125.122132435
  0
LINE
  5
22A
100
AcDbEntity
  8
0
100
AcDbLine
 62
7
  6
BYLAYER
 10
160.3733762558
 20
125.3342631236
 11
164.9442194681
 21
125.3906791891
  0
LINE
  5
22B
100
AcDbEntity
  8
0
100
AcDbLine
 62
7
  6
BYLAYER
 10
159.9786123765
 20
123.7406862745
 11
160.6786123765
 21
123.7406862745
  0
LINE
  5
22C
100
AcDbEntity
  8
0
100
AcDbLine
 62
7
  6
BYLAYER
 10
160.8786123765
 20
123.9406862745
 11
165.6786123765
 21
123.9406862745
  0
LINE
  5
22D
100
AcDbEntity
  8
0
100
AcDbLine
 62
7
  6
BYLAYER
 10
160.3786123765
 20
124.8125440562
 11
159.9786123765
 21
124.8125324966
  0
LINE
  5
22E
100
AcDbEntity
  8
0
100
AcDbLine
 62
7
  6
BYLAYER
 10
159.9786123765
 20
125.1221321201
 11
160.3746851958
 21
125.122132435
  0
LINE
  5
22F
100
AcDbEntity
  8
0
100
AcDbLine
 62
7
  6
BYLAYER
 10
160.3733762558
 20
125.3342631236
 11
159.9786123765
 21
125.3342631236
  0
LINE
  5
230
100
AcDbEntity
  8
0
100
AcDbLine
 62
7
  6
BYLAYER
 10
147.3786123765
 20
125.4406862745
 11
149.3786123765
 21
125.4406862745
  0
LINE
  5
231
100
AcDbEntity
  8
0
100
AcDbLine
 62
7
  6
BYLAYER
 10
159.9786123765
 20
125.5196392778
 11
160.3786123765
 21
125.5196508374
  0
LINE
  5
232
100
AcDbEntity
  8
0
100
AcDbLine
 62
7
  6
BYLAYER
 10
159.3786123765
 20
126.908264818
 11
159.9786123765
 21
126.908264818
  0
LINE
  5
233
100
AcDbEntity
  8
0
100
AcDbLine
 62
7
  6
BYLAYER
 10
140.3286123765
 20
127.1906862745
 11
146.1286123765
 21
127.1906862745
  0
LINE
  5
234
100
AcDbEntity
  8
0
100
AcDbLine
 62
7
  6
BYLAYER
 10
136.7786123765
 20
129.3406862745
 11
122.8786123765
 21
129.3406862745
  0
LINE
  5
235
100
AcDbEntity
  8
0
100
AcDbLine
 62
7
  6
BYLAYER
 10
120.9786123765
 20
134.3406862745
 11
21.7786123765
 21
134.3406862745
  0
LINE
  5
236
100
AcDbEntity
  8
0
100
AcDbLine
 62
7
  6
BYLAYER
 10
136.7786123765
 20
135.5406862745
 11
122.8786123765
 21
135.5406862745
  0
LINE
  5
237
100
AcDbEntity
  8
0
100
AcDbLine
 62
7
  6
BYLAYER
 10
120.9786123765
 20
135.5406862745
 11
21.7786123765
 21
135.5406862745
  0
LINE
  5
238
100
AcDbEntity
  8
0
100
AcDbLine
 62
7
  6
BYLAYER
 10
140.3286123765
 20
137.6906862745
 11
146.1286123765
 21
137.6906862745
  0
LINE
  5
239
100
AcDbEntity
  8
0
100
AcDbLine
 62
7
  6
BYLAYER
 10
159.9786123765
 20
137.9731077311
 11
159.3786123765
 21
137.9731077311
  0
LINE
  5
23A
100
AcDbEntity
  8
0
100
AcDbLine
 62
7
  6
BYLAYER
 10
147.3786123765
 20
139.4406862745
 11
149.3786123765
 21
139.4406862745
  0
LINE
  5
23B
100
AcDbEntity
  8
0
100
AcDbLine
 62
7
  6
BYLAYER
 10
160.8786123765
 20
140.9406862745
 11
165.6786123765
 21
140.9406862745
  0
LINE
  5
23C
100
AcDbEntity
  8
0
100
AcDbLine
 62
7
  6
BYLAYER
 10
159.9786123765
 20
141.1406862745
 11
160.6786123765
 21
141.1406862745
  0
LINE
  5
23D
100
AcDbEntity
  8
0
100
AcDbLine
 62
7
  6
BYLAYER
 10
159.3786123765
 20
141.9230481843
 11
159.9786123765
 21
141.9230481843
  0
LINE
  5
23E
100
AcDbEntity
  8
0
100
AcDbLine
 62
7
  6
BYLAYER
 10
159.3786123765
 20
144.0790834959
 11
159.9786123765
 21
144.0872879095
  0
LINE
  5
23F
100
AcDbEntity
  8
0
100
AcDbLine
 62
7
  6
BYLAYER
 10
159.9786123765
 20
143.2213672488
 11
159.3786123765
 21
143.2213672488
  0
LINE
  5
240
100
AcDbEntity
  8
0
100
AcDbLine
 62
7
  6
BYLAYER
 10
159.3786123765
 20
143.7406862745
 11
160.6786123765
 21
143.7406862745
  0
LINE
  5
241
100
AcDbEntity
  8
0
100
AcDbLine
 62
7
  6
BYLAYER
 10
160.8786123765
 20
143.9406862745
 11
165.6786123765
 21
143.9406862745
  0
LINE
  5
242
100
AcDbEntity
  8
0
100
AcDbLine
 62
7
  6
BYLAYER
 10
159.3786123765
 20
144.2820274206
 11
159.9786123765
 21
144.2820274206
  0
LINE
  5
243
100
AcDbEntity
  8
0
100
AcDbLine
 62
7
  6
BYLAYER
 10
159.9786123765
 20
144.4406862745
 11
159.3786123765
 21
144.4406862745
  0
LINE
  5
244
100
AcDbEntity
  8
0
100
AcDbLine
 62
7
  6
BYLAYER
 10
150.3786123765
 20
145.1906862745
 11
152.8786123765
 21
145.1906862745
  0
LINE
  5
245
100
AcDbEntity
  8
0
100
AcDbLine
 62
7
  6
BYLAYER
 10
159.3786123765
 20
145.2407819047
 11
152.8786123765
 21
145.2407855655
  0
LINE
  5
246
100
AcDbEntity
  8
0
100
AcDbLine
 62
7
  6
BYLAYER
 10
147.3786123765
 20
145.4406862745
 11
150.3786123765
 21
145.4406862745
  0
LINE
  5
247
100
AcDbEntity
  8
0
100
AcDbLine
 62
7
  6
BYLAYER
 10
152.8786123765
 20
145.8906862745
 11
150.3786123765
 21
145.8906862745
  0
LINE
  5
248
100
AcDbEntity
  8
0
100
AcDbLine
 62
7
  6
BYLAYER
 10
159.3786123765
 20
145.9406862745
 11
152.8786123765
 21
145.9406862745
  0
LINE
  5
249
100
AcDbEntity
  8
0
100
AcDbLine
 62
7
  6
BYLAYER
 10
150.3786123765
 20
145.9406862745
 11
149.3786123765
 21
145.9406862745
  0
LINE
  5
24A
100
AcDbEntity
  8
0
100
AcDbLine
 62
7
  6
BYLAYER
 10
137.3786123765
 20
134.6906862745
 11
139.0286123765
 21
135.6433142187
  0
LINE
  5
24B
100
AcDbEntity
  8
0
100
AcDbLine
 62
7
  6
BYLAYER
 10
137.3786123765
 20
130.1906862745
 11
139.0286123765
 21
129.2380583303
  0
LINE
  5
24C
100
AcDbEntity
  8
0
100
AcDbLine
 62
7
  6
BYLAYER
 10
120.9786123765
 20
135.5406862745
 11
120.9786123765
 21
134.3406862745
  0
LINE
  5
24D
100
AcDbEntity
  8
0
100
AcDbLine
 62
7
  6
BYLAYER
 10
122.8786123765
 20
129.3407373755
 11
122.8786123765
 21
135.5406279031
  0
LINE
  5
24E
100
AcDbEntity
  8
0
100
AcDbLine
 62
7
  6
BYLAYER
 10
136.7786123765
 20
135.5406685094
 11
136.7786123765
 21
129.3407040396
  0
LINE
  5
24F
100
AcDbEntity
  8
0
100
AcDbLine
 62
7
  6
BYLAYER
 10
160.6786123765
 20
143.7406862745
 11
160.8786123765
 21
143.9406862745
  0
LINE
  5
250
100
AcDbEntity
  8
0
100
AcDbLine
 62
7
  6
BYLAYER
 10
160.6786123765
 20
121.1406862745
 11
160.8786123765
 21
120.9406862745
  0
LINE
  5
251
100
AcDbEntity
  8
0
100
AcDbLine
 62
7
  6
BYLAYER
 10
137.3786123765
 20
130.1906904749
 11
137.3786123765
 21
134.6906820741
  0
LINE
  5
252
100
AcDbEntity
  8
0
100
AcDbLine
 62
7
  6
BYLAYER
 10
139.0286123765
 20
135.6433142187
 11
139.0286123765
 21
129.2380583303
  0
LINE
  5
253
100
AcDbEntity
  8
0
100
AcDbLine
 62
7
  6
BYLAYER
 10
139.2786123765
 20
128.2406920764
 11
139.2786123765
 21
136.6406804727
  0
LINE
  5
254
100
AcDbEntity
  8
0
100
AcDbLine
 62
7
  6
BYLAYER
 10
140.3286123765
 20
127.1906862745
 11
140.3286123765
 21
137.6906862745
  0
LINE
  5
255
100
AcDbEntity
  8
0
100
AcDbLine
 62
7
  6
BYLAYER
 10
165.6786123765
 20
140.9406862745
 11
165.8786123765
 21
141.1406862745
  0
LINE
  5
256
100
AcDbEntity
  8
0
100
AcDbLine
 62
7
  6
BYLAYER
 10
165.8786123765
 20
122.4293614091
 11
166.6286123765
 21
122.862374111
  0
LINE
  5
257
100
AcDbEntity
  8
0
100
AcDbLine
 62
7
  6
BYLAYER
 10
166.6286123765
 20
142.018998438
 11
165.8786123765
 21
142.4520111399
  0
LINE
  5
258
100
AcDbEntity
  8
0
100
AcDbLine
 62
7
  6
BYLAYER
 10
165.6786123765
 20
123.9406862745
 11
165.8786123765
 21
123.7406862745
  0
LINE
  5
259
100
AcDbEntity
  8
0
100
AcDbLine
 62
7
  6
BYLAYER
 10
146.1286123765
 20
137.6906862745
 11
146.1286123765
 21
127.1906862745
  0
LINE
  5
25A
100
AcDbEntity
  8
0
100
AcDbLine
 62
7
  6
BYLAYER
 10
146.8786123765
 20
124.6907860985
 11
146.8786123765
 21
140.1905864506
  0
LINE
  5
25B
100
AcDbEntity
  8
0
100
AcDbLine
 62
7
  6
BYLAYER
 10
147.3786123765
 20
119.4406862745
 11
147.3786123765
 21
145.4406862745
  0
LINE
  5
25C
100
AcDbEntity
  8
0
100
AcDbLine
 62
7
  6
BYLAYER
 10
149.3786123765
 20
118.9406862745
 11
149.3786123765
 21
145.9406862745
  0
LINE
  5
25D
100
AcDbEntity
  8
0
100
AcDbLine
 62
7
  6
BYLAYER
 10
150.3786123765
 20
145.9406862745
 11
150.3786123765
 21
118.9406862745
  0
LINE
  5
25E
100
AcDbEntity
  8
0
100
AcDbLine
 62
7
  6
BYLAYER
 10
160.6786123765
 20
123.7406862745
 11
160.8786123765
 21
123.9406862745
  0
LINE
  5
25F
100
AcDbEntity
  8
0
100
AcDbLine
 62
7
  6
BYLAYER
 10
160.6786123765
 20
141.1406862745
 11
160.8786123765
 21
140.9406862745
  0
LINE
  5
260
100
AcDbEntity
  8
0
100
AcDbLine
 62
7
  6
BYLAYER
 10
152.8786123765
 20
118.9406862745
 11
152.8786123765
 21
145.9406862745
  0
LINE
  5
261
100
AcDbEntity
  8
0
100
AcDbLine
 62
7
  6
BYLAYER
 10
165.6786123765
 20
120.9406862745
 11
165.8786123765
 21
121.1406862745
  0
LINE
  5
262
100
AcDbEntity
  8
0
100
AcDbLine
 62
7
  6
BYLAYER
 10
165.6786123765
 20
143.9406862745
 11
165.8786123765
 21
143.7406862745
  0
LINE
  5
263
100
AcDbEntity
  8
0
100
AcDbLine
 62
7
  6
BYLAYER
 10
159.3786123765
 20
145.9406862745
 11
159.3786123765
 21
118.9406862745
  0
LINE
  5
264
100
AcDbEntity
  8
0
100
AcDbLine
 62
7
  6
BYLAYER
 10
159.9786123765
 20
144.4406410652
 11
159.9786123765
 21
143.7406862745
  0
LINE
  5
265
100
AcDbEntity
  8
0
100
AcDbLine
 62
7
  6
BYLAYER
 10
159.9786123765
 20
143.2213672488
 11
159.9786123765
 21
137.9731077311
  0
LINE
  5
266
100
AcDbEntity
  8
0
100
AcDbLine
 62
7
  6
BYLAYER
 10
159.9786123765
 20
126.908264818
 11
159.9786123765
 21
121.6600053002
  0
LINE
  5
267
100
AcDbEntity
  8
0
100
AcDbLine
 62
7
  6
BYLAYER
 10
159.9786123765
 20
121.1406862745
 11
159.9786123765
 21
120.4407314838
  0
LINE
  5
268
100
AcDbEntity
  8
0
100
AcDbLine
 62
7
  6
BYLAYER
 10
160.3733762558
 20
125.5196508374
 11
160.3733762558
 21
125.3342631236
  0
LINE
  5
269
100
AcDbEntity
  8
0
100
AcDbLine
 62
7
  6
BYLAYER
 10
160.3786123765
 20
141.1406862745
 11
160.3786123765
 21
125.5198907052
  0
LINE
  5
26A
100
AcDbEntity
  8
0
100
AcDbLine
 62
7
  6
BYLAYER
 10
160.3786123765
 20
124.8120396782
 11
160.3786123765
 21
123.7406862745
  0
LINE
  5
26B
100
AcDbEntity
  8
0
100
AcDbLine
 62
7
  6
BYLAYER
 10
160.6786123765
 20
143.7406862745
 11
160.6786123765
 21
141.1406862745
  0
LINE
  5
26C
100
AcDbEntity
  8
0
100
AcDbLine
 62
7
  6
BYLAYER
 10
160.6786123765
 20
123.7406862745
 11
160.6786123765
 21
121.1406862745
  0
LINE
  5
26D
100
AcDbEntity
  8
0
100
AcDbLine
 62
7
  6
BYLAYER
 10
160.8786123765
 20
120.9406862745
 11
160.8786123765
 21
123.9406862745
  0
LINE
  5
26E
100
AcDbEntity
  8
0
100
AcDbLine
 62
7
  6
BYLAYER
 10
160.8786123765
 20
140.9406862745
 11
160.8786123765
 21
143.9406862745
  0
LINE
  5
26F
100
AcDbEntity
  8
0
100
AcDbLine
 62
7
  6
BYLAYER
 10
164.9442194681
 20
125.3906791891
 11
164.9442194681
 21
125.5760246645
  0
LINE
  5
270
100
AcDbEntity
  8
0
100
AcDbLine
 62
7
  6
BYLAYER
 10
165.4052012429
 20
140.9406862745
 11
165.4052012429
 21
125.5812127458
  0
LINE
  5
271
100
AcDbEntity
  8
0
100
AcDbLine
 62
7
  6
BYLAYER
 10
165.4052012429
 20
124.8751136752
 11
165.4052012429
 21
123.9406862745
  0
LINE
  5
272
100
AcDbEntity
  8
0
100
AcDbLine
 62
7
  6
BYLAYER
 10
165.4067417528
 20
125.4469635608
 11
165.4067417528
 21
125.5817166363
  0
LINE
  5
273
100
AcDbEntity
  8
0
100
AcDbLine
 62
7
  6
BYLAYER
 10
165.6464750397
 20
123.9406862745
 11
165.6464750397
 21
124.9220050121
  0
LINE
  5
274
100
AcDbEntity
  8
0
100
AcDbLine
 62
7
  6
BYLAYER
 10
165.6464750397
 20
125.6291117933
 11
165.6464750397
 21
140.9406862745
  0
LINE
  5
275
100
AcDbEntity
  8
0
100
AcDbLine
 62
7
  6
BYLAYER
 10
165.6786123765
 20
143.9406862745
 11
165.6786123765
 21
140.9406862745
  0
LINE
  5
276
100
AcDbEntity
  8
0
100
AcDbLine
 62
7
  6
BYLAYER
 10
165.6786123765
 20
123.9406862745
 11
165.6786123765
 21
120.9406862745
  0
LINE
  5
277
100
AcDbEntity
  8
0
100
AcDbLine
 62
7
  6
BYLAYER
 10
165.8786123765
 20
143.7406862745
 11
165.8786123765
 21
141.1406862745
  0
LINE
  5
278
100
AcDbEntity
  8
0
100
AcDbLine
 62
7
  6
BYLAYER
 10
165.8786123765
 20
123.7406862745
 11
165.8786123765
 21
121.1406862745
  0
LINE
  5
279
100
AcDbEntity
  8
0
100
AcDbLine
 62
7
  6
BYLAYER
 10
166.6286123765
 20
142.018998438
 11
166.6286123765
 21
126.0305843637
  0
LINE
  5
27A
100
AcDbEntity
  8
0
100
AcDbLine
 62
7
  6
BYLAYER
 10
166.6286123765
 20
125.3234777286
 11
166.6286123765
 21
122.8627919544
  0
LINE
  5
27B
100
AcDbEntity
  8
0
100
AcDbLine
 62
7
  6
BYLAYER
 10
166.8786123765
 20
141.5859293226
 11
166.8786123765
 21
126.3372085268
  0
LINE
  5
27C
100
AcDbEntity
  8
0
100
AcDbLine
 62
7
  6
BYLAYER
 10
166.8786123765
 20
125.6687708425
 11
166.8786123765
 21
123.2957857665
  0
LINE
  5
27D
100
AcDbEntity
  8
0
100
AcDbLine
 62
7
  6
BYLAYER
 10
167.2917882877
 20
128.6651215718
 11
167.2917882877
 21
136.2162509773
  0
LINE
  5
27E
100
AcDbEntity
  8
0
100
AcDbLine
 62
7
  6
BYLAYER
 10
169.5046596032
 20
126.5233364044
 11
169.5046596032
 21
126.7038224078
  0
LINE
  5
27F
100
AcDbEntity
  8
0
100
AcDbLine
 62
7
  6
BYLAYER
 10
169.6286123765
 20
126.7193029153
 11
169.6286123765
 21
126.6277910405
  0
LINE
  5
280
100
AcDbEntity
  8
0
100
AcDbLine
 62
7
  6
BYLAYER
 10
169.7786100699
 20
126.5217158325
 11
169.77861048
 21
126.7380362338
  0
LINE
  5
281
100
AcDbEntity
  8
0
100
AcDbLine
 62
7
  6
BYLAYER
 10
169.8154364653
 20
139.1683340094
 11
169.8154364653
 21
137.754120447
  0
LINE
  5
282
100
AcDbEntity
  8
0
100
AcDbLine
 62
7
  6
BYLAYER
 10
169.8154364653
 20
135.8974110001
 11
169.8154364653
 21
128.983961549
  0
LINE
  5
283
100
AcDbEntity
  8
0
100
AcDbLine
 62
7
  6
BYLAYER
 10
169.8154364653
 20
127.127252102
 11
169.8154364653
 21
126.742635079
  0
LINE
  5
284
100
AcDbEntity
  8
0
100
AcDbLine
 62
7
  6
BYLAYER
 10
169.8154364653
 20
126.0355290308
 11
169.8154364653
 21
125.7130385396
  0
LINE
  5
285
100
AcDbEntity
  8
0
100
AcDbLine
 62
7
  6
BYLAYER
 10
170.2286123765
 20
138.8176111831
 11
170.2286123765
 21
126.0637613663
  0
ARC
  5
286
100
AcDbEntity
  8
0
100
AcDbCircle
 62
7
  6
BYLAYER
 10
120.9786123765
 20
132.4406862745
 40
3.1
100
AcDbArc
 50
50.9267113173
 51
90.0
  0
ARC
  5
287
100
AcDbEntity
  8
0
100
AcDbCircle
 62
7
  6
BYLAYER
 10
164.8321839512
 20
127.8818902555
 40
2.5017962898
100
AcDbArc
 50
283.276943957
 51
289.8662010962
  0
ARC
  5
288
100
AcDbEntity
  8
0
100
AcDbCircle
 62
7
  6
BYLAYER
 10
120.9786123765
 20
132.4406862745
 40
1.9
100
AcDbArc
 50
0.0
 51
90.0
  0
ARC
  5
289
100
AcDbEntity
  8
0
100
AcDbCircle
 62
7
  6
BYLAYER
 10
140.3286123765
 20
136.6406862745
 40
1.05
100
AcDbArc
 50
90.0
 51
180.0
  0
ARC
  5
28A
100
AcDbEntity
  8
0
100
AcDbCircle
 62
7
  6
BYLAYER
 10
140.3286123765
 20
128.2406862745
 40
1.05
100
AcDbArc
 50
180.0
 51
270.0
  0
ARC
  5
28B
100
AcDbEntity
  8
0
100
AcDbCircle
 62
7
  6
BYLAYER
 10
146.1286123765
 20
126.4406862745
 40
0.75
100
AcDbArc
 50
0.0
 51
90.0
  0
ARC
  5
28C
100
AcDbEntity
  8
0
100
AcDbCircle
 62
7
  6
BYLAYER
 10
146.1286123765
 20
138.4406862745
 40
0.75
100
AcDbArc
 50
270.0
 51
360.0
  0
ARC
  5
28D
100
AcDbEntity
  8
0
100
AcDbCircle
 62
7
  6
BYLAYER
 10
138.7786123765
 20
128.8050456285
 40
0.5
100
AcDbArc
 50
0.0
 51
60.0
  0
ARC
  5
28E
100
AcDbEntity
  8
0
100
AcDbCircle
 62
7
  6
BYLAYER
 10
138.7786123765
 20
136.0763269206
 40
0.5
100
AcDbArc
 50
300.0
 51
360.0
  0
ARC
  5
28F
100
AcDbEntity
  8
0
100
AcDbCircle
 62
7
  6
BYLAYER
 10
147.3786123765
 20
140.1906862745
 40
0.5
100
AcDbArc
 50
90.0
 51
180.0
  0
ARC
  5
290
100
AcDbEntity
  8
0
100
AcDbCircle
 62
7
  6
BYLAYER
 10
147.3786123765
 20
124.6906862745
 40
0.5
100
AcDbArc
 50
180.0
 51
270.0
  0
ARC
  5
291
100
AcDbEntity
  8
0
100
AcDbCircle
 62
7
  6
BYLAYER
 10
166.3786123765
 20
141.5859857361
 40
0.5
100
AcDbArc
 50
0.0
 51
60.0
  0
ARC
  5
292
100
AcDbEntity
  8
0
100
AcDbCircle
 62
7
  6
BYLAYER
 10
166.3786123765
 20
123.2953868129
 40
0.5
100
AcDbArc
 50
300.0
 51
360.0
  0
LINE
  5
293
100
AcDbEntity
  8
0
100
AcDbLine
 62
7
  6
BYLAYER
 10
165.6464750397
 20
125.6291117933
 11
166.6286387414
 21
126.0305952176
  0
SPLINE
  5
294
100
AcDbEntity
  8
0
100
AcDbSpline
 62
7
  6
BYLAYER
 70
0
 71
3
 72
9
 73
5
 74
0
 42
0.0000001
 43
0.0000001
 44
0.0000000001
 40
0.0
 40
0.0
 40
0.0
 40
0.0
 40
0.2558910568
 40
1.0
 40
1.0
 40
1.0
 40
1.0
 10
165.4052012429
 20
125.5817166363
 30
0.0
 10
165.4262400712
 20
125.5819766209
 30
0.0
 10
165.5083404
 20
125.5866964582
 30
0.0
 10
165.5898397391
 20
125.605962398
 30
0.0
 10
165.6464750397
 20
125.6291117933
 30
0.0
  0
SPLINE
  5
295
100
AcDbEntity
  8
0
100
AcDbSpline
 62
7
  6
BYLAYER
 70
0
 71
3
 72
11
 73
7
 74
0
 42
0.0000001
 43
0.0000001
 44
0.0000000001
 40
0.0
 40
0.0
 40
0.0
 40
0.0
 40
0.2228335148
 40
0.4593895845
 40
0.7180143132
 40
1.0
 40
1.0
 40
1.0
 40
1.0
 10
166.8786123765
 20
126.3372152415
 30
0.0
 10
166.8786123765
 20
126.3061602179
 30
0.0
 10
166.8662538601
 20
126.241610236
 30
0.0
 10
166.813615875
 20
126.1545168726
 30
0.0
 10
166.7321756259
 20
126.0812116035
 30
0.0
 10
166.6650151884
 20
126.0454661151
 30
0.0
 10
166.6286387414
 20
126.0305952176
 30
0.0
  0
SPLINE
  5
296
100
AcDbEntity
  8
0
100
AcDbSpline
 62
7
  6
BYLAYER
 70
0
 71
3
 72
12
 73
8
 74
0
 42
0.0000001
 43
0.0000001
 44
0.0000000001
 40
0.0
 40
0.0
 40
0.0
 40
0.0
 40
0.105532879
 40
0.2142500206
 40
0.4485019169
 40
0.7124000533
 40
1.0
 40
1.0
 40
1.0
 40
1.0
 10
170.2286123765
 20
127.091521083
 30
0.0
 10
170.2286123765
 20
127.0708946213
 30
0.0
 10
170.2233635578
 20
127.0288501936
 30
0.0
 10
170.191856468
 20
126.9462616931
 30
0.0
 10
170.1125123731
 20
126.8533885718
 30
0.0
 10
169.9773023373
 20
126.7761998509
 30
0.0
 10
169.8713599752
 20
126.7496199889
 30
0.0
 10
169.8155817501
 20
126.7426535894
 30
0.0
  0
LINE
  5
297
100
AcDbEntity
  8
0
100
AcDbLine
 62
7
  6
BYLAYER
 10
166.8786123765
 20
125.3444972983
 11
169.8154364653
 21
125.7130385396
  0
LINE
  5
298
100
AcDbEntity
  8
0
100
AcDbLine
 62
7
  6
BYLAYER
 10
166.8786123765
 20
126.3758776237
 11
169.8155817501
 21
126.7426535894
  0
LINE
  5
299
100
AcDbEntity
  8
0
100
AcDbLine
 62
7
  6
BYLAYER
 10
169.8154364653
 20
139.1683340094
 11
166.8786123765
 21
139.5368752507
  0
SPLINE
  5
29A
100
AcDbEntity
  8
0
100
AcDbSpline
 62
7
  6
BYLAYER
 70
0
 71
3
 72
12
 73
8
 74
0
 42
0.0000001
 43
0.0000001
 44
0.0000000001
 40
0.0
 40
0.0
 40
0.0
 40
0.0
 40
0.2876965506
 40
0.5515237812
 40
0.7856297066
 40
0.8944000209
 40
1.0
 40
1.0
 40
1.0
 40
1.0
 10
169.8154364653
 20
139.1683340094
 30
0.0
 10
169.871365779
 20
139.1613126988
 30
0.0
 10
169.9775439322
 20
139.13453441
 30
0.0
 10
170.1129257842
 20
139.0568046834
 30
0.0
 10
170.1919035598
 20
138.9632895124
 30
0.0
 10
170.2233074579
 20
138.8804650721
 30
0.0
 10
170.2286123765
 20
138.8383013605
 30
0.0
 10
170.2286123765
 20
138.8176111824
 30
0.0
  0
SPLINE
  5
29B
100
AcDbEntity
  8
0
100
AcDbSpline
 62
7
  6
BYLAYER
 70
0
 71
3
 72
12
 73
8
 74
0
 42
0.0000001
 43
0.0000001
 44
0.0000000001
 40
0.0
 40
0.0
 40
0.0
 40
0.0
 40
0.105600779
 40
0.2143735998
 40
0.4484824584
 40
0.7123116522
 40
1.0
 40
1.0
 40
1.0
 40
1.0
 10
170.2286123765
 20
126.0637614276
 30
0.0
 10
170.2286123765
 20
126.0430710797
 30
0.0
 10
170.2233061865
 20
126.0009069636
 30
0.0
 10
170.191904519
 20
125.9180802034
 30
0.0
 10
170.1129211908
 20
125.8245672535
 30
0.0
 10
169.9775425622
 20
125.7468341812
 30
0.0
 10
169.8713642194
 20
125.7200596544
 30
0.0
 10
169.8154364653
 20
125.7130385396
 30
0.0
  0
SPLINE
  5
29C
100
AcDbEntity
  8
0
100
AcDbSpline
 62
7
  6
BYLAYER
 70
0
 71
3
 72
11
 73
7
 74
0
 42
0.0000001
 43
0.0000001
 44
0.0000000001
 40
0.0
 40
0.0
 40
0.0
 40
0.0
 40
0.2130182689
 40
0.4476459897
 40
0.7120004039
 40
1.0
 40
1.0
 40
1.0
 40
1.0
 10
169.7786100699
 20
126.5217158325
 30
0.0
 10
169.7786100699
 20
126.4967863335
 30
0.0
 10
169.7645945682
 20
126.4438067343
 30
0.0
 10
169.7087926429
 20
126.379128752
 30
0.0
 10
169.6276388088
 20
126.3327767634
 30
0.0
 10
169.5640880077
 20
126.3169794395
 30
0.0
 10
169.5306424176
 20
126.3128093762
 30
0.0
  0
SPLINE
  5
29D
100
AcDbEntity
  8
0
100
AcDbSpline
 62
7
  6
BYLAYER
 70
0
 71
3
 72
12
 73
8
 74
0
 42
0.0000001
 43
0.0000001
 44
0.0000000001
 40
0.0
 40
0.0
 40
0.0
 40
0.0
 40
0.287603868
 40
0.5515045487
 40
0.7857531396
 40
0.894467507
 40
1.0
 40
1.0
 40
1.0
 40
1.0
 10
169.815540767
 20
126.0355416898
 30
0.0
 10
169.871326668
 20
126.042509048
 30
0.0
 10
169.9772855901
 20
126.0690817327
 30
0.0
 10
170.112516328
 20
126.1462766682
 30
0.0
 10
170.19186857
 20
126.2391640505
 30
0.0
 10
170.2233680616
 20
126.321766331
 30
0.0
 10
170.2286123765
 20
126.3638154533
 30
0.0
 10
170.2286123765
 20
126.3844443968
 30
0.0
  0
SPLINE
  5
29E
100
AcDbEntity
  8
0
100
AcDbSpline
 62
7
  6
BYLAYER
 70
0
 71
3
 72
11
 73
7
 74
0
 42
0.0000001
 43
0.0000001
 44
0.0000000001
 40
0.0
 40
0.0
 40
0.0
 40
0.0
 40
0.2819863996
 40
0.5406109777
 40
0.7771664515
 40
1.0
 40
1.0
 40
1.0
 40
1.0
 10
166.6286387689
 20
125.3234884478
 30
0.0
 10
166.6650163015
 20
125.3383597892
 30
0.0
 10
166.7321786461
 20
125.3741065234
 30
0.0
 10
166.813620035
 20
125.4474148241
 30
0.0
 10
166.8662582785
 20
125.534511906
 30
0.0
 10
166.8786123765
 20
125.5990642053
 30
0.0
 10
166.8786123765
 20
125.630120082
 30
0.0
  0
LINE
  5
29F
100
AcDbEntity
  8
0
100
AcDbLine
 62
7
  6
BYLAYER
 10
169.8154364653
 20
135.8974110001
 11
167.2917882877
 21
136.2162509773
  0
LINE
  5
2A0
100
AcDbEntity
  8
0
100
AcDbLine
 62
7
  6
BYLAYER
 10
167.2917882877
 20
128.6651215718
 11
169.8154364653
 21
128.983961549
  0
SPLINE
  5
2A1
100
AcDbEntity
  8
0
100
AcDbSpline
 62
7
  6
BYLAYER
 70
0
 71
3
 72
11
 73
7
 74
0
 42
0.0000001
 43
0.0000001
 44
0.0000000001
 40
0.0
 40
0.0
 40
0.0
 40
0.0
 40
0.28797002
 40
0.5553442672
 40
0.7905332224
 40
1.0
 40
1.0
 40
1.0
 40
1.0
 10
169.7786123765
 20
126.5217250233
 30
0.0
 10
169.7592898469
 20
126.5217250233
 30
0.0
 10
169.721792148
 20
126.5267767989
 30
0.0
 10
169.6726934037
 20
126.5489749625
 30
0.0
 10
169.637740099
 20
126.5835465475
 30
0.0
 10
169.6286123765
 20
126.6137360079
 30
0.0
 10
169.6286123765
 20
126.6277910405
 30
0.0
  0
SPLINE
  5
2A2
100
AcDbEntity
  8
0
100
AcDbSpline
 62
7
  6
BYLAYER
 70
0
 71
3
 72
9
 73
5
 74
0
 42
0.0000001
 43
0.0000001
 44
0.0000000001
 40
0.0
 40
0.0
 40
0.0
 40
0.0
 40
0.4984426805
 40
1.0
 40
1.0
 40
1.0
 40
1.0
 10
169.5046596033
 20
126.5233364044
 30
0.0
 10
169.5046596033
 20
126.4880466407
 30
0.0
 10
169.5112443895
 20
126.4173874446
 30
0.0
 10
169.5221149476
 20
126.3472709333
 30
0.0
 10
169.5307068299
 20
126.3128157512
 30
0.0
  0
SPLINE
  5
2A3
100
AcDbEntity
  8
0
100
AcDbSpline
 62
7
  6
BYLAYER
 70
0
 71
3
 72
11
 73
7
 74
0
 42
0.0000001
 43
0.0000001
 44
0.0000000001
 40
0.0
 40
0.0
 40
0.0
 40
0.0
 40
0.2130075905
 40
0.4476459831
 40
0.7120137246
 40
1.0
 40
1.0
 40
1.0
 40
1.0
 10
169.6286123765
 20
126.6277910404
 30
0.0
 10
169.6286123765
 20
126.6153285097
 30
0.0
 10
169.6216147166
 20
126.5888405542
 30
0.0
 10
169.5937192023
 20
126.556500954
 30
0.0
 10
169.553150139
 20
126.5333233544
 30
0.0
 10
169.5213794864
 20
126.525421073
 30
0.0
 10
169.5046596032
 20
126.5233364044
 30
0.0
  0
SPLINE
  5
2A4
100
AcDbEntity
  8
0
100
AcDbSpline
 62
7
  6
BYLAYER
 70
0
 71
3
 72
9
 73
5
 74
0
 42
0.0000001
 43
0.0000001
 44
0.0000000001
 40
0.0
 40
0.0
 40
0.0
 40
0.0
 40
0.4787985882
 40
1.0
 40
1.0
 40
1.0
 40
1.0
 10
166.8178355143
 20
125.9745695196
 30
0.0
 10
166.8108693098
 20
126.0025054058
 30
0.0
 10
166.8007875976
 20
126.0619085701
 30
0.0
 10
166.7943984411
 20
126.1217536176
 30
0.0
 10
166.7927324145
 20
126.1530504406
 30
0.0
  0
SPLINE
  5
2A5
100
AcDbEntity
  8
0
100
AcDbSpline
 62
7
  6
BYLAYER
 70
0
 71
3
 72
9
 73
5
 74
0
 42
0.0000001
 43
0.0000001
 44
0.0000000001
 40
0.0
 40
0.0
 40
0.0
 40
0.0
 40
0.5039927461
 40
1.0
 40
1.0
 40
1.0
 40
1.0
 10
166.5835685042
 20
125.863976184
 30
0.0
 10
166.5597246111
 20
125.8747354407
 30
0.0
 10
166.5163644565
 20
125.9050618527
 30
0.0
 10
166.4837689518
 20
125.9468684649
 30
0.0
 10
166.4722792026
 20
125.9699068198
 30
0.0
  0
SPLINE
  5
2A6
100
AcDbEntity
  8
0
100
AcDbSpline
 62
7
  6
BYLAYER
 70
0
 71
3
 72
9
 73
5
 74
0
 42
0.0000001
 43
0.0000001
 44
0.0000000001
 40
0.0
 40
0.0
 40
0.0
 40
0.0
 40
0.2385260964
 40
1.0
 40
1.0
 40
1.0
 40
1.0
 10
166.3232790876
 20
125.8960186609
 30
0.0
 10
166.2788326835
 20
125.8573459029
 30
0.0
 10
166.0839160291
 20
125.7051226184
 30
0.0
 10
165.8592202682
 20
125.5929676157
 30
0.0
 10
165.6823564077
 20
125.52897898
 30
0.0
  0
SPLINE
  5
2A7
100
AcDbEntity
  8
0
100
AcDbSpline
 62
7
  6
BYLAYER
 70
0
 71
3
 72
11
 73
7
 74
0
 42
0.0000001
 43
0.0000001
 44
0.0000000001
 40
0.0
 40
0.0
 40
0.0
 40
0.0
 40
0.2344721421
 40
0.5051584442
 40
0.7731432515
 40
1.0
 40
1.0
 40
1.0
 40
1.0
 10
165.4544106665
 20
125.2403295432
 30
0.0
 10
165.4472712437
 20
125.2553916569
 30
0.0
 10
165.4345844193
 20
125.2891024488
 30
0.0
 10
165.4199600529
 20
125.3421397827
 30
0.0
 10
165.4099523569
 20
125.3956824041
 30
0.0
 10
165.4067417528
 20
125.4308364427
 30
0.0
 10
165.4067417528
 20
125.4469635608
 30
0.0
  0
SPLINE
  5
2A8
100
AcDbEntity
  8
0
100
AcDbSpline
 62
7
  6
BYLAYER
 70
0
 71
3
 72
9
 73
5
 74
0
 42
0.0000001
 43
0.0000001
 44
0.0000000001
 40
0.0
 40
0.0
 40
0.0
 40
0.0
 40
0.2293957555
 40
1.0
 40
1.0
 40
1.0
 40
1.0
 10
164.9442194681
 20
125.3906791891
 30
0.0
 10
164.9442194681
 20
125.3744582956
 30
0.0
 10
164.944593608
 20
125.3037478021
 30
0.0
 10
164.9454926304
 20
125.2330372146
 30
0.0
 10
164.9468373291
 20
125.1785633092
 30
0.0
  0
SPLINE
  5
2A9
100
AcDbEntity
  8
0
100
AcDbSpline
 62
7
  6
BYLAYER
 70
0
 71
3
 72
9
 73
5
 74
0
 42
0.0000001
 43
0.0000001
 44
0.0000000001
 40
0.0
 40
0.0
 40
0.0
 40
0.0
 40
0.2473973782
 40
1.0
 40
1.0
 40
1.0
 40
1.0
 10
165.4067417528
 20
125.4469635608
 30
0.0
 10
165.3693111343
 20
125.4380925635
 30
0.0
 10
165.217012342
 20
125.4065706622
 30
0.0
 10
165.0612316598
 20
125.3921234232
 30
0.0
 10
164.9442194681
 20
125.3906791891
 30
0.0
  0
LINE
  5
2AA
100
AcDbEntity
  8
0
100
AcDbLine
 62
7
  6
BYLAYER
 10
169.8154364653
 20
127.127252102
 11
166.8786123765
 21
126.7587108607
  0
SPLINE
  5
2AB
100
AcDbEntity
  8
0
100
AcDbSpline
 62
7
  6
BYLAYER
 70
0
 71
3
 72
11
 73
7
 74
0
 42
0.0000001
 43
0.0000001
 44
0.0000000001
 40
0.0
 40
0.0
 40
0.0
 40
0.0
 40
0.2881693429
 40
0.5522926049
 40
0.7867001896
 40
1.0
 40
1.0
 40
1.0
 40
1.0
 10
167.2917882877
 20
128.6651215718
 30
0.0
 10
167.2357602926
 20
128.658049512
 30
0.0
 10
167.1294368074
 20
128.631124659
 30
0.0
 10
166.9940493168
 20
128.5526149661
 30
0.0
 10
166.9017136477
 20
128.4434415796
 30
0.0
 10
166.8786123765
 20
128.3547400623
 30
0.0
 10
166.8786123765
 20
128.3129396866
 30
0.0
  0
SPLINE
  5
2AC
100
AcDbEntity
  8
0
100
AcDbSpline
 62
7
  6
BYLAYER
 70
0
 71
3
 72
11
 73
7
 74
0
 42
0.0000001
 43
0.0000001
 44
0.0000000001
 40
0.0
 40
0.0
 40
0.0
 40
0.0
 40
0.21338196
 40
0.4476905161
 40
0.7117521225
 40
1.0
 40
1.0
 40
1.0
 40
1.0
 10
170.2286123765
 20
129.3375930322
 30
0.0
 10
170.2286123765
 20
129.2956945016
 30
0.0
 10
170.2057244308
 20
129.2068080172
 30
0.0
 10
170.113610218
 20
129.0970802809
 30
0.0
 10
169.9781175383
 20
129.0181185932
 30
0.0
 10
169.8715880031
 20
128.9910628706
 30
0.0
 10
169.8154364653
 20
128.983961549
 30
0.0
  0
SPLINE
  5
2AD
100
AcDbEntity
  8
0
100
AcDbSpline
 62
7
  6
BYLAYER
 70
0
 71
3
 72
12
 73
8
 74
0
 42
0.0000001
 43
0.0000001
 44
0.0000000001
 40
0.0
 40
0.0
 40
0.0
 40
0.0
 40
0.2876965506
 40
0.5515237811
 40
0.7856297066
 40
0.8944000209
 40
1.0
 40
1.0
 40
1.0
 40
1.0
 10
169.8154364653
 20
127.127252102
 30
0.0
 10
169.871365779
 20
127.1342734126
 30
0.0
 10
169.9775439322
 20
127.1610517014
 30
0.0
 10
170.1129257841
 20
127.238781428
 30
0.0
 10
170.1919035597
 20
127.3322965989
 30
0.0
 10
170.2233074579
 20
127.4151210392
 30
0.0
 10
170.2286123765
 20
127.4572847507
 30
0.0
 10
170.2286123765
 20
127.4779749289
 30
0.0
  0
SPLINE
  5
2AE
100
AcDbEntity
  8
0
100
AcDbSpline
 62
7
  6
BYLAYER
 70
0
 71
3
 72
12
 73
8
 74
0
 42
0.0000001
 43
0.0000001
 44
0.0000000001
 40
0.0
 40
0.0
 40
0.0
 40
0.0
 40
0.105600779
 40
0.2143735998
 40
0.4484824583
 40
0.7123116522
 40
1.0
 40
1.0
 40
1.0
 40
1.0
 10
170.2286123765
 20
137.4033975582
 30
0.0
 10
170.2286123765
 20
137.4240879061
 30
0.0
 10
170.2233061866
 20
137.4662520223
 30
0.0
 10
170.1919045194
 20
137.5490787827
 30
0.0
 10
170.1129211912
 20
137.6425917329
 30
0.0
 10
169.9775425625
 20
137.7203248054
 30
0.0
 10
169.8713642195
 20
137.7470993322
 30
0.0
 10
169.8154364653
 20
137.754120447
 30
0.0
  0
SPLINE
  5
2AF
100
AcDbEntity
  8
0
100
AcDbSpline
 62
7
  6
BYLAYER
 70
0
 71
3
 72
11
 73
7
 74
0
 42
0.0000001
 43
0.0000001
 44
0.0000000001
 40
0.0
 40
0.0
 40
0.0
 40
0.0
 40
0.2882580343
 40
0.552316433
 40
0.786619167
 40
1.0
 40
1.0
 40
1.0
 40
1.0
 10
169.8154364653
 20
135.8974110001
 30
0.0
 10
169.8715893326
 20
135.8903095102
 30
0.0
 10
169.9781163477
 20
135.8632475167
 30
0.0
 10
170.1136141286
 20
135.7842955707
 30
0.0
 10
170.2057170578
 20
135.674564327
 30
0.0
 10
170.2286123765
 20
135.5856829833
 30
0.0
 10
170.2286123765
 20
135.5437851583
 30
0.0
  0
SPLINE
  5
2B0
100
AcDbEntity
  8
0
100
AcDbSpline
 62
7
  6
BYLAYER
 70
0
 71
3
 72
11
 73
7
 74
0
 42
0.0000001
 43
0.0000001
 44
0.0000000001
 40
0.0
 40
0.0
 40
0.0
 40
0.0
 40
0.2133020073
 40
0.4477129811
 40
0.7118404224
 40
1.0
 40
1.0
 40
1.0
 40
1.0
 10
166.8786123765
 20
136.5684113623
 30
0.0
 10
166.8786123765
 20
136.526612035
 30
0.0
 10
166.9017260471
 20
136.4379148568
 30
0.0
 10
166.994061418
 20
136.32874873
 30
0.0
 10
167.1294446949
 20
136.2502419489
 30
0.0
 10
167.2357641733
 20
136.2233225472
 30
0.0
 10
167.2917882877
 20
136.2162509773
 30
0.0
  0
SPLINE
  5
2B1
100
AcDbEntity
  8
0
100
AcDbSpline
 62
7
  6
BYLAYER
 70
0
 71
3
 72
9
 73
5
 74
0
 42
0.0000001
 43
0.0000001
 44
0.0000000001
 40
0.0
 40
0.0
 40
0.0
 40
0.0
 40
0.2432898652
 40
1.0
 40
1.0
 40
1.0
 40
1.0
 10
165.6464750397
 20
124.9220050121
 30
0.0
 10
165.6279557512
 20
124.9144353457
 30
0.0
 10
165.5502520338
 20
124.8872791381
 30
0.0
 10
165.4674234748
 20
124.8753787584
 30
0.0
 10
165.4052012429
 20
124.8746098551
 30
0.0
  0
LINE
  5
2B2
100
AcDbEntity
  8
0
100
AcDbLine
 62
7
  6
BYLAYER
 10
166.8786123765
 20
138.1226616884
 11
169.8154364653
 21
137.754120447
  0
LINE
  5
2B3
100
AcDbEntity
  8
0
100
AcDbLine
 62
7
  6
BYLAYER
 10
169.815540767
 20
126.0355416898
 11
166.8786123765
 21
125.6687708425
  0
LINE
  5
2B4
100
AcDbEntity
  8
0
100
AcDbLine
 62
7
  6
BYLAYER
 10
166.6286387689
 20
125.3234884478
 11
165.6464750397
 21
124.9220050121
  0
SPLINE
  5
2B5
100
AcDbEntity
  8
0
100
AcDbSpline
 62
7
  6
BYLAYER
 70
0
 71
3
 72
9
 73
5
 74
0
 42
0.0000001
 43
0.0000001
 44
0.0000000001
 40
0.0
 40
0.0
 40
0.0
 40
0.0
 40
0.4999853915
 40
1.0
 40
1.0
 40
1.0
 40
1.0
 10
160.3746851866
 20
125.1221310892
 30
0.0
 10
160.3753922462
 20
125.1574790241
 30
0.0
 10
160.3739365923
 20
125.2282012172
 30
0.0
 10
160.3733786872
 20
125.2989060519
 30
0.0
 10
160.3733762558
 20
125.3342631236
 30
0.0
  0
SPLINE
  5
2B6
100
AcDbEntity
  8
0
100
AcDbSpline
 62
7
  6
BYLAYER
 70
0
 71
3
 72
9
 73
5
 74
0
 42
0.0000001
 43
0.0000001
 44
0.0000000001
 40
0.0
 40
0.0
 40
0.0
 40
0.0
 40
0.2473974604
 40
1.0
 40
1.0
 40
1.0
 40
1.0
 10
165.454396861
 20
125.240326546
 30
0.0
 10
165.4133229959
 20
125.2305921051
 30
0.0
 10
165.2462003265
 20
125.1960030439
 30
0.0
 10
165.0752572381
 20
125.1801482099
 30
0.0
 10
164.9468559174
 20
125.1785634044
 30
0.0
  0
SPLINE
  5
2B7
100
AcDbEntity
  8
0
100
AcDbSpline
 62
7
  6
BYLAYER
 70
0
 71
3
 72
9
 73
5
 74
0
 42
0.0000001
 43
0.0000001
 44
0.0000000001
 40
0.0
 40
0.0
 40
0.0
 40
0.0
 40
0.4749020564
 40
1.0
 40
1.0
 40
1.0
 40
1.0
 10
166.5835696352
 20
125.8639756762
 30
0.0
 10
166.4452337054
 20
125.7106898063
 30
0.0
 10
166.0898239049
 20
125.4444230161
 30
0.0
 10
165.6765459996
 20
125.2929755402
 30
0.0
 10
165.454396861
 20
125.240326546
 30
0.0
  0
SPLINE
  5
2B8
100
AcDbEntity
  8
0
100
AcDbSpline
 62
7
  6
BYLAYER
 70
0
 71
3
 72
9
 73
5
 74
0
 42
0.0000001
 43
0.0000001
 44
0.0000000001
 40
0.0
 40
0.0
 40
0.0
 40
0.0
 40
0.2709024664
 40
1.0
 40
1.0
 40
1.0
 40
1.0
 10
166.8178624205
 20
125.9745723321
 30
0.0
 10
166.7943938194
 20
125.9716462199
 30
0.0
 10
166.7089910399
 20
125.9547305145
 30
0.0
 10
166.6262147862
 20
125.9112294821
 30
0.0
 10
166.5835696352
 20
125.8639756762
 30
0.0
  0
ENDSEC
  0
SECTION
  2
OBJECTS
  0
DICTIONARY
  5
C
100
AcDbDictionary
280
0
281
1
  3
ACAD_GROUP
350
D
  3
ACAD_MLINESTYLE
350
17
  3
ACAD_LAYOUT
350
1A
  3
ACAD_PLOTSETTINGS
350
19
  3
ACAD_PLOTSTYLENAME
350
E
  0
DICTIONARY
  5
D
102
{ACAD_REACTORS
330
C
102
}
100
AcDbDictionary
280
0
281
1
  0
ACDBDICTIONARYWDFLT
  5
E
102
{ACAD_REACTORS
330
C
102
}
100
AcDbDictionary
281
1
  3
Normal
350
F
100
AcDbDictionaryWithDefault
340
F
  0
DICTIONARY
  5
17
102
{ACAD_REACTORS
330
C
102
}
100
AcDbDictionary
280
0
281
1
  3
Standard
350
18
  0
DICTIONARY
  5
19
102
{ACAD_REACTORS
330
C
102
}
100
AcDbDictionary
281
1
  0
DICTIONARY
  5
1A
102
{ACAD_REACTORS
330
C
102
}
100
AcDbDictionary
281
1
  3
Model
350
2B9
  3
Layout1
350
2BA
  0
ACDBPLACEHOLDER
  5
F
102
{ACAD_REACTORS
330
E
102
}
  0
MLINESTYLE
  5
18
102
{ACAD_REACTORS
330
17
102
}
100
AcDbMlineStyle
  2
STANDARD
 70
0
  3

 62
256
 51
90.0
 52
90.0
 71
2
 49
0.5
 62
256
  6
BYLAYER
 49
-0.5
 62
256
  6
BYLAYER
  0
LAYOUT
  5
2B9
102
{ACAD_REACTORS
330
1A
102
}
100
AcDbPlotSettings
  1

  2
none_device
  4

  6

 40
0.0
 41
0.0
 42
0.0
 43
0.0
 44
210.0
 45
297.0
 46
0.0
 47
0.0
 48
0.0
 49
0.0
140
0.0
141
0.0
142
1.0
143
1.0
 70
1024
 72
1
 73
0
 74
0
  7

 75
0
147
1.0
148
0.0
149
0.0
100
AcDbLayout
  1
Model
 70
0
 71
0
 10
0.0
 20
0.0
 11
210.0
 21
297.0
 12
0.0
 22
0.0
 32
0.0
 14
0.0
 24
0.0
 34
0.0
 15
0.0
 25
0.0
 35
0.0
146
0.0
 13
0.0
 23
0.0
 33
0.0
 16
1.0
 26
0.0
 36
0.0
 17
0.0
 27
1.0
 37
0.0
 76
0
330
210
345
0
346
0
  0
LAYOUT
  5
2BA
102
{ACAD_REACTORS
330
1A
102
}
100
AcDbPlotSettings
  1

  2
none_device
  4

  6

 40
0.0
 41
0.0
 42
0.0
 43
0.0
 44
210.0
 45
297.0
 46
0.0
 47
0.0
 48
0.0
 49
0.0
140
0.0
141
0.0
142
1.0
143
1.0
 70
0
 72
1
 73
0
 74
0
  7

 75
0
147
1.0
148
0.0
149
0.0
100
AcDbLayout
  1
Layout1
 70
0
 71
1
 10
0.0
 20
0.0
 11
210.0
 21
297.0
 12
0.0
 22
0.0
 32
0.0
 14
0.0
 24
0.0
 34
0.0
 15
0.0
 25
0.0
 35
0.0
146
0.0
 13
0.0
 23
0.0
 33
0.0
 16
1.0
 26
0.0
 36
0.0
 17
0.0
 27
1.0
 37
0.0
 76
0
330
211
345
0
346
0
  0
ENDSEC
  0
EOF
