999
DXF file: C:\Users\sesa63760\Dev\_Creo\CAD\MCADID0003595_3D-CAD\drw0001_2.dxf
999
Pro/ENGINEER 2019471 by Parametric Technology Corporation
  0
SECTION
  2
HEADER
  9
$ACADVER
  1
AC1024
  9
$DWGCODEPAGE
  3
ANSI_1252
  9
$EXTMAX
 10
50.8615783528
 20
71.9328036704
 30
0.0
  9
$EXTMIN
 10
0.0
 20
0.0
 30
0.0
  9
$LIMMIN
 10
0.0
 20
0.0
  9
$LIMMAX
 10
50.8615783528
 20
71.9328036704
  9
$VIEWCTR
 10
25.4307891764
 20
35.9664018352
  9
$VIEWSIZE
 40
71.9328036704
  9
$CLAYER
  8
0
  9
$LTSCALE
 40
4.6889531281
  9
$CELTYPE
  6
BYLAYER
  9
$DIMSCALE
 40
1.0
  9
$DIMASZ
 40
0.6054949804
  9
$DIMEXO
 40
1.0
  9
$DIMDLI
 40
3.2396403431
  9
$DIMEXE
 40
1.0
  9
$DIMCEN
 40
0.7672832392
  9
$DIMLFAC
 40
1.0
  9
$DIMBLK
  1
_FILLED
  9
$DIMALT
 70
0
  9
$DIMALTF
 40
0.0393700787
  9
$DIMTXT
 40
0.8476929725
  9
$DIMTOL
 70
1
  9
$DIMLIM
 70
0
  9
$DIMTFAC
 40
1.0
  9
$DIMTP
 40
0.01
  9
$DIMTM
 40
0.01
  9
$DIMGAP
 40
0.625
  9
$DIMDSEP
 70
46
  9
$AUNITS
 70
0
  9
$PDMODE
 70
3
  9
$PDSIZE
 40
0.3125
  9
$HANDSEED
  5
2A7
  9
$TILEMODE
 70
1
  9
$MEASUREMENT
 70
1
  9
$INSUNITS
 70
4
  0
ENDSEC
  0
SECTION
  2
CLASSES
  0
CLASS
  1
ACDBDICTIONARYWDFLT
  2
AcDbDictionaryWithDefault
  3
AutoCAD 2000
 90
0
 91
1
280
0
281
0
  0
CLASS
  1
ACDBPLACEHOLDER
  2
AcDbPlaceHolder
  3
AutoCAD 2000
 90
0
 91
1
280
0
281
0
  0
CLASS
  1
LAYOUT
  2
AcDbLayout
  3
AutoCAD 2000
 90
0
 91
0
280
0
281
0
  0
ENDSEC
  0
SECTION
  2
TABLES
  0
TABLE
  2
VPORT
  5
8
100
AcDbSymbolTable
 70
2
  0
VPORT
  5
1F4
100
AcDbSymbolTableRecord
100
AcDbViewportTableRecord
  2
*ACTIVE
 70
0
 10
0.0
 20
0.0
 11
1.0
 21
1.0
 12
25.4307891764
 22
35.9664018352
 13
0.0
 23
0.0
 14
1.0
 24
1.0
 15
0.0
 25
0.0
 16
0.0
 26
0.0
 36
1.0
 17
0.0
 27
0.0
 37
0.0
 40
71.9328036704
 41
0.7070707071
 42
50.0
 43
0.0
 44
0.0
 50
0.0
 51
0.0
 71
0
 72
100
 73
1
 74
1
 75
0
 76
0
 77
0
 78
0
  0
ENDTAB
  0
TABLE
  2
LTYPE
  5
5
100
AcDbSymbolTable
 70
6
  0
LTYPE
  5
14
100
AcDbSymbolTableRecord
100
AcDbLinetypeTableRecord
  2
BYBLOCK
 70
0
  3

 72
65
 73
0
 40
0.0
  0
LTYPE
  5
15
100
AcDbSymbolTableRecord
100
AcDbLinetypeTableRecord
  2
BYLAYER
 70
0
  3

 72
65
 73
0
 40
0.0
  0
LTYPE
  5
16
100
AcDbSymbolTableRecord
100
AcDbLinetypeTableRecord
  2
CONTINUOUS
 70
64
  3
Solid line
 72
65
 73
0
 40
0.0
  0
LTYPE
  5
1F5
100
AcDbSymbolTableRecord
100
AcDbLinetypeTableRecord
  2
CENTER
 70
64
  3
____ _ ____ _ ____ _ ____ _ ____ _ ____ _ ____
 72
65
 73
4
 40
0.6
 49
0.375
 74
0
 49
-0.075
 74
0
 49
0.075
 74
0
 49
-0.075
 74
0
  0
LTYPE
  5
1F6
100
AcDbSymbolTableRecord
100
AcDbLinetypeTableRecord
  2
HIDDEN
 70
64
  3
- - - - - - - - - - - - - - - - - - - -
 72
65
 73
2
 40
0.2
 49
0.1
 74
0
 49
-0.1
 74
0
  0
LTYPE
  5
1F7
100
AcDbSymbolTableRecord
100
AcDbLinetypeTableRecord
  2
PHANTOM
 70
64
  3
_____ _ _ _____ _ _ _____ _ _ _____
 72
65
 73
6
 40
0.8
 49
0.45
 74
0
 49
-0.05
 74
0
 49
0.1
 74
0
 49
-0.05
 74
0
 49
0.1
 74
0
 49
-0.05
 74
0
  0
LTYPE
  5
1F8
100
AcDbSymbolTableRecord
100
AcDbLinetypeTableRecord
  2
DOT
 70
64
  3
. . . . . . . . . . . . . . . . . . . .
 72
65
 73
2
 40
0.2
 49
0.1
 74
0
 49
-0.1
 74
0
  0
LTYPE
  5
1F9
100
AcDbSymbolTableRecord
100
AcDbLinetypeTableRecord
  2
DASHED
 70
64
  3
- - - - - - - - - - - - - - - - - - - -
 72
65
 73
2
 40
0.2
 49
0.1
 74
0
 49
-0.1
 74
0
  0
ENDTAB
  0
TABLE
  2
LAYER
  5
2
100
AcDbSymbolTable
 70
36
  0
LAYER
  5
10
100
AcDbSymbolTableRecord
100
AcDbLayerTableRecord
  2
0
 70
0
 62
7
  6
CONTINUOUS
370
-3
390
F
  0
LAYER
  5
1FA
100
AcDbSymbolTableRecord
100
AcDbLayerTableRecord
  2
DEFAULT_1
 70
0
 62
7
  6
CENTER
370
-3
390
F
  0
LAYER
  5
1FB
100
AcDbSymbolTableRecord
100
AcDbLayerTableRecord
  2
DEFAULT_2
 70
0
 62
7
  6
HIDDEN
370
-3
390
F
  0
LAYER
  5
1FC
100
AcDbSymbolTableRecord
100
AcDbLayerTableRecord
  2
DEFAULT_3
 70
0
 62
7
  6
PHANTOM
370
-3
390
F
  0
LAYER
  5
1FD
100
AcDbSymbolTableRecord
100
AcDbLayerTableRecord
  2
00_COMPONENTS
 70
0
 62
7
  6
CONTINUOUS
370
-3
390
F
  0
LAYER
  5
1FE
100
AcDbSymbolTableRecord
100
AcDbLayerTableRecord
  2
01_1_DEFAULT_DATUMS
 70
0
 62
7
  6
CONTINUOUS
370
-3
390
F
  0
LAYER
  5
1FF
100
AcDbSymbolTableRecord
100
AcDbLayerTableRecord
  2
01_PLANES
 70
0
 62
7
  6
CONTINUOUS
370
-3
390
F
  0
LAYER
  5
200
100
AcDbSymbolTableRecord
100
AcDbLayerTableRecord
  2
02_COORD_SYS
 70
0
 62
7
  6
CONTINUOUS
370
-3
390
F
  0
LAYER
  5
201
100
AcDbSymbolTableRecord
100
AcDbLayerTableRecord
  2
03_AXES
 70
0
 62
7
  6
CONTINUOUS
370
-3
390
F
  0
LAYER
  5
202
100
AcDbSymbolTableRecord
100
AcDbLayerTableRecord
  2
04_POINTS
 70
0
 62
7
  6
CONTINUOUS
370
-3
390
F
  0
LAYER
  5
203
100
AcDbSymbolTableRecord
100
AcDbLayerTableRecord
  2
05_CURVES
 70
0
 62
7
  6
CONTINUOUS
370
-3
390
F
  0
LAYER
  5
204
100
AcDbSymbolTableRecord
100
AcDbLayerTableRecord
  2
06_SURFS
 70
0
 62
7
  6
CONTINUOUS
370
-3
390
F
  0
LAYER
  5
205
100
AcDbSymbolTableRecord
100
AcDbLayerTableRecord
  2
07_COSMETICS
 70
0
 62
7
  6
CONTINUOUS
370
-3
390
F
  0
LAYER
  5
206
100
AcDbSymbolTableRecord
100
AcDbLayerTableRecord
  2
10_NOTES
 70
0
 62
7
  6
CONTINUOUS
370
-3
390
F
  0
LAYER
  5
207
100
AcDbSymbolTableRecord
100
AcDbLayerTableRecord
  2
11_NOTES_PUB
 70
0
 62
7
  6
CONTINUOUS
370
-3
390
F
  0
LAYER
  5
208
100
AcDbSymbolTableRecord
100
AcDbLayerTableRecord
  2
13_REF_GTOL
 70
0
 62
7
  6
CONTINUOUS
370
-3
390
F
  0
LAYER
  5
209
100
AcDbSymbolTableRecord
100
AcDbLayerTableRecord
  2
16_MISC
 70
0
 62
7
  6
CONTINUOUS
370
-3
390
F
  0
LAYER
  5
20A
100
AcDbSymbolTableRecord
100
AcDbLayerTableRecord
  2
17_NO_PRINT
 70
0
 62
7
  6
CONTINUOUS
370
-3
390
F
  0
LAYER
  5
20B
100
AcDbSymbolTableRecord
100
AcDbLayerTableRecord
  2
18_DATUM_CAMS_JOINTS
 70
0
 62
7
  6
CONTINUOUS
370
-3
390
F
  0
LAYER
  5
20C
100
AcDbSymbolTableRecord
100
AcDbLayerTableRecord
  2
19_DATUM_FUNCTIONAL
 70
0
 62
7
  6
CONTINUOUS
370
-3
390
F
  0
LAYER
  5
20D
100
AcDbSymbolTableRecord
100
AcDbLayerTableRecord
  2
20_DATUM_KINEMATIC_SCHEME
 70
0
 62
7
  6
CONTINUOUS
370
-3
390
F
  0
ENDTAB
  0
TABLE
  2
STYLE
  5
3
100
AcDbSymbolTable
 70
1
  0
STYLE
  5
11
100
AcDbSymbolTableRecord
100
AcDbTextStyleTableRecord
  2
STANDARD
 70
0
 40
0.0
 41
1.0
 50
0.0
 71
0
 42
0.2
  3
ARIAL.TTF
  4

  0
STYLE
  5
20E
100
AcDbSymbolTableRecord
100
AcDbTextStyleTableRecord
  2
TEXTSTYLE_1
 70
0
 40
0.0
 41
0.8
 50
0.0
 71
0
 42
0.2
  3
gdt
  4

  0
ENDTAB
  0
TABLE
  2
VIEW
  5
6
100
AcDbSymbolTable
 70
0
  0
ENDTAB
  0
TABLE
  2
UCS
  5
7
100
AcDbSymbolTable
 70
0
  0
ENDTAB
  0
TABLE
  2
APPID
  5
9
100
AcDbSymbolTable
 70
1
  0
APPID
  5
20F
100
AcDbSymbolTableRecord
100
AcDbRegAppTableRecord
  2
ACAD
 70
0
  0
ENDTAB
  0
TABLE
  2
BLOCK_RECORD
  5
1
100
AcDbSymbolTable
 70
0
  0
BLOCK_RECORD
  5
210
100
AcDbSymbolTableRecord
100
AcDbBlockTableRecord
  2
*Model_Space
  0
BLOCK_RECORD
  5
211
100
AcDbSymbolTableRecord
100
AcDbBlockTableRecord
  2
*Paper_Space
  0
BLOCK_RECORD
  5
212
100
AcDbSymbolTableRecord
100
AcDbBlockTableRecord
  2
_FILLED
  0
ENDTAB
  0
TABLE
  2
DIMSTYLE
  5
A
100
AcDbSymbolTable
 70
1
100
AcDbDimStyleTable
 71
0
  0
DIMSTYLE
105
213
100
AcDbSymbolTableRecord
100
AcDbDimStyleTableRecord
  2
STANDARD
 70
0
  3

  4

 40
1.0
 41
0.6054949804
 42
1.0
 43
0.38
 44
1.0
 45
0.0
 46
0.0
 47
0.01
 48
0.01
140
0.8476929725
141
0.09
142
0.0
143
25.4
144
1.0
145
0.0
146
1.0
147
0.625
 71
1
 72
0
 73
0
 74
0
 75
0
 76
0
 77
1
 78
8
 79
2
170
0
171
1
172
0
173
0
174
0
175
0
176
0
177
0
178
0
270
2
179
2
271
2
272
2
273
2
274
2
275
0
280
0
281
0
282
0
283
1
284
8
285
0
286
0
287
3
288
0
340
11
278
46
341
212
342
212
343
212
344
212
  0
ENDTAB
  0
ENDSEC
  0
SECTION
  2
BLOCKS
  0
BLOCK
  5
20
100
AcDbEntity
  8
0
100
AcDbBlockBegin
  2
*Model_Space
 70
0
 10
0.0
 20
0.0
 30
0.0
  3
*Model_Space
  1

  0
ENDBLK
  5
21
100
AcDbEntity
  8
0
100
AcDbBlockEnd
  0
BLOCK
  5
1C
100
AcDbEntity
  8
0
100
AcDbBlockBegin
  2
*Paper_Space
 70
0
 10
0.0
 20
0.0
 30
0.0
  3
*Paper_Space
  1

  0
ENDBLK
  5
1D
100
AcDbEntity
  8
0
100
AcDbBlockEnd
  0
BLOCK
  5
214
100
AcDbEntity
  8
0
100
AcDbBlockBegin
  2
_FILLED
 70
64
 10
0.0
 20
0.0
  3
_FILLED
  1

  0
SOLID
  5
215
100
AcDbEntity
  8
0
  6
BYBLOCK
 62
0
100
AcDbTrace
 10
0.0
 20
0.0
 11
-1.0
 21
0.25
 12
-1.0
 22
-0.25
 13
-1.0
 23
-0.25
  0
ENDBLK
  5
216
100
AcDbEntity
  8
0
  6
BYBLOCK
 62
0
100
AcDbBlockEnd
  0
ENDSEC
  0
SECTION
  2
ENTITIES
  0
LINE
  5
217
100
AcDbEntity
  8
0
100
AcDbLine
 62
7
  6
BYLAYER
 10
45.626631003
 20
13.4343342642
 11
35.626631003
 21
13.4343342642
  0
LINE
  5
218
100
AcDbEntity
  8
0
100
AcDbLine
 62
7
  6
BYLAYER
 10
15.626631003
 20
13.4343342642
 11
5.626631003
 21
13.4343342642
  0
LINE
  5
219
100
AcDbEntity
  8
0
100
AcDbLine
 62
7
  6
BYLAYER
 10
5.576631003
 20
13.8343342642
 11
45.676631003
 21
13.8343342642
  0
LINE
  5
21A
100
AcDbEntity
  8
0
100
AcDbLine
 62
7
  6
BYLAYER
 10
10.126631003
 20
13.9661099678
 11
41.126631003
 21
13.9661099678
  0
LINE
  5
21B
100
AcDbEntity
  8
0
100
AcDbLine
 62
7
  6
BYLAYER
 10
5.576631003
 20
13.8343342642
 11
5.576631003
 21
50.9343342642
  0
LINE
  5
21C
100
AcDbEntity
  8
0
100
AcDbLine
 62
7
  6
BYLAYER
 10
5.626631003
 20
13.8343342642
 11
5.626631003
 21
13.4343342642
  0
LINE
  5
21D
100
AcDbEntity
  8
0
100
AcDbLine
 62
7
  6
BYLAYER
 10
9.626631003
 20
14.0343342642
 11
41.626631003
 21
14.0343342642
  0
LINE
  5
21E
100
AcDbEntity
  8
0
100
AcDbLine
 62
7
  6
BYLAYER
 10
42.126631003
 20
14.5343342642
 11
9.126631003
 21
14.5343342642
  0
LINE
  5
21F
100
AcDbEntity
  8
0
100
AcDbLine
 62
7
  6
BYLAYER
 10
10.8145857399
 20
15.0419444542
 11
40.4386762661
 21
15.0419444542
  0
LINE
  5
220
100
AcDbEntity
  8
0
100
AcDbLine
 62
7
  6
BYLAYER
 10
40.4386762661
 20
15.3287326724
 11
10.8145857399
 21
15.3287326724
  0
LINE
  5
221
100
AcDbEntity
  8
0
100
AcDbLine
 62
7
  6
BYLAYER
 10
41.0337377842
 20
15.7755381098
 11
40.6801843936
 21
15.7755381098
  0
LINE
  5
222
100
AcDbEntity
  8
0
100
AcDbLine
 62
7
  6
BYLAYER
 10
10.5730776124
 20
15.7755381098
 11
10.2195242218
 21
15.7755381098
  0
LINE
  5
223
100
AcDbEntity
  8
0
100
AcDbLine
 62
7
  6
BYLAYER
 10
5.9893077285
 20
54.1343342642
 11
5.9893077285
 21
51.9343342642
  0
LINE
  5
224
100
AcDbEntity
  8
0
100
AcDbLine
 62
7
  6
BYLAYER
 10
6.4893077285
 20
51.9343342642
 11
6.4893077285
 21
54.1343342642
  0
LINE
  5
225
100
AcDbEntity
  8
0
100
AcDbLine
 62
7
  6
BYLAYER
 10
7.7893077285
 20
57.7343342642
 11
7.7893077285
 21
54.1343342642
  0
LINE
  5
226
100
AcDbEntity
  8
0
100
AcDbLine
 62
7
  6
BYLAYER
 10
12.5801843936
 20
21.3266848698
 11
10.5730776124
 21
24.1931304186
  0
LINE
  5
227
100
AcDbEntity
  8
0
100
AcDbLine
 62
7
  6
BYLAYER
 10
10.8145857399
 20
24.639935856
 11
12.8748692652
 21
21.697546046
  0
LINE
  5
228
100
AcDbEntity
  8
0
100
AcDbLine
 62
7
  6
BYLAYER
 10
8.5893077285
 20
58.2343342642
 11
8.5893077285
 21
57.7343342642
  0
LINE
  5
229
100
AcDbEntity
  8
0
100
AcDbLine
 62
7
  6
BYLAYER
 10
9.126631003
 20
46.3343342642
 11
9.126631003
 21
14.5343342642
  0
LINE
  5
22A
100
AcDbEntity
  8
0
100
AcDbLine
 62
7
  6
BYLAYER
 10
9.626631003
 20
14.0343342642
 11
9.626631003
 21
46.8343342642
  0
LINE
  5
22B
100
AcDbEntity
  8
0
100
AcDbLine
 62
7
  6
BYLAYER
 10
12.8748692652
 20
18.2711224824
 11
38.3783927408
 21
18.2711224824
  0
LINE
  5
22C
100
AcDbEntity
  8
0
100
AcDbLine
 62
7
  6
BYLAYER
 10
12.7267923635
 20
18.4843342642
 11
38.526570446
 21
18.4843342642
  0
LINE
  5
22D
100
AcDbEntity
  8
0
100
AcDbLine
 62
7
  6
BYLAYER
 10
38.6730776124
 20
18.6419836586
 11
38.526631003
 21
18.6419836586
  0
LINE
  5
22E
100
AcDbEntity
  8
0
100
AcDbLine
 62
7
  6
BYLAYER
 10
12.726631003
 20
18.6419836586
 11
12.5801843936
 21
18.6419836586
  0
LINE
  5
22F
100
AcDbEntity
  8
0
100
AcDbLine
 62
7
  6
BYLAYER
 10
10.126631003
 20
13.9661099678
 11
10.126631003
 21
14.0343342642
  0
LINE
  5
230
100
AcDbEntity
  8
0
100
AcDbLine
 62
7
  6
BYLAYER
 10
10.2195242218
 20
24.1931304186
 11
10.2195242218
 21
15.7755381098
  0
LINE
  5
231
100
AcDbEntity
  8
0
100
AcDbLine
 62
7
  6
BYLAYER
 10
10.5730776124
 20
15.7755381098
 11
10.5730776124
 21
24.1931304186
  0
LINE
  5
232
100
AcDbEntity
  8
0
100
AcDbLine
 62
7
  6
BYLAYER
 10
10.626631003
 20
50.9343342642
 11
10.626631003
 21
46.8343342642
  0
LINE
  5
233
100
AcDbEntity
  8
0
100
AcDbLine
 62
7
  6
BYLAYER
 10
10.8145857399
 20
15.0419444542
 11
10.8145857399
 21
15.3287326724
  0
LINE
  5
234
100
AcDbEntity
  8
0
100
AcDbLine
 62
7
  6
BYLAYER
 10
10.8145857399
 20
24.639935856
 11
10.8145857399
 21
24.9267240741
  0
LINE
  5
235
100
AcDbEntity
  8
0
100
AcDbLine
 62
7
  6
BYLAYER
 10
10.9893077285
 20
54.1343342642
 11
10.9893077285
 21
51.9343342642
  0
LINE
  5
236
100
AcDbEntity
  8
0
100
AcDbLine
 62
7
  6
BYLAYER
 10
12.5801843936
 20
21.3266848697
 11
12.726631003
 21
21.3266848697
  0
LINE
  5
237
100
AcDbEntity
  8
0
100
AcDbLine
 62
7
  6
BYLAYER
 10
38.526631003
 20
21.3266848697
 11
38.6730776124
 21
21.3266848697
  0
LINE
  5
238
100
AcDbEntity
  8
0
100
AcDbLine
 62
7
  6
BYLAYER
 10
12.72669156
 20
21.4843342642
 11
38.5264696425
 21
21.4843342642
  0
LINE
  5
239
100
AcDbEntity
  8
0
100
AcDbLine
 62
7
  6
BYLAYER
 10
38.3783927408
 20
21.697546046
 11
12.8748692652
 21
21.697546046
  0
LINE
  5
23A
100
AcDbEntity
  8
0
100
AcDbLine
 62
7
  6
BYLAYER
 10
12.5801843936
 20
21.3266848698
 11
12.5801843936
 21
18.6419836586
  0
LINE
  5
23B
100
AcDbEntity
  8
0
100
AcDbLine
 62
7
  6
BYLAYER
 10
12.726631003
 20
18.4816874357
 11
12.726631003
 21
21.4870222543
  0
LINE
  5
23C
100
AcDbEntity
  8
0
100
AcDbLine
 62
7
  6
BYLAYER
 10
12.8748692652
 20
18.2711224824
 11
12.8748692652
 21
18.4843342642
  0
LINE
  5
23D
100
AcDbEntity
  8
0
100
AcDbLine
 62
7
  6
BYLAYER
 10
12.8748692652
 20
21.4843342642
 11
12.8748692652
 21
21.697546046
  0
LINE
  5
23E
100
AcDbEntity
  8
0
100
AcDbLine
 62
7
  6
BYLAYER
 10
15.626631003
 20
13.8343342642
 11
15.626631003
 21
13.4343342642
  0
LINE
  5
23F
100
AcDbEntity
  8
0
100
AcDbLine
 62
7
  6
BYLAYER
 10
15.626631003
 20
46.8343342642
 11
15.626631003
 21
50.9343342642
  0
LINE
  5
240
100
AcDbEntity
  8
0
100
AcDbLine
 62
7
  6
BYLAYER
 10
15.9686037058
 20
54.1343342642
 11
15.9686037058
 21
51.9343342642
  0
LINE
  5
241
100
AcDbEntity
  8
0
100
AcDbLine
 62
7
  6
BYLAYER
 10
10.2195242218
 20
24.1931304186
 11
10.5730776124
 21
24.1931304186
  0
LINE
  5
242
100
AcDbEntity
  8
0
100
AcDbLine
 62
7
  6
BYLAYER
 10
40.6801843936
 20
24.1931304186
 11
41.0337377842
 21
24.1931304186
  0
LINE
  5
243
100
AcDbEntity
  8
0
100
AcDbLine
 62
7
  6
BYLAYER
 10
10.8145857399
 20
24.639935856
 11
40.4386762661
 21
24.639935856
  0
LINE
  5
244
100
AcDbEntity
  8
0
100
AcDbLine
 62
7
  6
BYLAYER
 10
40.4386762661
 20
24.9267240741
 11
10.8145857399
 21
24.9267240741
  0
LINE
  5
245
100
AcDbEntity
  8
0
100
AcDbLine
 62
7
  6
BYLAYER
 10
16.4665333035
 20
51.9343342642
 11
16.4665333035
 21
54.1343342642
  0
LINE
  5
246
100
AcDbEntity
  8
0
100
AcDbLine
 62
7
  6
BYLAYER
 10
18.9143077285
 20
51.9343342642
 11
18.9143077285
 21
57.7343342642
  0
LINE
  5
247
100
AcDbEntity
  8
0
100
AcDbLine
 62
7
  6
BYLAYER
 10
19.351631003
 20
51.9343342642
 11
19.351631003
 21
50.9343342642
  0
LINE
  5
248
100
AcDbEntity
  8
0
100
AcDbLine
 62
7
  6
BYLAYER
 10
20.9893077285
 20
54.1343342642
 11
20.9893077285
 21
57.7343342642
  0
LINE
  5
249
100
AcDbEntity
  8
0
100
AcDbLine
 62
7
  6
BYLAYER
 10
22.3893077285
 20
54.7843342642
 11
22.3893077285
 21
54.1343342642
  0
LINE
  5
24A
100
AcDbEntity
  8
0
100
AcDbLine
 62
7
  6
BYLAYER
 10
22.4396598586
 20
56.4343342642
 11
22.4396598586
 21
54.7843342642
  0
LINE
  5
24B
100
AcDbEntity
  8
0
100
AcDbLine
 62
7
  6
BYLAYER
 10
24.0893077285
 20
51.6343342642
 11
24.0893077285
 21
50.9343342642
  0
LINE
  5
24C
100
AcDbEntity
  8
0
100
AcDbLine
 62
7
  6
BYLAYER
 10
25.3893077285
 20
54.7843342642
 11
25.3893077285
 21
56.9343342642
  0
LINE
  5
24D
100
AcDbEntity
  8
0
100
AcDbLine
 62
7
  6
BYLAYER
 10
10.5730776124
 20
15.7755381098
 11
12.5801843936
 21
18.6419836586
  0
LINE
  5
24E
100
AcDbEntity
  8
0
100
AcDbLine
 62
7
  6
BYLAYER
 10
12.8748692652
 20
18.2711224824
 11
10.8145857399
 21
15.3287326724
  0
LINE
  5
24F
100
AcDbEntity
  8
0
100
AcDbLine
 62
7
  6
BYLAYER
 10
40.4386762661
 20
15.3287326724
 11
38.3783927408
 21
18.2711224824
  0
LINE
  5
250
100
AcDbEntity
  8
0
100
AcDbLine
 62
7
  6
BYLAYER
 10
26.5893077285
 20
56.9343342642
 11
26.5893077285
 21
54.7843342642
  0
LINE
  5
251
100
AcDbEntity
  8
0
100
AcDbLine
 62
7
  6
BYLAYER
 10
27.8893077285
 20
51.6343342642
 11
27.8893077285
 21
50.9343342642
  0
LINE
  5
252
100
AcDbEntity
  8
0
100
AcDbLine
 62
7
  6
BYLAYER
 10
38.6730776124
 20
18.6419836586
 11
40.6801843936
 21
15.7755381098
  0
LINE
  5
253
100
AcDbEntity
  8
0
100
AcDbLine
 62
7
  6
BYLAYER
 10
29.5389555983
 20
54.7843342642
 11
29.5389555983
 21
56.4343342642
  0
LINE
  5
254
100
AcDbEntity
  8
0
100
AcDbLine
 62
7
  6
BYLAYER
 10
29.5893077285
 20
54.7843342642
 11
29.5893077285
 21
54.1343342642
  0
LINE
  5
255
100
AcDbEntity
  8
0
100
AcDbLine
 62
7
  6
BYLAYER
 10
30.9893077285
 20
54.1343342642
 11
30.9893077285
 21
57.7343342642
  0
LINE
  5
256
100
AcDbEntity
  8
0
100
AcDbLine
 62
7
  6
BYLAYER
 10
31.901631003
 20
51.9343342642
 11
31.901631003
 21
50.9343342642
  0
LINE
  5
257
100
AcDbEntity
  8
0
100
AcDbLine
 62
7
  6
BYLAYER
 10
33.0643077285
 20
57.7343342642
 11
33.0643077285
 21
51.9343342642
  0
LINE
  5
258
100
AcDbEntity
  8
0
100
AcDbLine
 62
7
  6
BYLAYER
 10
35.5120821534
 20
54.1343342642
 11
35.5120821534
 21
51.9343342642
  0
LINE
  5
259
100
AcDbEntity
  8
0
100
AcDbLine
 62
7
  6
BYLAYER
 10
35.626631003
 20
13.8343342642
 11
35.626631003
 21
13.4343342642
  0
LINE
  5
25A
100
AcDbEntity
  8
0
100
AcDbLine
 62
7
  6
BYLAYER
 10
35.626631003
 20
46.8343342642
 11
35.626631003
 21
50.9343342642
  0
LINE
  5
25B
100
AcDbEntity
  8
0
100
AcDbLine
 62
7
  6
BYLAYER
 10
36.0100117511
 20
54.1343342642
 11
36.0100117511
 21
51.9343342642
  0
LINE
  5
25C
100
AcDbEntity
  8
0
100
AcDbLine
 62
7
  6
BYLAYER
 10
9.126631003
 20
46.3343342642
 11
42.126631003
 21
46.3343342642
  0
LINE
  5
25D
100
AcDbEntity
  8
0
100
AcDbLine
 62
7
  6
BYLAYER
 10
5.576631003
 20
46.8343342642
 11
45.676631003
 21
46.8343342642
  0
LINE
  5
25E
100
AcDbEntity
  8
0
100
AcDbLine
 62
7
  6
BYLAYER
 10
38.3783927408
 20
21.697546046
 11
38.3783927408
 21
21.4843342642
  0
LINE
  5
25F
100
AcDbEntity
  8
0
100
AcDbLine
 62
7
  6
BYLAYER
 10
38.3783927408
 20
18.4843342642
 11
38.3783927408
 21
18.2711224824
  0
LINE
  5
260
100
AcDbEntity
  8
0
100
AcDbLine
 62
7
  6
BYLAYER
 10
38.526631003
 20
18.481646274
 11
38.526631003
 21
21.4869810926
  0
LINE
  5
261
100
AcDbEntity
  8
0
100
AcDbLine
 62
7
  6
BYLAYER
 10
38.6730776124
 20
18.6419836586
 11
38.6730776124
 21
21.3266848698
  0
LINE
  5
262
100
AcDbEntity
  8
0
100
AcDbLine
 62
7
  6
BYLAYER
 10
40.4386762661
 20
24.9267240741
 11
40.4386762661
 21
24.639935856
  0
LINE
  5
263
100
AcDbEntity
  8
0
100
AcDbLine
 62
7
  6
BYLAYER
 10
40.4386762661
 20
15.3287326724
 11
40.4386762661
 21
15.0419444542
  0
LINE
  5
264
100
AcDbEntity
  8
0
100
AcDbLine
 62
7
  6
BYLAYER
 10
40.626631003
 20
46.8343342642
 11
40.626631003
 21
50.9343342642
  0
LINE
  5
265
100
AcDbEntity
  8
0
100
AcDbLine
 62
7
  6
BYLAYER
 10
40.6801843936
 20
24.1931304186
 11
40.6801843936
 21
15.7755381098
  0
LINE
  5
266
100
AcDbEntity
  8
0
100
AcDbLine
 62
7
  6
BYLAYER
 10
40.9893077285
 20
51.9343342642
 11
40.9893077285
 21
54.1343342642
  0
LINE
  5
267
100
AcDbEntity
  8
0
100
AcDbLine
 62
7
  6
BYLAYER
 10
41.0337377842
 20
15.7755381098
 11
41.0337377842
 21
24.1931304186
  0
LINE
  5
268
100
AcDbEntity
  8
0
100
AcDbLine
 62
7
  6
BYLAYER
 10
41.126631003
 20
14.0343342642
 11
41.126631003
 21
13.9661099678
  0
LINE
  5
269
100
AcDbEntity
  8
0
100
AcDbLine
 62
7
  6
BYLAYER
 10
41.626631003
 20
46.8343342642
 11
41.626631003
 21
14.0343342642
  0
LINE
  5
26A
100
AcDbEntity
  8
0
100
AcDbLine
 62
7
  6
BYLAYER
 10
42.126631003
 20
14.5343342642
 11
42.126631003
 21
46.3343342642
  0
LINE
  5
26B
100
AcDbEntity
  8
0
100
AcDbLine
 62
7
  6
BYLAYER
 10
5.576631003
 20
50.9343342642
 11
45.676631003
 21
50.9343342642
  0
LINE
  5
26C
100
AcDbEntity
  8
0
100
AcDbLine
 62
7
  6
BYLAYER
 10
24.0893077285
 20
51.6343342642
 11
27.8893077285
 21
51.6343342642
  0
LINE
  5
26D
100
AcDbEntity
  8
0
100
AcDbLine
 62
7
  6
BYLAYER
 10
45.9893077285
 20
51.9343342642
 11
5.9893077285
 21
51.9343342642
  0
LINE
  5
26E
100
AcDbEntity
  8
0
100
AcDbLine
 62
7
  6
BYLAYER
 10
43.3893077285
 20
58.2343342642
 11
43.3893077285
 21
57.7343342642
  0
LINE
  5
26F
100
AcDbEntity
  8
0
100
AcDbLine
 62
7
  6
BYLAYER
 10
35.5120821534
 20
54.1343342642
 11
33.0643077285
 21
54.1343342642
  0
LINE
  5
270
100
AcDbEntity
  8
0
100
AcDbLine
 62
7
  6
BYLAYER
 10
30.9893077285
 20
54.1343342642
 11
20.9893077285
 21
54.1343342642
  0
LINE
  5
271
100
AcDbEntity
  8
0
100
AcDbLine
 62
7
  6
BYLAYER
 10
5.9893077285
 20
54.1343342642
 11
18.9143077285
 21
54.1343342642
  0
LINE
  5
272
100
AcDbEntity
  8
0
100
AcDbLine
 62
7
  6
BYLAYER
 10
35.5127622014
 20
54.1343342642
 11
45.9893077285
 21
54.1343342642
  0
LINE
  5
273
100
AcDbEntity
  8
0
100
AcDbLine
 62
7
  6
BYLAYER
 10
44.1893077285
 20
57.7343342642
 11
44.1893077285
 21
54.1343342642
  0
LINE
  5
274
100
AcDbEntity
  8
0
100
AcDbLine
 62
7
  6
BYLAYER
 10
45.4893077285
 20
54.1343342642
 11
45.4893077285
 21
51.9343342642
  0
LINE
  5
275
100
AcDbEntity
  8
0
100
AcDbLine
 62
7
  6
BYLAYER
 10
45.626631003
 20
13.8343342642
 11
45.626631003
 21
13.4343342642
  0
LINE
  5
276
100
AcDbEntity
  8
0
100
AcDbLine
 62
7
  6
BYLAYER
 10
45.676631003
 20
13.8343342642
 11
45.676631003
 21
50.9343342642
  0
LINE
  5
277
100
AcDbEntity
  8
0
100
AcDbLine
 62
7
  6
BYLAYER
 10
45.9893077285
 20
51.9343342642
 11
45.9893077285
 21
54.1343342642
  0
LINE
  5
278
100
AcDbEntity
  8
0
100
AcDbLine
 62
7
  6
BYLAYER
 10
38.3783927408
 20
21.697546046
 11
40.4386762661
 21
24.639935856
  0
LINE
  5
279
100
AcDbEntity
  8
0
100
AcDbLine
 62
7
  6
BYLAYER
 10
40.6801843936
 20
24.1931304186
 11
38.6730776124
 21
21.3266848698
  0
LINE
  5
27A
100
AcDbEntity
  8
0
100
AcDbLine
 62
7
  6
BYLAYER
 10
22.3893215156
 20
54.7843342642
 11
22.4396598586
 21
54.7843342642
  0
LINE
  5
27B
100
AcDbEntity
  8
0
100
AcDbLine
 62
7
  6
BYLAYER
 10
25.3893077285
 20
54.7843342642
 11
26.5893077285
 21
54.7843342642
  0
LINE
  5
27C
100
AcDbEntity
  8
0
100
AcDbLine
 62
7
  6
BYLAYER
 10
29.5389555983
 20
54.7843342642
 11
29.5892939413
 21
54.7843342642
  0
LINE
  5
27D
100
AcDbEntity
  8
0
100
AcDbLine
 62
7
  6
BYLAYER
 10
33.0643077285
 20
54.9343342642
 11
30.9893077285
 21
54.9343342642
  0
LINE
  5
27E
100
AcDbEntity
  8
0
100
AcDbLine
 62
7
  6
BYLAYER
 10
20.9893077285
 20
54.9343342642
 11
18.9143077285
 21
54.9343342642
  0
LINE
  5
27F
100
AcDbEntity
  8
0
100
AcDbLine
 62
7
  6
BYLAYER
 10
22.4396598586
 20
56.4343342642
 11
25.3893077285
 21
56.4343342642
  0
LINE
  5
280
100
AcDbEntity
  8
0
100
AcDbLine
 62
7
  6
BYLAYER
 10
26.5893077285
 20
56.4343342642
 11
29.5389555983
 21
56.4343342642
  0
LINE
  5
281
100
AcDbEntity
  8
0
100
AcDbLine
 62
7
  6
BYLAYER
 10
22.9479264633
 20
56.9343342642
 11
25.3893077285
 21
56.9343342642
  0
LINE
  5
282
100
AcDbEntity
  8
0
100
AcDbLine
 62
7
  6
BYLAYER
 10
26.5893077285
 20
56.9343342642
 11
29.0306889936
 21
56.9343342642
  0
LINE
  5
283
100
AcDbEntity
  8
0
100
AcDbLine
 62
7
  6
BYLAYER
 10
7.7893077285
 20
57.7343342642
 11
44.1893077285
 21
57.7343342642
  0
LINE
  5
284
100
AcDbEntity
  8
0
100
AcDbLine
 62
7
  6
BYLAYER
 10
43.3893077285
 20
58.2343342642
 11
8.5893077285
 21
58.2343342642
  0
ARC
  5
285
100
AcDbEntity
  8
0
100
AcDbCircle
 62
7
  6
BYLAYER
 10
23.5893077285
 20
51.6343342642
 40
0.5
100
AcDbArc
 50
0.0
 51
38.1961524227
  0
ARC
  5
286
100
AcDbEntity
  8
0
100
AcDbCircle
 62
7
  6
BYLAYER
 10
28.3893077285
 20
51.6343342642
 40
0.5
100
AcDbArc
 50
141.8038475773
 51
180.0
  0
ARC
  5
287
100
AcDbEntity
  8
0
100
AcDbCircle
 62
7
  6
BYLAYER
 10
41.626631003
 20
14.5343342642
 40
0.5
100
AcDbArc
 50
270.0
 51
360.0
  0
ARC
  5
288
100
AcDbEntity
  8
0
100
AcDbCircle
 62
7
  6
BYLAYER
 10
41.626631003
 20
46.3343342642
 40
0.5
100
AcDbArc
 50
0.0
 51
90.0
  0
ARC
  5
289
100
AcDbEntity
  8
0
100
AcDbCircle
 62
7
  6
BYLAYER
 10
9.626631003
 20
46.3343342642
 40
0.5
100
AcDbArc
 50
90.0
 51
180.0
  0
ARC
  5
28A
100
AcDbEntity
  8
0
100
AcDbCircle
 62
7
  6
BYLAYER
 10
9.626631003
 20
14.5343342642
 40
0.5
100
AcDbArc
 50
180.0
 51
270.0
  0
SPLINE
  5
28B
100
AcDbEntity
  8
0
100
AcDbSpline
 62
7
  6
BYLAYER
 70
0
 71
3
 72
15
 73
11
 74
0
 42
0.0000001
 43
0.0000001
 44
0.0000000001
 40
0.0
 40
0.0
 40
0.0
 40
0.0
 40
0.1249691495
 40
0.2500305818
 40
0.3750055611
 40
0.5000109971
 40
0.6250115933
 40
0.749985926
 40
0.8750380886
 40
1.0
 40
1.0
 40
1.0
 40
1.0
 10
29.0306889936
 20
56.9343342642
 30
0.0
 10
29.06362951
 20
56.9343342642
 30
0.0
 10
29.1297063099
 20
56.9280161606
 30
0.0
 10
29.2250797746
 20
56.8998980012
 30
0.0
 10
29.3133127077
 20
56.8539397216
 30
0.0
 10
29.3909988019
 20
56.7918118441
 30
0.0
 10
29.4550077816
 20
56.7156528186
 30
0.0
 10
29.5028032285
 20
56.6283670689
 30
0.0
 10
29.5322933838
 20
56.5333624434
 30
0.0
 10
29.5389555983
 20
56.4672728726
 30
0.0
 10
29.5389555983
 20
56.4343342642
 30
0.0
  0
SPLINE
  5
28C
100
AcDbEntity
  8
0
100
AcDbSpline
 62
7
  6
BYLAYER
 70
0
 71
3
 72
15
 73
11
 74
0
 42
0.0000001
 43
0.0000001
 44
0.0000000001
 40
0.0
 40
0.0
 40
0.0
 40
0.0
 40
0.1249604242
 40
0.250015425
 40
0.3749941166
 40
0.5000085093
 40
0.6250188885
 40
0.7499978895
 40
0.8750460267
 40
1.0
 40
1.0
 40
1.0
 40
1.0
 10
22.9479264633
 20
56.9343342642
 30
0.0
 10
22.9149880942
 20
56.9343342642
 30
0.0
 10
22.8489154032
 20
56.9280125369
 30
0.0
 10
22.7535436521
 20
56.899901836
 30
0.0
 10
22.6653019811
 20
56.8539532333
 30
0.0
 10
22.5876176313
 20
56.7918130805
 30
0.0
 10
22.5235964643
 20
56.7156559869
 30
0.0
 10
22.4758073465
 20
56.6283616961
 30
0.0
 10
22.4463252103
 20
56.5333571748
 30
0.0
 10
22.4396598586
 20
56.4672709329
 30
0.0
 10
22.4396598586
 20
56.4343342642
 30
0.0
  0
SPLINE
  5
28D
100
AcDbEntity
  8
0
100
AcDbSpline
 62
7
  6
BYLAYER
 70
0
 71
3
 72
9
 73
5
 74
0
 42
0.0000001
 43
0.0000001
 44
0.0000000001
 40
0.0
 40
0.0
 40
0.0
 40
0.0
 40
0.4959980855
 40
1.0
 40
1.0
 40
1.0
 40
1.0
 10
12.4491200693
 20
21.8426916042
 30
0.0
 10
12.5183976333
 20
21.8155929122
 30
0.0
 10
12.659167853
 20
21.7637363575
 30
0.0
 10
12.8021443139
 20
21.7181568816
 30
0.0
 10
12.8748698733
 20
21.697547486
 30
0.0
  0
SPLINE
  5
28E
100
AcDbEntity
  8
0
100
AcDbSpline
 62
7
  6
BYLAYER
 70
0
 71
3
 72
20
 73
16
 74
0
 42
0.0000001
 43
0.0000001
 44
0.0000000001
 40
0.0
 40
0.0
 40
0.0
 40
0.0
 40
0.0062908239
 40
0.0151919005
 40
0.0410117655
 40
0.0768378142
 40
0.1214039922
 40
0.1734351303
 40
0.2317484193
 40
0.2952831631
 40
0.363170425
 40
0.5092288966
 40
0.6656735442
 40
0.8298273767
 40
1.0
 40
1.0
 40
1.0
 40
1.0
 10
12.7266366081
 20
21.4870222556
 30
0.0
 10
12.7266357718
 20
21.487970001
 30
0.0
 10
12.7261118884
 20
21.4902379741
 30
0.0
 10
12.7237718345
 20
21.495951867
 30
0.0
 10
12.7184172172
 20
21.5051826381
 30
0.0
 10
12.7095980674
 20
21.5185218333
 30
0.0
 10
12.6979729112
 20
21.5347455824
 30
0.0
 10
12.6839984682
 20
21.5534358392
 30
0.0
 10
12.668031448
 20
21.5742045153
 30
0.0
 10
12.6504093291
 20
21.5967110464
 30
0.0
 10
12.6244272783
 20
21.6294604221
 30
0.0
 10
12.5894409929
 20
21.6729323164
 30
0.0
 10
12.5450094517
 20
21.7274171149
 30
0.0
 10
12.497937349
 20
21.784434653
 30
0.0
 10
12.4656292927
 20
21.8230762293
 30
0.0
 10
12.4491193028
 20
21.8426899152
 30
0.0
  0
SPLINE
  5
28F
100
AcDbEntity
  8
0
100
AcDbSpline
 62
7
  6
BYLAYER
 70
0
 71
3
 72
18
 73
14
 74
0
 42
0.0000001
 43
0.0000001
 44
0.0000000001
 40
0.0
 40
0.0
 40
0.0
 40
0.0
 40
0.124824707
 40
0.1876987796
 40
0.2508541878
 40
0.3141826592
 40
0.3774646365
 40
0.4405123022
 40
0.5032836928
 40
0.6279956333
 40
0.7522583355
 40
0.8762216709
 40
1.0
 40
1.0
 40
1.0
 40
1.0
 10
40.4386762661
 20
15.3287326724
 30
0.0
 10
40.4648552797
 20
15.3210835272
 30
0.0
 10
40.5056933775
 20
15.3135552376
 30
0.0
 10
40.5607198934
 20
15.3150816251
 30
0.0
 10
40.6013011247
 20
15.3251977722
 30
0.0
 10
40.6377376631
 20
15.3462318615
 30
0.0
 10
40.6664375565
 20
15.3768824705
 30
0.0
 10
40.6863758893
 20
15.4134487431
 30
0.0
 10
40.7033060288
 20
15.4657314777
 30
0.0
 10
40.7111183784
 20
15.5339494231
 30
0.0
 10
40.7082413494
 20
15.6155190742
 30
0.0
 10
40.6973264724
 20
15.6961654694
 30
0.0
 10
40.6863795855
 20
15.7492122483
 30
0.0
 10
40.6801843936
 20
15.7755381098
 30
0.0
  0
SPLINE
  5
290
100
AcDbEntity
  8
0
100
AcDbSpline
 62
7
  6
BYLAYER
 70
0
 71
3
 72
19
 73
15
 74
0
 42
0.0000001
 43
0.0000001
 44
0.0000000001
 40
0.0
 40
0.0
 40
0.0
 40
0.0
 40
0.0063024672
 40
0.0152326226
 40
0.0410759029
 40
0.0768845358
 40
0.1214544597
 40
0.17349483
 40
0.2318139307
 40
0.3632274686
 40
0.5092592619
 40
0.6656873674
 40
0.829837187
 40
1.0
 40
1.0
 40
1.0
 40
1.0
 10
12.726631003
 20
18.4816874357
 30
0.0
 10
12.7266310033
 20
18.4807378604
 30
0.0
 10
12.7261080847
 20
18.4784633044
 30
0.0
 10
12.7237778678
 20
18.4727344691
 30
0.0
 10
12.7184254418
 20
18.4634940203
 30
0.0
 10
12.7095992324
 20
18.4501565955
 30
0.0
 10
12.6979773438
 20
18.4339293957
 30
0.0
 10
12.6840040905
 20
18.4152323571
 30
0.0
 10
12.6618022836
 20
18.3863508565
 30
0.0
 10
12.6304355984
 20
18.3466586752
 30
0.0
 10
12.5894436465
 20
18.2957368726
 30
0.0
 10
12.5450110263
 20
18.2412548987
 30
0.0
 10
12.4979503481
 20
18.1842262983
 30
0.0
 10
12.4656399799
 20
18.1455840292
 30
0.0
 10
12.4491193028
 20
18.1259786132
 30
0.0
  0
SPLINE
  5
291
100
AcDbEntity
  8
0
100
AcDbSpline
 62
7
  6
BYLAYER
 70
0
 71
3
 72
9
 73
5
 74
0
 42
0.0000001
 43
0.0000001
 44
0.0000000001
 40
0.0
 40
0.0
 40
0.0
 40
0.0
 40
0.491275274
 40
1.0
 40
1.0
 40
1.0
 40
1.0
 10
38.8041427032
 20
21.8426899152
 30
0.0
 10
38.7815190982
 20
21.7584903979
 30
0.0
 10
38.7364277548
 20
21.5868432166
 30
0.0
 10
38.6936697208
 20
21.4145877907
 30
0.0
 10
38.6730776124
 20
21.3266848698
 30
0.0
  0
SPLINE
  5
292
100
AcDbEntity
  8
0
100
AcDbSpline
 62
7
  6
BYLAYER
 70
0
 71
3
 72
9
 73
5
 74
0
 42
0.0000001
 43
0.0000001
 44
0.0000000001
 40
0.0
 40
0.0
 40
0.0
 40
0.0
 40
0.5000799614
 40
1.0
 40
1.0
 40
1.0
 40
1.0
 10
38.6730784971
 20
18.6419840743
 30
0.0
 10
38.693375091
 20
18.5555876403
 30
0.0
 10
38.7360167278
 20
18.3833048986
 30
0.0
 10
38.7811194417
 20
18.211659553
 30
0.0
 10
38.804143861
 20
18.1259791302
 30
0.0
  0
SPLINE
  5
293
100
AcDbEntity
  8
0
100
AcDbSpline
 62
7
  6
BYLAYER
 70
0
 71
3
 72
20
 73
16
 74
0
 42
0.0000001
 43
0.0000001
 44
0.0000000001
 40
0.0
 40
0.0
 40
0.0
 40
0.0
 40
0.0062908238
 40
0.0151919002
 40
0.0410117653
 40
0.0768378142
 40
0.1214039927
 40
0.1734351313
 40
0.2317484202
 40
0.2952831643
 40
0.3631704258
 40
0.5092288972
 40
0.6656735446
 40
0.8298273768
 40
1.0
 40
1.0
 40
1.0
 40
1.0
 10
38.5266253979
 20
18.4816462728
 30
0.0
 10
38.5266262342
 20
18.4806985274
 30
0.0
 10
38.5271501176
 20
18.4784305543
 30
0.0
 10
38.5294901715
 20
18.4727166614
 30
0.0
 10
38.5348447887
 20
18.4634858903
 30
0.0
 10
38.5436639387
 20
18.450146695
 30
0.0
 10
38.5552890948
 20
18.4339229457
 30
0.0
 10
38.569263538
 20
18.4152326889
 30
0.0
 10
38.5852305583
 20
18.3944640127
 30
0.0
 10
38.6028526772
 20
18.3719574816
 30
0.0
 10
38.6288347279
 20
18.339208106
 30
0.0
 10
38.6638210133
 20
18.2957362117
 30
0.0
 10
38.7082525544
 20
18.2412514133
 30
0.0
 10
38.7553246571
 20
18.1842338754
 30
0.0
 10
38.7876327133
 20
18.1455922991
 30
0.0
 10
38.8041427032
 20
18.1259786132
 30
0.0
  0
SPLINE
  5
294
100
AcDbEntity
  8
0
100
AcDbSpline
 62
7
  6
BYLAYER
 70
0
 71
3
 72
19
 73
15
 74
0
 42
0.0000001
 43
0.0000001
 44
0.0000000001
 40
0.0
 40
0.0
 40
0.0
 40
0.0
 40
0.0063024672
 40
0.0152326226
 40
0.0410759029
 40
0.0768845358
 40
0.1214544597
 40
0.17349483
 40
0.2318139307
 40
0.3632274686
 40
0.5092592619
 40
0.6656873674
 40
0.829837187
 40
1.0
 40
1.0
 40
1.0
 40
1.0
 10
38.526631003
 20
21.4869810926
 30
0.0
 10
38.5266310027
 20
21.487930668
 30
0.0
 10
38.5271539213
 20
21.490205224
 30
0.0
 10
38.5294841382
 20
21.4959340593
 30
0.0
 10
38.5348365642
 20
21.5051745081
 30
0.0
 10
38.5436627736
 20
21.5185119329
 30
0.0
 10
38.5552846622
 20
21.5347391327
 30
0.0
 10
38.5692579155
 20
21.5534361713
 30
0.0
 10
38.5914597224
 20
21.5823176719
 30
0.0
 10
38.6228264076
 20
21.6220098532
 30
0.0
 10
38.6638183594
 20
21.6729316557
 30
0.0
 10
38.7082509797
 20
21.7274136297
 30
0.0
 10
38.7553116579
 20
21.7844422301
 30
0.0
 10
38.7876220261
 20
21.8230844991
 30
0.0
 10
38.8041427032
 20
21.8426899152
 30
0.0
  0
SPLINE
  5
295
100
AcDbEntity
  8
0
100
AcDbSpline
 62
7
  6
BYLAYER
 70
0
 71
3
 72
18
 73
14
 74
0
 42
0.0000001
 43
0.0000001
 44
0.0000000001
 40
0.0
 40
0.0
 40
0.0
 40
0.0
 40
0.1237562563
 40
0.2477113846
 40
0.3719529225
 40
0.4966691406
 40
0.5594357557
 40
0.6224954136
 40
0.6857677549
 40
0.7491042622
 40
0.8122778387
 40
0.8751648031
 40
1.0
 40
1.0
 40
1.0
 40
1.0
 10
40.6801843936
 20
24.1931304186
 30
0.0
 10
40.6863537246
 20
24.2194584319
 30
0.0
 10
40.6973729025
 20
24.2724861255
 30
0.0
 10
40.7081946203
 20
24.353136862
 30
0.0
 10
40.7111623618
 20
24.4346978025
 30
0.0
 10
40.7033280328
 20
24.5029184024
 30
0.0
 10
40.6863675309
 20
24.555193683
 30
0.0
 10
40.6664502732
 20
24.5917699354
 30
0.0
 10
40.6377572649
 20
24.6224376652
 30
0.0
 10
40.6012712957
 20
24.6434214425
 30
0.0
 10
40.560709947
 20
24.6534961865
 30
0.0
 10
40.5056409936
 20
24.6555818924
 30
0.0
 10
40.4649783612
 20
24.6471629115
 30
0.0
 10
40.4386762661
 20
24.639935856
 30
0.0
  0
SPLINE
  5
296
100
AcDbEntity
  8
0
100
AcDbSpline
 62
7
  6
BYLAYER
 70
0
 71
3
 72
11
 73
7
 74
0
 42
0.0000001
 43
0.0000001
 44
0.0000000001
 40
0.0
 40
0.0
 40
0.0
 40
0.0
 40
0.2633993927
 40
0.517837523
 40
0.7632585362
 40
1.0
 40
1.0
 40
1.0
 40
1.0
 10
38.3783927408
 20
21.697546046
 30
0.0
 10
38.4164508045
 20
21.7081479582
 30
0.0
 10
38.4907702975
 20
21.7307878513
 30
0.0
 10
38.599407077
 20
21.7669157026
 30
0.0
 10
38.703479402
 20
21.8040280498
 30
0.0
 10
38.7710749779
 20
21.829751691
 30
0.0
 10
38.8041427032
 20
21.8426899152
 30
0.0
  0
SPLINE
  5
297
100
AcDbEntity
  8
0
100
AcDbSpline
 62
7
  6
BYLAYER
 70
0
 71
3
 72
11
 73
7
 74
0
 42
0.0000001
 43
0.0000001
 44
0.0000000001
 40
0.0
 40
0.0
 40
0.0
 40
0.0
 40
0.2633993927
 40
0.517837523
 40
0.7632585362
 40
1.0
 40
1.0
 40
1.0
 40
1.0
 10
12.8748692652
 20
18.2711224824
 30
0.0
 10
12.8368112015
 20
18.2605205702
 30
0.0
 10
12.7624917085
 20
18.237880677
 30
0.0
 10
12.653854929
 20
18.2017528258
 30
0.0
 10
12.549782604
 20
18.1646404786
 30
0.0
 10
12.4821870281
 20
18.1389168373
 30
0.0
 10
12.4491193028
 20
18.1259786132
 30
0.0
  0
SPLINE
  5
298
100
AcDbEntity
  8
0
100
AcDbSpline
 62
7
  6
BYLAYER
 70
0
 71
3
 72
9
 73
5
 74
0
 42
0.0000001
 43
0.0000001
 44
0.0000000001
 40
0.0
 40
0.0
 40
0.0
 40
0.0
 40
0.491275274
 40
1.0
 40
1.0
 40
1.0
 40
1.0
 10
12.4491193028
 20
18.1259786132
 30
0.0
 10
12.4717429078
 20
18.2101781305
 30
0.0
 10
12.5168342512
 20
18.3818253118
 30
0.0
 10
12.5595922852
 20
18.5540807377
 30
0.0
 10
12.5801843936
 20
18.6419836586
 30
0.0
  0
SPLINE
  5
299
100
AcDbEntity
  8
0
100
AcDbSpline
 62
7
  6
BYLAYER
 70
0
 71
3
 72
18
 73
14
 74
0
 42
0.0000001
 43
0.0000001
 44
0.0000000001
 40
0.0
 40
0.0
 40
0.0
 40
0.0
 40
0.1237562563
 40
0.2477113846
 40
0.3719529225
 40
0.4966691406
 40
0.5594357557
 40
0.6224954136
 40
0.6857677549
 40
0.7491042622
 40
0.8122778387
 40
0.8751648031
 40
1.0
 40
1.0
 40
1.0
 40
1.0
 10
10.5730776124
 20
15.7755381098
 30
0.0
 10
10.5669082814
 20
15.7492100965
 30
0.0
 10
10.5558891035
 20
15.6961824029
 30
0.0
 10
10.5450673856
 20
15.6155316664
 30
0.0
 10
10.5420996442
 20
15.5339707259
 30
0.0
 10
10.5499339732
 20
15.465750126
 30
0.0
 10
10.5668944751
 20
15.4134748454
 30
0.0
 10
10.5868117328
 20
15.376898593
 30
0.0
 10
10.6155047411
 20
15.3462308631
 30
0.0
 10
10.6519907103
 20
15.3252470859
 30
0.0
 10
10.692552059
 20
15.3151723418
 30
0.0
 10
10.7476210124
 20
15.313086636
 30
0.0
 10
10.7882836447
 20
15.3215056169
 30
0.0
 10
10.8145857399
 20
15.3287326724
 30
0.0
  0
SPLINE
  5
29A
100
AcDbEntity
  8
0
100
AcDbSpline
 62
7
  6
BYLAYER
 70
0
 71
3
 72
9
 73
5
 74
0
 42
0.0000001
 43
0.0000001
 44
0.0000000001
 40
0.0
 40
0.0
 40
0.0
 40
0.0
 40
0.4959980855
 40
1.0
 40
1.0
 40
1.0
 40
1.0
 10
38.8041419367
 20
18.1259769241
 30
0.0
 10
38.7348643727
 20
18.1530756162
 30
0.0
 10
38.594094153
 20
18.2049321709
 30
0.0
 10
38.4511176921
 20
18.2505116468
 30
0.0
 10
38.3783921327
 20
18.2711210424
 30
0.0
  0
SPLINE
  5
29B
100
AcDbEntity
  8
0
100
AcDbSpline
 62
7
  6
BYLAYER
 70
0
 71
3
 72
16
 73
12
 74
0
 42
0.0000001
 43
0.0000001
 44
0.0000000001
 40
0.0
 40
0.0
 40
0.0
 40
0.0
 40
0.1250061955
 40
0.1875714177
 40
0.2501462503
 40
0.3127182538
 40
0.3752864986
 40
0.5001811345
 40
0.625168965
 40
0.7502233243
 40
1.0
 40
1.0
 40
1.0
 40
1.0
 10
40.4386762661
 20
24.9267240741
 30
0.0
 10
40.4831264253
 20
24.9267200677
 30
0.0
 10
40.5501369388
 20
24.9207932696
 30
0.0
 10
40.636436648
 20
24.8985668563
 30
0.0
 10
40.6986863383
 20
24.8739683108
 30
0.0
 10
40.7572731287
 20
24.8415724875
 30
0.0
 10
40.8287925705
 20
24.7883553448
 30
0.0
 10
40.9038571381
 20
24.7046592203
 30
0.0
 10
40.9675662332
 20
24.5864240338
 30
0.0
 10
41.0215341692
 20
24.4163337891
 30
0.0
 10
41.0337334811
 20
24.2819469208
 30
0.0
 10
41.0337377842
 20
24.1931304186
 30
0.0
  0
SPLINE
  5
29C
100
AcDbEntity
  8
0
100
AcDbSpline
 62
7
  6
BYLAYER
 70
0
 71
3
 72
16
 73
12
 74
0
 42
0.0000001
 43
0.0000001
 44
0.0000000001
 40
0.0
 40
0.0
 40
0.0
 40
0.0
 40
0.1182322827
 40
0.2378477496
 40
0.3600968441
 40
0.4857261386
 40
0.6150491325
 40
0.6806779577
 40
0.7462491787
 40
0.8749831007
 40
1.0
 40
1.0
 40
1.0
 40
1.0
 10
10.2195242218
 20
24.1931304186
 30
0.0
 10
10.2195242218
 20
24.2351791272
 30
0.0
 10
10.2230863071
 20
24.3198493483
 30
0.0
 10
10.2427159425
 20
24.4467099156
 30
0.0
 10
10.2801562706
 20
24.5724825133
 30
0.0
 10
10.3412977738
 20
24.6929112479
 30
0.0
 10
10.4161008816
 20
24.7808592264
 30
0.0
 10
10.4897389887
 20
24.8375439756
 30
0.0
 10
10.5702555165
 20
24.8835300003
 30
0.0
 10
10.6795930417
 20
24.9188312455
 30
0.0
 10
10.770124117
 20
24.9267240741
 30
0.0
 10
10.8145857399
 20
24.9267240741
 30
0.0
  0
SPLINE
  5
29D
100
AcDbEntity
  8
0
100
AcDbSpline
 62
7
  6
BYLAYER
 70
0
 71
3
 72
16
 73
12
 74
0
 42
0.0000001
 43
0.0000001
 44
0.0000000001
 40
0.0
 40
0.0
 40
0.0
 40
0.0
 40
0.1250061955
 40
0.1875714177
 40
0.2501462503
 40
0.3127182538
 40
0.3752864986
 40
0.5001811345
 40
0.625168965
 40
0.7502233243
 40
1.0
 40
1.0
 40
1.0
 40
1.0
 10
10.8145857399
 20
15.0419444542
 30
0.0
 10
10.7701355807
 20
15.0419484607
 30
0.0
 10
10.7031250672
 20
15.0478752587
 30
0.0
 10
10.616825358
 20
15.0701016721
 30
0.0
 10
10.5545756677
 20
15.0947002175
 30
0.0
 10
10.4959888773
 20
15.1270960408
 30
0.0
 10
10.4244694355
 20
15.1803131836
 30
0.0
 10
10.3494048679
 20
15.2640093081
 30
0.0
 10
10.2856957728
 20
15.3822444945
 30
0.0
 10
10.2317278367
 20
15.5523347393
 30
0.0
 10
10.2195285249
 20
15.6867216075
 30
0.0
 10
10.2195242218
 20
15.7755381098
 30
0.0
  0
SPLINE
  5
29E
100
AcDbEntity
  8
0
100
AcDbSpline
 62
7
  6
BYLAYER
 70
0
 71
3
 72
16
 73
12
 74
0
 42
0.0000001
 43
0.0000001
 44
0.0000000001
 40
0.0
 40
0.0
 40
0.0
 40
0.0
 40
0.1182322827
 40
0.2378477496
 40
0.3600968441
 40
0.4857261386
 40
0.6150491325
 40
0.6806779577
 40
0.7462491787
 40
0.8749831007
 40
1.0
 40
1.0
 40
1.0
 40
1.0
 10
41.0337377842
 20
15.7755381098
 30
0.0
 10
41.0337377842
 20
15.7334894012
 30
0.0
 10
41.0301756989
 20
15.6488191801
 30
0.0
 10
41.0105460635
 20
15.5219586128
 30
0.0
 10
40.9731057354
 20
15.3961860151
 30
0.0
 10
40.9119642322
 20
15.2757572804
 30
0.0
 10
40.8371611244
 20
15.187809302
 30
0.0
 10
40.7635230173
 20
15.1311245528
 30
0.0
 10
40.6830064894
 20
15.0851385281
 30
0.0
 10
40.5736689643
 20
15.0498372829
 30
0.0
 10
40.483137889
 20
15.0419444542
 30
0.0
 10
40.4386762661
 20
15.0419444542
 30
0.0
  0
SPLINE
  5
29F
100
AcDbEntity
  8
0
100
AcDbSpline
 62
7
  6
BYLAYER
 70
0
 71
3
 72
9
 73
5
 74
0
 42
0.0000001
 43
0.0000001
 44
0.0000000001
 40
0.0
 40
0.0
 40
0.0
 40
0.0
 40
0.5000799614
 40
1.0
 40
1.0
 40
1.0
 40
1.0
 10
12.5801835088
 20
21.3266844541
 30
0.0
 10
12.559886915
 20
21.4130808881
 30
0.0
 10
12.5172452782
 20
21.5853636298
 30
0.0
 10
12.4721425643
 20
21.7570089753
 30
0.0
 10
12.4491181449
 20
21.8426893982
 30
0.0
  0
SPLINE
  5
2A0
100
AcDbEntity
  8
0
100
AcDbSpline
 62
7
  6
BYLAYER
 70
0
 71
3
 72
18
 73
14
 74
0
 42
0.0000001
 43
0.0000001
 44
0.0000000001
 40
0.0
 40
0.0
 40
0.0
 40
0.0
 40
0.124824707
 40
0.1876987796
 40
0.2508541878
 40
0.3141826592
 40
0.3774646365
 40
0.4405123022
 40
0.5032836928
 40
0.6279956333
 40
0.7522583355
 40
0.8762216709
 40
1.0
 40
1.0
 40
1.0
 40
1.0
 10
10.8145857399
 20
24.639935856
 30
0.0
 10
10.7884067263
 20
24.6475850012
 30
0.0
 10
10.7475686284
 20
24.6551132907
 30
0.0
 10
10.6925421125
 20
24.6535869033
 30
0.0
 10
10.6519608813
 20
24.6434707562
 30
0.0
 10
10.6155243429
 20
24.6224366668
 30
0.0
 10
10.5868244495
 20
24.5917860579
 30
0.0
 10
10.5668861167
 20
24.5552197853
 30
0.0
 10
10.5499559772
 20
24.5029370506
 30
0.0
 10
10.5421436276
 20
24.4347191053
 30
0.0
 10
10.5450206566
 20
24.3531494542
 30
0.0
 10
10.5559355336
 20
24.272503059
 30
0.0
 10
10.5668824205
 20
24.21945628
 30
0.0
 10
10.5730776124
 20
24.1931304186
 30
0.0
  0
ELLIPSE
  5
2A1
100
AcDbEntity
  8
0
100
AcDbEllipse
 62
7
  6
BYLAYER
 10
10.126631003
 20
14.8016465884
 30
0.0
 11
0.0
 21
1.0000380784
 31
0.0
 40
0.9999619231
 41
2.567132379
 42
2.8850597533
  0
ELLIPSE
  5
2A2
100
AcDbEntity
  8
0
100
AcDbEllipse
 62
7
  6
BYLAYER
 10
41.126631003
 20
14.8016465884
 30
0.0
 11
0.0
 21
1.0000380784
 31
0.0
 40
0.9999619231
 41
-2.8850597533
 42
-2.5671311711
  0
ELLIPSE
  5
2A3
100
AcDbEntity
  8
0
100
AcDbEllipse
 62
7
  6
BYLAYER
 10
10.126631003
 20
14.9661480462
 30
0.0
 11
0.0
 21
-1.0000380784
 31
0.0
 40
0.9999619231
 41
-0.2667419104
 42
0.0
  0
ELLIPSE
  5
2A4
100
AcDbEntity
  8
0
100
AcDbEllipse
 62
7
  6
BYLAYER
 10
41.126631003
 20
14.9661480462
 30
0.0
 11
0.0
 21
-1.0000380784
 31
0.0
 40
0.9999619231
 41
0.0
 42
0.2667419675
  0
ENDSEC
  0
SECTION
  2
OBJECTS
  0
DICTIONARY
  5
C
100
AcDbDictionary
280
0
281
1
  3
ACAD_GROUP
350
D
  3
ACAD_MLINESTYLE
350
17
  3
ACAD_LAYOUT
350
1A
  3
ACAD_PLOTSETTINGS
350
19
  3
ACAD_PLOTSTYLENAME
350
E
  0
DICTIONARY
  5
D
102
{ACAD_REACTORS
330
C
102
}
100
AcDbDictionary
280
0
281
1
  0
ACDBDICTIONARYWDFLT
  5
E
102
{ACAD_REACTORS
330
C
102
}
100
AcDbDictionary
281
1
  3
Normal
350
F
100
AcDbDictionaryWithDefault
340
F
  0
DICTIONARY
  5
17
102
{ACAD_REACTORS
330
C
102
}
100
AcDbDictionary
280
0
281
1
  3
Standard
350
18
  0
DICTIONARY
  5
19
102
{ACAD_REACTORS
330
C
102
}
100
AcDbDictionary
281
1
  0
DICTIONARY
  5
1A
102
{ACAD_REACTORS
330
C
102
}
100
AcDbDictionary
281
1
  3
Model
350
2A5
  3
Layout1
350
2A6
  0
ACDBPLACEHOLDER
  5
F
102
{ACAD_REACTORS
330
E
102
}
  0
MLINESTYLE
  5
18
102
{ACAD_REACTORS
330
17
102
}
100
AcDbMlineStyle
  2
STANDARD
 70
0
  3

 62
256
 51
90.0
 52
90.0
 71
2
 49
0.5
 62
256
  6
BYLAYER
 49
-0.5
 62
256
  6
BYLAYER
  0
LAYOUT
  5
2A5
102
{ACAD_REACTORS
330
1A
102
}
100
AcDbPlotSettings
  1

  2
none_device
  4

  6

 40
0.0
 41
0.0
 42
0.0
 43
0.0
 44
210.0
 45
297.0
 46
0.0
 47
0.0
 48
0.0
 49
0.0
140
0.0
141
0.0
142
1.0
143
1.0
 70
1024
 72
1
 73
0
 74
0
  7

 75
0
147
1.0
148
0.0
149
0.0
100
AcDbLayout
  1
Model
 70
0
 71
0
 10
0.0
 20
0.0
 11
210.0
 21
297.0
 12
0.0
 22
0.0
 32
0.0
 14
0.0
 24
0.0
 34
0.0
 15
0.0
 25
0.0
 35
0.0
146
0.0
 13
0.0
 23
0.0
 33
0.0
 16
1.0
 26
0.0
 36
0.0
 17
0.0
 27
1.0
 37
0.0
 76
0
330
210
345
0
346
0
  0
LAYOUT
  5
2A6
102
{ACAD_REACTORS
330
1A
102
}
100
AcDbPlotSettings
  1

  2
none_device
  4

  6

 40
0.0
 41
0.0
 42
0.0
 43
0.0
 44
210.0
 45
297.0
 46
0.0
 47
0.0
 48
0.0
 49
0.0
140
0.0
141
0.0
142
1.0
143
1.0
 70
0
 72
1
 73
0
 74
0
  7

 75
0
147
1.0
148
0.0
149
0.0
100
AcDbLayout
  1
Layout1
 70
0
 71
1
 10
0.0
 20
0.0
 11
210.0
 21
297.0
 12
0.0
 22
0.0
 32
0.0
 14
0.0
 24
0.0
 34
0.0
 15
0.0
 25
0.0
 35
0.0
146
0.0
 13
0.0
 23
0.0
 33
0.0
 16
1.0
 26
0.0
 36
0.0
 17
0.0
 27
1.0
 37
0.0
 76
0
330
211
345
0
346
0
  0
ENDSEC
  0
EOF
