999
DXF file: C:\Users\sesa63760\Dev\_Creo\CAD\MCADID0004763_3D-CAD\drw0001_3.dxf
999
Pro/ENGINEER 2019471 by Parametric Technology Corporation
  0
SECTION
  2
HEADER
  9
$ACADVER
  1
AC1024
  9
$DWGCODEPAGE
  3
ANSI_1252
  9
$EXTMAX
 10
124.2842263212
 20
175.7734057971
 30
0.0
  9
$EXTMIN
 10
0.0
 20
0.0
 30
0.0
  9
$LIMMIN
 10
0.0
 20
0.0
  9
$LIMMAX
 10
124.2842263212
 20
175.7734057971
  9
$VIEWCTR
 10
62.1421131606
 20
87.8867028986
  9
$VIEWSIZE
 40
175.7734057971
  9
$CLAYER
  8
0
  9
$LTSCALE
 40
11.4578220075
  9
$CELTYPE
  6
BYLAYER
  9
$DIMSCALE
 40
1.0
  9
$DIMASZ
 40
1.4795741229
  9
$DIMEXO
 40
1.0
  9
$DIMDLI
 40
7.916313387
  9
$DIMEXE
 40
1.0
  9
$DIMCEN
 40
1.8749163285
  9
$DIMLFAC
 40
1.0
  9
$DIMBLK
  1
_FILLED
  9
$DIMALT
 70
0
  9
$DIMALTF
 40
0.0393700787
  9
$DIMTXT
 40
2.071403772
  9
$DIMTOL
 70
1
  9
$DIMLIM
 70
0
  9
$DIMTFAC
 40
1.0
  9
$DIMTP
 40
0.01
  9
$DIMTM
 40
0.01
  9
$DIMGAP
 40
0.625
  9
$DIMDSEP
 70
46
  9
$AUNITS
 70
0
  9
$PDMODE
 70
3
  9
$PDSIZE
 40
0.3125
  9
$HANDSEED
  5
2B8
  9
$TILEMODE
 70
1
  9
$MEASUREMENT
 70
1
  9
$INSUNITS
 70
4
  0
ENDSEC
  0
SECTION
  2
CLASSES
  0
CLASS
  1
ACDBDICTIONARYWDFLT
  2
AcDbDictionaryWithDefault
  3
AutoCAD 2000
 90
0
 91
1
280
0
281
0
  0
CLASS
  1
ACDBPLACEHOLDER
  2
AcDbPlaceHolder
  3
AutoCAD 2000
 90
0
 91
1
280
0
281
0
  0
CLASS
  1
LAYOUT
  2
AcDbLayout
  3
AutoCAD 2000
 90
0
 91
0
280
0
281
0
  0
ENDSEC
  0
SECTION
  2
TABLES
  0
TABLE
  2
VPORT
  5
8
100
AcDbSymbolTable
 70
2
  0
VPORT
  5
1F4
100
AcDbSymbolTableRecord
100
AcDbViewportTableRecord
  2
*ACTIVE
 70
0
 10
0.0
 20
0.0
 11
1.0
 21
1.0
 12
62.1421131606
 22
87.8867028986
 13
0.0
 23
0.0
 14
1.0
 24
1.0
 15
0.0
 25
0.0
 16
0.0
 26
0.0
 36
1.0
 17
0.0
 27
0.0
 37
0.0
 40
175.7734057971
 41
0.7070707071
 42
50.0
 43
0.0
 44
0.0
 50
0.0
 51
0.0
 71
0
 72
100
 73
1
 74
1
 75
0
 76
0
 77
0
 78
0
  0
ENDTAB
  0
TABLE
  2
LTYPE
  5
5
100
AcDbSymbolTable
 70
6
  0
LTYPE
  5
14
100
AcDbSymbolTableRecord
100
AcDbLinetypeTableRecord
  2
BYBLOCK
 70
0
  3

 72
65
 73
0
 40
0.0
  0
LTYPE
  5
15
100
AcDbSymbolTableRecord
100
AcDbLinetypeTableRecord
  2
BYLAYER
 70
0
  3

 72
65
 73
0
 40
0.0
  0
LTYPE
  5
16
100
AcDbSymbolTableRecord
100
AcDbLinetypeTableRecord
  2
CONTINUOUS
 70
64
  3
Solid line
 72
65
 73
0
 40
0.0
  0
LTYPE
  5
1F5
100
AcDbSymbolTableRecord
100
AcDbLinetypeTableRecord
  2
CENTER
 70
64
  3
____ _ ____ _ ____ _ ____ _ ____ _ ____ _ ____
 72
65
 73
4
 40
0.6
 49
0.375
 74
0
 49
-0.075
 74
0
 49
0.075
 74
0
 49
-0.075
 74
0
  0
LTYPE
  5
1F6
100
AcDbSymbolTableRecord
100
AcDbLinetypeTableRecord
  2
HIDDEN
 70
64
  3
- - - - - - - - - - - - - - - - - - - -
 72
65
 73
2
 40
0.2
 49
0.1
 74
0
 49
-0.1
 74
0
  0
LTYPE
  5
1F7
100
AcDbSymbolTableRecord
100
AcDbLinetypeTableRecord
  2
PHANTOM
 70
64
  3
_____ _ _ _____ _ _ _____ _ _ _____
 72
65
 73
6
 40
0.8
 49
0.45
 74
0
 49
-0.05
 74
0
 49
0.1
 74
0
 49
-0.05
 74
0
 49
0.1
 74
0
 49
-0.05
 74
0
  0
LTYPE
  5
1F8
100
AcDbSymbolTableRecord
100
AcDbLinetypeTableRecord
  2
DOT
 70
64
  3
. . . . . . . . . . . . . . . . . . . .
 72
65
 73
2
 40
0.2
 49
0.1
 74
0
 49
-0.1
 74
0
  0
LTYPE
  5
1F9
100
AcDbSymbolTableRecord
100
AcDbLinetypeTableRecord
  2
DASHED
 70
64
  3
- - - - - - - - - - - - - - - - - - - -
 72
65
 73
2
 40
0.2
 49
0.1
 74
0
 49
-0.1
 74
0
  0
ENDTAB
  0
TABLE
  2
LAYER
  5
2
100
AcDbSymbolTable
 70
36
  0
LAYER
  5
10
100
AcDbSymbolTableRecord
100
AcDbLayerTableRecord
  2
0
 70
0
 62
7
  6
CONTINUOUS
370
-3
390
F
  0
LAYER
  5
1FA
100
AcDbSymbolTableRecord
100
AcDbLayerTableRecord
  2
DEFAULT_1
 70
0
 62
7
  6
CENTER
370
-3
390
F
  0
LAYER
  5
1FB
100
AcDbSymbolTableRecord
100
AcDbLayerTableRecord
  2
DEFAULT_2
 70
0
 62
7
  6
HIDDEN
370
-3
390
F
  0
LAYER
  5
1FC
100
AcDbSymbolTableRecord
100
AcDbLayerTableRecord
  2
DEFAULT_3
 70
0
 62
7
  6
PHANTOM
370
-3
390
F
  0
LAYER
  5
1FD
100
AcDbSymbolTableRecord
100
AcDbLayerTableRecord
  2
00_COMPONENTS
 70
0
 62
7
  6
CONTINUOUS
370
-3
390
F
  0
LAYER
  5
1FE
100
AcDbSymbolTableRecord
100
AcDbLayerTableRecord
  2
01_1_DEFAULT_DATUMS
 70
0
 62
7
  6
CONTINUOUS
370
-3
390
F
  0
LAYER
  5
1FF
100
AcDbSymbolTableRecord
100
AcDbLayerTableRecord
  2
01_PLANES
 70
0
 62
7
  6
CONTINUOUS
370
-3
390
F
  0
LAYER
  5
200
100
AcDbSymbolTableRecord
100
AcDbLayerTableRecord
  2
02_COORD_SYS
 70
0
 62
7
  6
CONTINUOUS
370
-3
390
F
  0
LAYER
  5
201
100
AcDbSymbolTableRecord
100
AcDbLayerTableRecord
  2
03_AXES
 70
0
 62
7
  6
CONTINUOUS
370
-3
390
F
  0
LAYER
  5
202
100
AcDbSymbolTableRecord
100
AcDbLayerTableRecord
  2
04_POINTS
 70
0
 62
7
  6
CONTINUOUS
370
-3
390
F
  0
LAYER
  5
203
100
AcDbSymbolTableRecord
100
AcDbLayerTableRecord
  2
05_CURVES
 70
0
 62
7
  6
CONTINUOUS
370
-3
390
F
  0
LAYER
  5
204
100
AcDbSymbolTableRecord
100
AcDbLayerTableRecord
  2
06_SURFS
 70
0
 62
7
  6
CONTINUOUS
370
-3
390
F
  0
LAYER
  5
205
100
AcDbSymbolTableRecord
100
AcDbLayerTableRecord
  2
07_COSMETICS
 70
0
 62
7
  6
CONTINUOUS
370
-3
390
F
  0
LAYER
  5
206
100
AcDbSymbolTableRecord
100
AcDbLayerTableRecord
  2
10_NOTES
 70
0
 62
7
  6
CONTINUOUS
370
-3
390
F
  0
LAYER
  5
207
100
AcDbSymbolTableRecord
100
AcDbLayerTableRecord
  2
11_NOTES_PUB
 70
0
 62
7
  6
CONTINUOUS
370
-3
390
F
  0
LAYER
  5
208
100
AcDbSymbolTableRecord
100
AcDbLayerTableRecord
  2
13_REF_GTOL
 70
0
 62
7
  6
CONTINUOUS
370
-3
390
F
  0
LAYER
  5
209
100
AcDbSymbolTableRecord
100
AcDbLayerTableRecord
  2
16_MISC
 70
0
 62
7
  6
CONTINUOUS
370
-3
390
F
  0
LAYER
  5
20A
100
AcDbSymbolTableRecord
100
AcDbLayerTableRecord
  2
17_NO_PRINT
 70
0
 62
7
  6
CONTINUOUS
370
-3
390
F
  0
LAYER
  5
20B
100
AcDbSymbolTableRecord
100
AcDbLayerTableRecord
  2
18_DATUM_CAMS_JOINTS
 70
0
 62
7
  6
CONTINUOUS
370
-3
390
F
  0
LAYER
  5
20C
100
AcDbSymbolTableRecord
100
AcDbLayerTableRecord
  2
19_DATUM_FUNCTIONAL
 70
0
 62
7
  6
CONTINUOUS
370
-3
390
F
  0
LAYER
  5
20D
100
AcDbSymbolTableRecord
100
AcDbLayerTableRecord
  2
20_DATUM_KINEMATIC_SCHEME
 70
0
 62
7
  6
CONTINUOUS
370
-3
390
F
  0
ENDTAB
  0
TABLE
  2
STYLE
  5
3
100
AcDbSymbolTable
 70
1
  0
STYLE
  5
11
100
AcDbSymbolTableRecord
100
AcDbTextStyleTableRecord
  2
STANDARD
 70
0
 40
0.0
 41
1.0
 50
0.0
 71
0
 42
0.2
  3
ARIAL.TTF
  4

  0
STYLE
  5
20E
100
AcDbSymbolTableRecord
100
AcDbTextStyleTableRecord
  2
TEXTSTYLE_1
 70
0
 40
0.0
 41
0.8
 50
0.0
 71
0
 42
0.2
  3
gdt
  4

  0
ENDTAB
  0
TABLE
  2
VIEW
  5
6
100
AcDbSymbolTable
 70
0
  0
ENDTAB
  0
TABLE
  2
UCS
  5
7
100
AcDbSymbolTable
 70
0
  0
ENDTAB
  0
TABLE
  2
APPID
  5
9
100
AcDbSymbolTable
 70
1
  0
APPID
  5
20F
100
AcDbSymbolTableRecord
100
AcDbRegAppTableRecord
  2
ACAD
 70
0
  0
ENDTAB
  0
TABLE
  2
BLOCK_RECORD
  5
1
100
AcDbSymbolTable
 70
0
  0
BLOCK_RECORD
  5
210
100
AcDbSymbolTableRecord
100
AcDbBlockTableRecord
  2
*Model_Space
  0
BLOCK_RECORD
  5
211
100
AcDbSymbolTableRecord
100
AcDbBlockTableRecord
  2
*Paper_Space
  0
BLOCK_RECORD
  5
212
100
AcDbSymbolTableRecord
100
AcDbBlockTableRecord
  2
_FILLED
  0
ENDTAB
  0
TABLE
  2
DIMSTYLE
  5
A
100
AcDbSymbolTable
 70
1
100
AcDbDimStyleTable
 71
0
  0
DIMSTYLE
105
213
100
AcDbSymbolTableRecord
100
AcDbDimStyleTableRecord
  2
STANDARD
 70
0
  3

  4

 40
1.0
 41
1.4795741229
 42
1.0
 43
0.38
 44
1.0
 45
0.0
 46
0.0
 47
0.01
 48
0.01
140
2.071403772
141
0.09
142
0.0
143
25.4
144
1.0
145
0.0
146
1.0
147
0.625
 71
1
 72
0
 73
0
 74
0
 75
0
 76
0
 77
1
 78
8
 79
2
170
0
171
1
172
0
173
0
174
0
175
0
176
0
177
0
178
0
270
2
179
2
271
2
272
2
273
2
274
2
275
0
280
0
281
0
282
0
283
1
284
8
285
0
286
0
287
3
288
0
340
11
278
46
341
212
342
212
343
212
344
212
  0
ENDTAB
  0
ENDSEC
  0
SECTION
  2
BLOCKS
  0
BLOCK
  5
20
100
AcDbEntity
  8
0
100
AcDbBlockBegin
  2
*Model_Space
 70
0
 10
0.0
 20
0.0
 30
0.0
  3
*Model_Space
  1

  0
ENDBLK
  5
21
100
AcDbEntity
  8
0
100
AcDbBlockEnd
  0
BLOCK
  5
1C
100
AcDbEntity
  8
0
100
AcDbBlockBegin
  2
*Paper_Space
 70
0
 10
0.0
 20
0.0
 30
0.0
  3
*Paper_Space
  1

  0
ENDBLK
  5
1D
100
AcDbEntity
  8
0
100
AcDbBlockEnd
  0
BLOCK
  5
214
100
AcDbEntity
  8
0
100
AcDbBlockBegin
  2
_FILLED
 70
64
 10
0.0
 20
0.0
  3
_FILLED
  1

  0
SOLID
  5
215
100
AcDbEntity
  8
0
  6
BYBLOCK
 62
0
100
AcDbTrace
 10
0.0
 20
0.0
 11
-1.0
 21
0.25
 12
-1.0
 22
-0.25
 13
-1.0
 23
-0.25
  0
ENDBLK
  5
216
100
AcDbEntity
  8
0
  6
BYBLOCK
 62
0
100
AcDbBlockEnd
  0
ENDSEC
  0
SECTION
  2
ENTITIES
  0
LINE
  5
217
100
AcDbEntity
  8
0
100
AcDbLine
 62
7
  6
BYLAYER
 10
66.9632560783
 20
14.0919927536
 11
65.7632890835
 21
14.0919927536
  0
LINE
  5
218
100
AcDbEntity
  8
0
100
AcDbLine
 62
7
  6
BYLAYER
 10
52.5632725809
 20
158.1919927536
 11
52.3632725809
 21
157.9919927536
  0
LINE
  5
219
100
AcDbEntity
  8
0
100
AcDbLine
 62
7
  6
BYLAYER
 10
55.1632725809
 20
152.9919927536
 11
55.3632725809
 21
153.1919927536
  0
LINE
  5
21A
100
AcDbEntity
  8
0
100
AcDbLine
 62
7
  6
BYLAYER
 10
54.2849604174
 20
158.9419927536
 11
53.8519477155
 21
158.1919927536
  0
LINE
  5
21B
100
AcDbEntity
  8
0
100
AcDbLine
 62
7
  6
BYLAYER
 10
72.5632725809
 20
158.1919927536
 11
72.3632725809
 21
157.9919927536
  0
LINE
  5
21C
100
AcDbEntity
  8
0
100
AcDbLine
 62
7
  6
BYLAYER
 10
75.1632725809
 20
152.9919927536
 11
75.3632725809
 21
153.1919927536
  0
LINE
  5
21D
100
AcDbEntity
  8
0
100
AcDbLine
 62
7
  6
BYLAYER
 10
57.3971586242
 20
159.131242662
 11
57.73540526
 21
161.8440996077
  0
LINE
  5
21E
100
AcDbEntity
  8
0
100
AcDbLine
 62
7
  6
BYLAYER
 10
57.9459227108
 20
161.8180399803
 11
57.6115084807
 21
159.1359028637
  0
LINE
  5
21F
100
AcDbEntity
  8
0
100
AcDbLine
 62
7
  6
BYLAYER
 10
66.1132725809
 20
129.6919927536
 11
67.065900525
 21
131.3419927536
  0
LINE
  5
220
100
AcDbEntity
  8
0
100
AcDbLine
 62
7
  6
BYLAYER
 10
52.2248753595
 20
151.6919927536
 11
52.2166709459
 21
152.2919927536
  0
LINE
  5
221
100
AcDbEntity
  8
0
100
AcDbLine
 62
7
  6
BYLAYER
 10
50.3632725809
 20
151.6919927536
 11
50.3632725809
 21
145.1919927536
  0
LINE
  5
222
100
AcDbEntity
  8
0
100
AcDbLine
 62
7
  6
BYLAYER
 10
50.3632725809
 20
142.6919927536
 11
50.3632725809
 21
141.6919927536
  0
LINE
  5
223
100
AcDbEntity
  8
0
100
AcDbLine
 62
7
  6
BYLAYER
 10
50.4132725809
 20
145.1919927536
 11
50.4132725809
 21
142.6919927536
  0
LINE
  5
224
100
AcDbEntity
  8
0
100
AcDbLine
 62
7
  6
BYLAYER
 10
50.8632725809
 20
139.6919927536
 11
50.8632725809
 21
142.6919927536
  0
LINE
  5
225
100
AcDbEntity
  8
0
100
AcDbLine
 62
7
  6
BYLAYER
 10
51.0631769507
 20
145.1919927536
 11
51.0631769507
 21
151.6919927536
  0
LINE
  5
226
100
AcDbEntity
  8
0
100
AcDbLine
 62
7
  6
BYLAYER
 10
51.1132725809
 20
142.6919927536
 11
51.1132725809
 21
145.1919927536
  0
LINE
  5
227
100
AcDbEntity
  8
0
100
AcDbLine
 62
7
  6
BYLAYER
 10
51.8632725809
 20
151.6919927536
 11
51.8632725809
 21
152.2919927536
  0
LINE
  5
228
100
AcDbEntity
  8
0
100
AcDbLine
 62
7
  6
BYLAYER
 10
52.0219314348
 20
151.6919927536
 11
52.0219314348
 21
152.2919927536
  0
LINE
  5
229
100
AcDbEntity
  8
0
100
AcDbLine
 62
7
  6
BYLAYER
 10
52.3632725809
 20
153.1919927536
 11
52.3632725809
 21
157.9919927536
  0
LINE
  5
22A
100
AcDbEntity
  8
0
100
AcDbLine
 62
7
  6
BYLAYER
 10
52.5632725809
 20
151.6919927536
 11
52.5632725809
 21
152.9919927536
  0
LINE
  5
22B
100
AcDbEntity
  8
0
100
AcDbLine
 62
7
  6
BYLAYER
 10
53.0825916066
 20
152.2919927536
 11
53.0825916066
 21
151.6919927536
  0
LINE
  5
22C
100
AcDbEntity
  8
0
100
AcDbLine
 62
7
  6
BYLAYER
 10
54.3809106711
 20
151.6919927536
 11
54.3809106711
 21
152.2919927536
  0
LINE
  5
22D
100
AcDbEntity
  8
0
100
AcDbLine
 62
7
  6
BYLAYER
 10
55.1632725809
 20
152.2919927536
 11
55.1632725809
 21
152.9919927536
  0
LINE
  5
22E
100
AcDbEntity
  8
0
100
AcDbLine
 62
7
  6
BYLAYER
 10
55.3632725809
 20
153.1919927536
 11
55.3632725809
 21
157.9919927536
  0
LINE
  5
22F
100
AcDbEntity
  8
0
100
AcDbLine
 62
7
  6
BYLAYER
 10
56.235118803
 20
152.2919927536
 11
56.2351303626
 21
152.6919927536
  0
LINE
  5
230
100
AcDbEntity
  8
0
100
AcDbLine
 62
7
  6
BYLAYER
 10
56.5447187422
 20
152.688065709
 11
56.5447184269
 21
152.2919927536
  0
LINE
  5
231
100
AcDbEntity
  8
0
100
AcDbLine
 62
7
  6
BYLAYER
 10
56.75684943
 20
152.2919927536
 11
56.75684943
 21
152.6867566329
  0
LINE
  5
232
100
AcDbEntity
  8
0
100
AcDbLine
 62
7
  6
BYLAYER
 10
56.8632725809
 20
141.6919927536
 11
56.8632725809
 21
139.6919927536
  0
LINE
  5
233
100
AcDbEntity
  8
0
100
AcDbLine
 62
7
  6
BYLAYER
 10
56.9422371437
 20
152.6919927536
 11
56.9422255842
 21
152.2919927536
  0
LINE
  5
234
100
AcDbEntity
  8
0
100
AcDbLine
 62
7
  6
BYLAYER
 10
58.3308511243
 20
152.2919927536
 11
58.3308511243
 21
151.6919927536
  0
LINE
  5
235
100
AcDbEntity
  8
0
100
AcDbLine
 62
7
  6
BYLAYER
 10
58.6132725809
 20
132.6419927536
 11
58.6132725809
 21
138.4419927536
  0
LINE
  5
236
100
AcDbEntity
  8
0
100
AcDbLine
 62
7
  6
BYLAYER
 10
56.2971961615
 20
157.7185816201
 11
56.2351303626
 21
152.6919927536
  0
LINE
  5
237
100
AcDbEntity
  8
0
100
AcDbLine
 62
7
  6
BYLAYER
 10
56.5447187422
 20
152.688065709
 11
56.6011497108
 21
157.2602362951
  0
LINE
  5
238
100
AcDbEntity
  8
0
100
AcDbLine
 62
7
  6
BYLAYER
 10
56.8132654955
 20
157.2575998453
 11
56.75684943
 21
152.6867566329
  0
LINE
  5
239
100
AcDbEntity
  8
0
100
AcDbLine
 62
7
  6
BYLAYER
 10
56.9422371437
 20
152.6919927536
 11
57.0043029427
 21
157.7185816201
  0
LINE
  5
23A
100
AcDbEntity
  8
0
100
AcDbLine
 62
7
  6
BYLAYER
 10
60.7632725809
 20
129.0919927536
 11
60.7632725809
 21
115.1919927536
  0
LINE
  5
23B
100
AcDbEntity
  8
0
100
AcDbLine
 62
7
  6
BYLAYER
 10
65.7632725809
 20
14.0919927536
 11
65.7632725809
 21
115.1919927536
  0
LINE
  5
23C
100
AcDbEntity
  8
0
100
AcDbLine
 62
7
  6
BYLAYER
 10
66.9632725809
 20
14.0919927536
 11
66.9632725809
 21
129.0919927536
  0
LINE
  5
23D
100
AcDbEntity
  8
0
100
AcDbLine
 62
7
  6
BYLAYER
 10
69.1132725809
 20
132.6419927536
 11
69.1132725809
 21
138.4419927536
  0
LINE
  5
23E
100
AcDbEntity
  8
0
100
AcDbLine
 62
7
  6
BYLAYER
 10
69.3956940374
 20
151.6919927536
 11
69.3956940374
 21
152.2919927536
  0
LINE
  5
23F
100
AcDbEntity
  8
0
100
AcDbLine
 62
7
  6
BYLAYER
 10
70.8632725809
 20
139.6919927536
 11
70.8632725809
 21
141.6919927536
  0
LINE
  5
240
100
AcDbEntity
  8
0
100
AcDbLine
 62
7
  6
BYLAYER
 10
72.3632725809
 20
153.1919927536
 11
72.3632725809
 21
157.9919927536
  0
LINE
  5
241
100
AcDbEntity
  8
0
100
AcDbLine
 62
7
  6
BYLAYER
 10
72.5632725809
 20
152.2919927536
 11
72.5632725809
 21
152.9919927536
  0
LINE
  5
242
100
AcDbEntity
  8
0
100
AcDbLine
 62
7
  6
BYLAYER
 10
73.3456344907
 20
152.2919927536
 11
73.3456344907
 21
151.6919927536
  0
LINE
  5
243
100
AcDbEntity
  8
0
100
AcDbLine
 62
7
  6
BYLAYER
 10
74.6439535552
 20
151.6919927536
 11
74.6439535552
 21
152.2919927536
  0
LINE
  5
244
100
AcDbEntity
  8
0
100
AcDbLine
 62
7
  6
BYLAYER
 10
75.1632725809
 20
151.6919927536
 11
75.1632725809
 21
152.9919927536
  0
LINE
  5
245
100
AcDbEntity
  8
0
100
AcDbLine
 62
7
  6
BYLAYER
 10
75.3632725809
 20
153.1919927536
 11
75.3632725809
 21
157.9919927536
  0
LINE
  5
246
100
AcDbEntity
  8
0
100
AcDbLine
 62
7
  6
BYLAYER
 10
75.704613727
 20
152.2919927536
 11
75.704613727
 21
151.6919927536
  0
LINE
  5
247
100
AcDbEntity
  8
0
100
AcDbLine
 62
7
  6
BYLAYER
 10
75.8632725809
 20
152.2919927536
 11
75.8632725809
 21
151.6919927536
  0
LINE
  5
248
100
AcDbEntity
  8
0
100
AcDbLine
 62
7
  6
BYLAYER
 10
76.6132725809
 20
145.1919927536
 11
76.6132725809
 21
142.6919927536
  0
LINE
  5
249
100
AcDbEntity
  8
0
100
AcDbLine
 62
7
  6
BYLAYER
 10
76.6633703925
 20
151.6919927536
 11
76.6633733263
 21
145.1919927536
  0
LINE
  5
24A
100
AcDbEntity
  8
0
100
AcDbLine
 62
7
  6
BYLAYER
 10
76.8632725809
 20
142.6919927536
 11
76.8632725809
 21
139.6919927536
  0
LINE
  5
24B
100
AcDbEntity
  8
0
100
AcDbLine
 62
7
  6
BYLAYER
 10
77.3132725809
 20
142.6919927536
 11
77.3132725809
 21
145.1919927536
  0
LINE
  5
24C
100
AcDbEntity
  8
0
100
AcDbLine
 62
7
  6
BYLAYER
 10
77.3632725809
 20
141.6919927536
 11
77.3632725809
 21
142.6919927536
  0
LINE
  5
24D
100
AcDbEntity
  8
0
100
AcDbLine
 62
7
  6
BYLAYER
 10
77.3632725809
 20
145.1919927536
 11
77.3632725809
 21
151.6919927536
  0
LINE
  5
24E
100
AcDbEntity
  8
0
100
AcDbLine
 62
7
  6
BYLAYER
 10
75.5098742158
 20
152.2919927536
 11
75.5016698023
 21
151.6919927536
  0
LINE
  5
24F
100
AcDbEntity
  8
0
100
AcDbLine
 62
7
  6
BYLAYER
 10
61.6132725809
 20
129.6919927536
 11
60.6606446367
 21
131.3419927536
  0
LINE
  5
250
100
AcDbEntity
  8
0
100
AcDbLine
 62
7
  6
BYLAYER
 10
65.7632725809
 20
113.2919927536
 11
66.9632725809
 21
113.2919927536
  0
LINE
  5
251
100
AcDbEntity
  8
0
100
AcDbLine
 62
7
  6
BYLAYER
 10
66.9632725809
 20
115.1919927536
 11
60.7632725809
 21
115.1919927536
  0
LINE
  5
252
100
AcDbEntity
  8
0
100
AcDbLine
 62
7
  6
BYLAYER
 10
60.7632725809
 20
129.0919927536
 11
66.9632725809
 21
129.0919927536
  0
LINE
  5
253
100
AcDbEntity
  8
0
100
AcDbLine
 62
7
  6
BYLAYER
 10
52.5632725809
 20
152.9919927536
 11
52.3632725809
 21
153.1919927536
  0
LINE
  5
254
100
AcDbEntity
  8
0
100
AcDbLine
 62
7
  6
BYLAYER
 10
66.1132725809
 20
129.6919927536
 11
61.6132725809
 21
129.6919927536
  0
LINE
  5
255
100
AcDbEntity
  8
0
100
AcDbLine
 62
7
  6
BYLAYER
 10
60.6606446367
 20
131.3419927536
 11
67.065900525
 21
131.3419927536
  0
LINE
  5
256
100
AcDbEntity
  8
0
100
AcDbLine
 62
7
  6
BYLAYER
 10
68.0632725809
 20
131.5919927536
 11
59.6632725809
 21
131.5919927536
  0
LINE
  5
257
100
AcDbEntity
  8
0
100
AcDbLine
 62
7
  6
BYLAYER
 10
69.1132725809
 20
132.6419927536
 11
58.6132725809
 21
132.6419927536
  0
LINE
  5
258
100
AcDbEntity
  8
0
100
AcDbLine
 62
7
  6
BYLAYER
 10
55.1632725809
 20
158.1919927536
 11
55.3632725809
 21
157.9919927536
  0
LINE
  5
259
100
AcDbEntity
  8
0
100
AcDbLine
 62
7
  6
BYLAYER
 10
73.4415847444
 20
158.9419927536
 11
73.8745974463
 21
158.1919927536
  0
LINE
  5
25A
100
AcDbEntity
  8
0
100
AcDbLine
 62
7
  6
BYLAYER
 10
58.6132725809
 20
138.4419927536
 11
69.1132725809
 21
138.4419927536
  0
LINE
  5
25B
100
AcDbEntity
  8
0
100
AcDbLine
 62
7
  6
BYLAYER
 10
71.6132725809
 20
139.1919927536
 11
56.1132725809
 21
139.1919927536
  0
LINE
  5
25C
100
AcDbEntity
  8
0
100
AcDbLine
 62
7
  6
BYLAYER
 10
76.8632725809
 20
139.6919927536
 11
50.8632725809
 21
139.6919927536
  0
LINE
  5
25D
100
AcDbEntity
  8
0
100
AcDbLine
 62
7
  6
BYLAYER
 10
50.3632725809
 20
141.6919927536
 11
77.3632725809
 21
141.6919927536
  0
LINE
  5
25E
100
AcDbEntity
  8
0
100
AcDbLine
 62
7
  6
BYLAYER
 10
50.3632725809
 20
142.6919927536
 11
77.3632725809
 21
142.6919927536
  0
LINE
  5
25F
100
AcDbEntity
  8
0
100
AcDbLine
 62
7
  6
BYLAYER
 10
72.5632725809
 20
152.9919927536
 11
72.3632725809
 21
153.1919927536
  0
LINE
  5
260
100
AcDbEntity
  8
0
100
AcDbLine
 62
7
  6
BYLAYER
 10
50.3632725809
 20
145.1919927536
 11
77.3632725809
 21
145.1919927536
  0
LINE
  5
261
100
AcDbEntity
  8
0
100
AcDbLine
 62
7
  6
BYLAYER
 10
75.1632725809
 20
158.1919927536
 11
75.3632725809
 21
157.9919927536
  0
LINE
  5
262
100
AcDbEntity
  8
0
100
AcDbLine
 62
7
  6
BYLAYER
 10
50.3632725809
 20
151.6919927536
 11
77.3632725809
 21
151.6919927536
  0
LINE
  5
263
100
AcDbEntity
  8
0
100
AcDbLine
 62
7
  6
BYLAYER
 10
51.8632725809
 20
152.2919927536
 11
52.5632725809
 21
152.2919927536
  0
LINE
  5
264
100
AcDbEntity
  8
0
100
AcDbLine
 62
7
  6
BYLAYER
 10
53.0825916066
 20
152.2919927536
 11
58.3308511243
 21
152.2919927536
  0
LINE
  5
265
100
AcDbEntity
  8
0
100
AcDbLine
 62
7
  6
BYLAYER
 10
69.3956940374
 20
152.2919927536
 11
74.6439535552
 21
152.2919927536
  0
LINE
  5
266
100
AcDbEntity
  8
0
100
AcDbLine
 62
7
  6
BYLAYER
 10
75.1632725809
 20
152.2919927536
 11
75.8632725809
 21
152.2919927536
  0
LINE
  5
267
100
AcDbEntity
  8
0
100
AcDbLine
 62
7
  6
BYLAYER
 10
56.75684943
 20
152.6867566329
 11
56.9422371437
 21
152.6867566329
  0
LINE
  5
268
100
AcDbEntity
  8
0
100
AcDbLine
 62
7
  6
BYLAYER
 10
55.1632725809
 20
152.6919927536
 11
56.234865887
 21
152.6919927536
  0
LINE
  5
269
100
AcDbEntity
  8
0
100
AcDbLine
 62
7
  6
BYLAYER
 10
56.9427414518
 20
152.6919927536
 11
72.5632725809
 21
152.6919927536
  0
LINE
  5
26A
100
AcDbEntity
  8
0
100
AcDbLine
 62
7
  6
BYLAYER
 10
52.5632725809
 20
152.9919927536
 11
55.1632725809
 21
152.9919927536
  0
LINE
  5
26B
100
AcDbEntity
  8
0
100
AcDbLine
 62
7
  6
BYLAYER
 10
72.5632725809
 20
152.9919927536
 11
75.1632725809
 21
152.9919927536
  0
LINE
  5
26C
100
AcDbEntity
  8
0
100
AcDbLine
 62
7
  6
BYLAYER
 10
75.3632725809
 20
153.1919927536
 11
72.3632725809
 21
153.1919927536
  0
LINE
  5
26D
100
AcDbEntity
  8
0
100
AcDbLine
 62
7
  6
BYLAYER
 10
55.3632725809
 20
153.1919927536
 11
52.3632725809
 21
153.1919927536
  0
LINE
  5
26E
100
AcDbEntity
  8
0
100
AcDbLine
 62
7
  6
BYLAYER
 10
56.9986109708
 20
157.2575998453
 11
56.8132654955
 21
157.2575998453
  0
LINE
  5
26F
100
AcDbEntity
  8
0
100
AcDbLine
 62
7
  6
BYLAYER
 10
55.3632725809
 20
157.7185816201
 11
56.2976999815
 21
157.7185816201
  0
LINE
  5
270
100
AcDbEntity
  8
0
100
AcDbLine
 62
7
  6
BYLAYER
 10
57.0037990522
 20
157.7185816201
 11
72.3632725809
 21
157.7185816201
  0
LINE
  5
271
100
AcDbEntity
  8
0
100
AcDbLine
 62
7
  6
BYLAYER
 10
57.0043029427
 20
157.72012213
 11
56.8695498672
 21
157.72012213
  0
LINE
  5
272
100
AcDbEntity
  8
0
100
AcDbLine
 62
7
  6
BYLAYER
 10
72.3632725809
 20
157.9598554168
 11
57.0516980996
 21
157.9598554168
  0
LINE
  5
273
100
AcDbEntity
  8
0
100
AcDbLine
 62
7
  6
BYLAYER
 10
56.3445913185
 20
157.9598554168
 11
55.3632725809
 21
157.9598554168
  0
LINE
  5
274
100
AcDbEntity
  8
0
100
AcDbLine
 62
7
  6
BYLAYER
 10
52.3632725809
 20
157.9919927536
 11
55.3632725809
 21
157.9919927536
  0
LINE
  5
275
100
AcDbEntity
  8
0
100
AcDbLine
 62
7
  6
BYLAYER
 10
72.3632725809
 20
157.9919927536
 11
75.3632725809
 21
157.9919927536
  0
LINE
  5
276
100
AcDbEntity
  8
0
100
AcDbLine
 62
7
  6
BYLAYER
 10
52.5633227631
 20
158.1919927536
 11
55.1632223987
 21
158.1919927536
  0
LINE
  5
277
100
AcDbEntity
  8
0
100
AcDbLine
 62
7
  6
BYLAYER
 10
72.5633227631
 20
158.1919927536
 11
75.1632223987
 21
158.1919927536
  0
LINE
  5
278
100
AcDbEntity
  8
0
100
AcDbLine
 62
7
  6
BYLAYER
 10
54.2849604174
 20
158.9419927536
 11
56.7460640413
 21
158.9419927536
  0
LINE
  5
279
100
AcDbEntity
  8
0
100
AcDbLine
 62
7
  6
BYLAYER
 10
57.4531706772
 20
158.9419927536
 11
73.4415847444
 21
158.9419927536
  0
LINE
  5
27A
100
AcDbEntity
  8
0
100
AcDbLine
 62
7
  6
BYLAYER
 10
54.7184548191
 20
159.1919927536
 11
57.0913571489
 21
159.1919927536
  0
LINE
  5
27B
100
AcDbEntity
  8
0
100
AcDbLine
 62
7
  6
BYLAYER
 10
57.7597947867
 20
159.1919927536
 11
73.0084547621
 21
159.1919927536
  0
LINE
  5
27C
100
AcDbEntity
  8
0
100
AcDbLine
 62
7
  6
BYLAYER
 10
67.6388372836
 20
159.6051686648
 11
60.0877078781
 21
159.6051686648
  0
LINE
  5
27D
100
AcDbEntity
  8
0
100
AcDbLine
 62
7
  6
BYLAYER
 10
58.1264087141
 20
161.8180399803
 11
57.9459227108
 21
161.8180399803
  0
LINE
  5
27E
100
AcDbEntity
  8
0
100
AcDbLine
 62
7
  6
BYLAYER
 10
58.0503773468
 20
161.9419927536
 11
58.1418892217
 21
161.9419927536
  0
LINE
  5
27F
100
AcDbEntity
  8
0
100
AcDbLine
 62
7
  6
BYLAYER
 10
58.1606225401
 20
162.091990857
 11
57.9443572949
 21
162.091990447
  0
LINE
  5
280
100
AcDbEntity
  8
0
100
AcDbLine
 62
7
  6
BYLAYER
 10
57.135624846
 20
162.1288168425
 11
57.4581153367
 21
162.1288168425
  0
LINE
  5
281
100
AcDbEntity
  8
0
100
AcDbLine
 62
7
  6
BYLAYER
 10
58.1652213848
 20
162.1288168425
 11
58.5498384084
 21
162.1288168425
  0
LINE
  5
282
100
AcDbEntity
  8
0
100
AcDbLine
 62
7
  6
BYLAYER
 10
60.4065478553
 20
162.1288168425
 11
67.3199973064
 21
162.1288168425
  0
LINE
  5
283
100
AcDbEntity
  8
0
100
AcDbLine
 62
7
  6
BYLAYER
 10
69.1767067534
 20
162.1288168425
 11
70.5909203157
 21
162.1288168425
  0
LINE
  5
284
100
AcDbEntity
  8
0
100
AcDbLine
 62
7
  6
BYLAYER
 10
57.4863476722
 20
162.5419927536
 11
70.2401974891
 21
162.5419927536
  0
ARC
  5
285
100
AcDbEntity
  8
0
100
AcDbCircle
 62
7
  6
BYLAYER
 10
59.3339482383
 20
157.1367984409
 40
2.5324939996
100
AcDbArc
 50
160.1829252168
 51
166.683165463
  0
ARC
  5
286
100
AcDbEntity
  8
0
100
AcDbCircle
 62
7
  6
BYLAYER
 10
68.0632725809
 20
132.6419927536
 40
1.05
100
AcDbArc
 50
270.0
 51
360.0
  0
ARC
  5
287
100
AcDbEntity
  8
0
100
AcDbCircle
 62
7
  6
BYLAYER
 10
59.6632725809
 20
132.6419927536
 40
1.05
100
AcDbArc
 50
180.0
 51
270.0
  0
ARC
  5
288
100
AcDbEntity
  8
0
100
AcDbCircle
 62
7
  6
BYLAYER
 10
57.8632725809
 20
138.4419927536
 40
0.75
100
AcDbArc
 50
0.0
 51
90.0
  0
ARC
  5
289
100
AcDbEntity
  8
0
100
AcDbCircle
 62
7
  6
BYLAYER
 10
69.8632725809
 20
138.4419927536
 40
0.75
100
AcDbArc
 50
90.0
 51
180.0
  0
ARC
  5
28A
100
AcDbEntity
  8
0
100
AcDbCircle
 62
7
  6
BYLAYER
 10
71.6132725809
 20
139.6919927536
 40
0.5
100
AcDbArc
 50
270.0
 51
360.0
  0
ARC
  5
28B
100
AcDbEntity
  8
0
100
AcDbCircle
 62
7
  6
BYLAYER
 10
56.1132725809
 20
139.6919927536
 40
0.5
100
AcDbArc
 50
180.0
 51
270.0
  0
ARC
  5
28C
100
AcDbEntity
  8
0
100
AcDbCircle
 62
7
  6
BYLAYER
 10
60.2276319348
 20
131.0919927536
 40
0.5
100
AcDbArc
 50
30.0
 51
90.0
  0
ARC
  5
28D
100
AcDbEntity
  8
0
100
AcDbCircle
 62
7
  6
BYLAYER
 10
67.4989132269
 20
131.0919927536
 40
0.5
100
AcDbArc
 50
90.0
 51
150.0
  0
ARC
  5
28E
100
AcDbEntity
  8
0
100
AcDbCircle
 62
7
  6
BYLAYER
 10
54.7179731193
 20
158.6919927536
 40
0.5
100
AcDbArc
 50
90.0
 51
150.0
  0
ARC
  5
28F
100
AcDbEntity
  8
0
100
AcDbCircle
 62
7
  6
BYLAYER
 10
73.0085720425
 20
158.6919927536
 40
0.5
100
AcDbArc
 50
30.0
 51
90.0
  0
SPLINE
  5
290
100
AcDbEntity
  8
0
100
AcDbSpline
 62
7
  6
BYLAYER
 70
0
 71
3
 72
12
 73
8
 74
0
 42
0.0000001
 43
0.0000001
 44
0.0000000001
 40
0.0
 40
0.0
 40
0.0
 40
0.0
 40
0.287603868
 40
0.5515045487
 40
0.7857531396
 40
0.894467507
 40
1.0
 40
1.0
 40
1.0
 40
1.0
 10
58.1652347773
 20
162.1289211441
 30
0.0
 10
58.1722021355
 20
162.1847070451
 30
0.0
 10
58.1987748202
 20
162.2906659672
 30
0.0
 10
58.2759697557
 20
162.4258967051
 30
0.0
 10
58.368857138
 20
162.5052489471
 30
0.0
 10
58.4514594186
 20
162.5367484387
 30
0.0
 10
58.4935085408
 20
162.5419927536
 30
0.0
 10
58.5141374844
 20
162.5419927536
 30
0.0
  0
SPLINE
  5
291
100
AcDbEntity
  8
0
100
AcDbSpline
 62
7
  6
BYLAYER
 70
0
 71
3
 72
11
 73
7
 74
0
 42
0.0000001
 43
0.0000001
 44
0.0000000001
 40
0.0
 40
0.0
 40
0.0
 40
0.0
 40
0.2819863996
 40
0.5406109777
 40
0.7771664515
 40
1.0
 40
1.0
 40
1.0
 40
1.0
 10
57.4531815354
 20
158.942019146
 30
0.0
 10
57.4680528767
 20
158.9783966787
 30
0.0
 10
57.503799611
 20
159.0455590233
 30
0.0
 10
57.5771079117
 20
159.1270004122
 30
0.0
 10
57.6642049936
 20
159.1796386557
 30
0.0
 10
57.7287572928
 20
159.1919927536
 30
0.0
 10
57.7598131695
 20
159.1919927536
 30
0.0
  0
SPLINE
  5
292
100
AcDbEntity
  8
0
100
AcDbSpline
 62
7
  6
BYLAYER
 70
0
 71
3
 72
9
 73
5
 74
0
 42
0.0000001
 43
0.0000001
 44
0.0000000001
 40
0.0
 40
0.0
 40
0.0
 40
0.0
 40
0.2432898652
 40
1.0
 40
1.0
 40
1.0
 40
1.0
 10
57.0516980996
 20
157.9598554168
 30
0.0
 10
57.0441284333
 20
157.9413361283
 30
0.0
 10
57.0169722257
 20
157.8636324109
 30
0.0
 10
57.005071846
 20
157.7808038519
 30
0.0
 10
57.0043029427
 20
157.7185816201
 30
0.0
  0
LINE
  5
293
100
AcDbEntity
  8
0
100
AcDbLine
 62
7
  6
BYLAYER
 10
57.4531815354
 20
158.942019146
 11
57.0516980996
 21
157.9598554168
  0
LINE
  5
294
100
AcDbEntity
  8
0
100
AcDbLine
 62
7
  6
BYLAYER
 10
58.1652347773
 20
162.1289211441
 11
57.79846393
 21
159.1919927536
  0
LINE
  5
295
100
AcDbEntity
  8
0
100
AcDbLine
 62
7
  6
BYLAYER
 10
57.135624846
 20
162.1288168425
 11
56.7670836047
 21
159.1919927536
  0
SPLINE
  5
296
100
AcDbEntity
  8
0
100
AcDbSpline
 62
7
  6
BYLAYER
 70
0
 71
3
 72
12
 73
8
 74
0
 42
0.0000001
 43
0.0000001
 44
0.0000000001
 40
0.0
 40
0.0
 40
0.0
 40
0.0
 40
0.2876965506
 40
0.5515237811
 40
0.7856297066
 40
0.8944000209
 40
1.0
 40
1.0
 40
1.0
 40
1.0
 10
57.135624846
 20
162.1288168425
 30
0.0
 10
57.1426461566
 20
162.1847461561
 30
0.0
 10
57.1694244454
 20
162.2909243093
 30
0.0
 10
57.247154172
 20
162.4263061612
 30
0.0
 10
57.3406693429
 20
162.5052839369
 30
0.0
 10
57.4234937832
 20
162.5366878351
 30
0.0
 10
57.4656574947
 20
162.5419927536
 30
0.0
 10
57.4863476729
 20
162.5419927536
 30
0.0
  0
SPLINE
  5
297
100
AcDbEntity
  8
0
100
AcDbSpline
 62
7
  6
BYLAYER
 70
0
 71
3
 72
12
 73
8
 74
0
 42
0.0000001
 43
0.0000001
 44
0.0000000001
 40
0.0
 40
0.0
 40
0.0
 40
0.0
 40
0.105600779
 40
0.2143735998
 40
0.4484824583
 40
0.7123116522
 40
1.0
 40
1.0
 40
1.0
 40
1.0
 10
70.240197427
 20
162.5419927536
 30
0.0
 10
70.2608877748
 20
162.5419927536
 30
0.0
 10
70.303051891
 20
162.5366865638
 30
0.0
 10
70.3858786515
 20
162.5052848965
 30
0.0
 10
70.4793916016
 20
162.4263015683
 30
0.0
 10
70.5571246742
 20
162.2909229396
 30
0.0
 10
70.583899201
 20
162.1847445966
 30
0.0
 10
70.5909203157
 20
162.1288168425
 30
0.0
  0
LINE
  5
298
100
AcDbEntity
  8
0
100
AcDbLine
 62
7
  6
BYLAYER
 10
70.9594615571
 20
159.1919927536
 11
70.5909203157
 21
162.1288168425
  0
LINE
  5
299
100
AcDbEntity
  8
0
100
AcDbLine
 62
7
  6
BYLAYER
 10
69.1767067534
 20
162.1288168425
 11
69.5452479947
 21
159.1919927536
  0
SPLINE
  5
29A
100
AcDbEntity
  8
0
100
AcDbSpline
 62
7
  6
BYLAYER
 70
0
 71
3
 72
12
 73
8
 74
0
 42
0.0000001
 43
0.0000001
 44
0.0000000001
 40
0.0
 40
0.0
 40
0.0
 40
0.0
 40
0.2877422182
 40
0.5514771418
 40
0.7855373159
 40
0.8943441871
 40
1.0
 40
1.0
 40
1.0
 40
1.0
 10
67.6388372836
 20
159.6051686648
 30
0.0
 10
67.6459090536
 20
159.5491429655
 30
0.0
 10
67.672898533
 20
159.442822595
 30
0.0
 10
67.7511367197
 20
159.307441665
 30
0.0
 10
67.8450048879
 20
159.2286290378
 30
0.0
 10
67.9280131722
 20
159.1972954052
 30
0.0
 10
67.9702626799
 20
159.1919927536
 30
0.0
 10
67.9909979408
 20
159.1919927536
 30
0.0
  0
SPLINE
  5
29B
100
AcDbEntity
  8
0
100
AcDbSpline
 62
7
  6
BYLAYER
 70
0
 71
3
 72
12
 73
8
 74
0
 42
0.0000001
 43
0.0000001
 44
0.0000000001
 40
0.0
 40
0.0
 40
0.0
 40
0.0
 40
0.1057103127
 40
0.2145286173
 40
0.4484955018
 40
0.7121724811
 40
1.0
 40
1.0
 40
1.0
 40
1.0
 10
66.9663689032
 20
162.5419927536
 30
0.0
 10
66.9871557998
 20
162.5419927536
 30
0.0
 10
67.0294998804
 20
162.5367376046
 30
0.0
 10
67.1127571792
 20
162.5056024212
 30
0.0
 10
67.2070738286
 20
162.4269849849
 30
0.0
 10
67.2857764712
 20
162.2914983979
 30
0.0
 10
67.3128960272
 20
162.1849680444
 30
0.0
 10
67.3199973064
 20
162.1288168425
 30
0.0
  0
SPLINE
  5
29C
100
AcDbEntity
  8
0
100
AcDbSpline
 62
7
  6
BYLAYER
 70
0
 71
3
 72
12
 73
8
 74
0
 42
0.0000001
 43
0.0000001
 44
0.0000000001
 40
0.0
 40
0.0
 40
0.0
 40
0.0
 40
0.2876965506
 40
0.5515237812
 40
0.7856297066
 40
0.8944000209
 40
1.0
 40
1.0
 40
1.0
 40
1.0
 10
69.1767067534
 20
162.1288168425
 30
0.0
 10
69.1696854428
 20
162.1847461562
 30
0.0
 10
69.142907154
 20
162.2909243094
 30
0.0
 10
69.0651774274
 20
162.4263061613
 30
0.0
 10
68.9716622564
 20
162.5052839369
 30
0.0
 10
68.8888378161
 20
162.5366878351
 30
0.0
 10
68.8466741045
 20
162.5419927536
 30
0.0
 10
68.8259839264
 20
162.5419927536
 30
0.0
  0
SPLINE
  5
29D
100
AcDbEntity
  8
0
100
AcDbSpline
 62
7
  6
BYLAYER
 70
0
 71
3
 72
12
 73
8
 74
0
 42
0.0000001
 43
0.0000001
 44
0.0000000001
 40
0.0
 40
0.0
 40
0.0
 40
0.0
 40
0.105600779
 40
0.2143735998
 40
0.4484824584
 40
0.7123116522
 40
1.0
 40
1.0
 40
1.0
 40
1.0
 10
58.9005612963
 20
162.5419927536
 30
0.0
 10
58.8798709485
 20
162.5419927536
 30
0.0
 10
58.8377068323
 20
162.5366865636
 30
0.0
 10
58.7548800721
 20
162.5052848961
 30
0.0
 10
58.6613671222
 20
162.4263015679
 30
0.0
 10
58.5836340499
 20
162.2909229393
 30
0.0
 10
58.5568595231
 20
162.1847445965
 30
0.0
 10
58.5498384084
 20
162.1288168425
 30
0.0
  0
SPLINE
  5
29E
100
AcDbEntity
  8
0
100
AcDbSpline
 62
7
  6
BYLAYER
 70
0
 71
3
 72
12
 73
8
 74
0
 42
0.0000001
 43
0.0000001
 44
0.0000000001
 40
0.0
 40
0.0
 40
0.0
 40
0.0
 40
0.2878377763
 40
0.5515110001
 40
0.7854724369
 40
0.8942898528
 40
1.0
 40
1.0
 40
1.0
 40
1.0
 10
60.4065478553
 20
162.1288168425
 30
0.0
 10
60.4136493451
 20
162.1849697094
 30
0.0
 10
60.4407751978
 20
162.2914982304
 30
0.0
 10
60.5194694303
 20
162.4269898263
 30
0.0
 10
60.6137896013
 20
162.5055984542
 30
0.0
 10
60.6970431727
 20
162.5367370785
 30
0.0
 10
60.7393869612
 20
162.5419927536
 30
0.0
 10
60.7601737009
 20
162.5419927536
 30
0.0
  0
SPLINE
  5
29F
100
AcDbEntity
  8
0
100
AcDbSpline
 62
7
  6
BYLAYER
 70
0
 71
3
 72
12
 73
8
 74
0
 42
0.0000001
 43
0.0000001
 44
0.0000000001
 40
0.0
 40
0.0
 40
0.0
 40
0.0
 40
0.1056568067
 40
0.2144637529
 40
0.4485293014
 40
0.712264966
 40
1.0
 40
1.0
 40
1.0
 40
1.0
 10
59.7355301239
 20
159.1919927536
 30
0.0
 10
59.7562662123
 20
159.1919927536
 30
0.0
 10
59.7985173948
 20
159.1972903088
 30
0.0
 10
59.8815333655
 20
159.2286177978
 30
0.0
 10
59.9754002953
 20
159.3074402148
 30
0.0
 10
60.0536510637
 20
159.4428178815
 30
0.0
 10
60.080636069
 20
159.5491426554
 30
0.0
 10
60.0877078781
 20
159.6051686648
 30
0.0
  0
LINE
  5
2A0
100
AcDbEntity
  8
0
100
AcDbLine
 62
7
  6
BYLAYER
 10
67.6388372836
 20
159.6051686648
 11
67.3199973064
 21
162.1288168425
  0
LINE
  5
2A1
100
AcDbEntity
  8
0
100
AcDbLine
 62
7
  6
BYLAYER
 10
60.4065478553
 20
162.1288168425
 11
60.0877078781
 21
159.6051686648
  0
LINE
  5
2A2
100
AcDbEntity
  8
0
100
AcDbLine
 62
7
  6
BYLAYER
 10
56.3445913185
 20
157.9598554168
 11
56.7460747428
 21
158.9420191185
  0
SPLINE
  5
2A3
100
AcDbEntity
  8
0
100
AcDbSpline
 62
7
  6
BYLAYER
 70
0
 71
3
 72
9
 73
5
 74
0
 42
0.0000001
 43
0.0000001
 44
0.0000000001
 40
0.0
 40
0.0
 40
0.0
 40
0.0
 40
0.2558910568
 40
1.0
 40
1.0
 40
1.0
 40
1.0
 10
56.2971961615
 20
157.7185816201
 30
0.0
 10
56.2974561461
 20
157.7396204483
 30
0.0
 10
56.3021759834
 20
157.8217207772
 30
0.0
 10
56.3214419231
 20
157.9032201162
 30
0.0
 10
56.3445913185
 20
157.9598554168
 30
0.0
  0
SPLINE
  5
2A4
100
AcDbEntity
  8
0
100
AcDbSpline
 62
7
  6
BYLAYER
 70
0
 71
3
 72
11
 73
7
 74
0
 42
0.0000001
 43
0.0000001
 44
0.0000000001
 40
0.0
 40
0.0
 40
0.0
 40
0.0
 40
0.2228335148
 40
0.4593895845
 40
0.7180143132
 40
1.0
 40
1.0
 40
1.0
 40
1.0
 10
57.0526947667
 20
159.1919927536
 30
0.0
 10
57.0216397431
 20
159.1919927536
 30
0.0
 10
56.9570897611
 20
159.1796342373
 30
0.0
 10
56.8699963978
 20
159.1269962522
 30
0.0
 10
56.7966911287
 20
159.045556003
 30
0.0
 10
56.7609456403
 20
158.9783955655
 30
0.0
 10
56.7460747428
 20
158.9420191185
 30
0.0
  0
SPLINE
  5
2A5
100
AcDbEntity
  8
0
100
AcDbSpline
 62
7
  6
BYLAYER
 70
0
 71
3
 72
11
 73
7
 74
0
 42
0.0000001
 43
0.0000001
 44
0.0000000001
 40
0.0
 40
0.0
 40
0.0
 40
0.0
 40
0.2309314822
 40
0.5015549314
 40
0.7713683469
 40
1.0
 40
1.0
 40
1.0
 40
1.0
 10
57.7354020576
 20
161.8440872069
 30
0.0
 10
57.7512727226
 20
161.8401296343
 30
0.0
 10
57.7861501446
 20
161.8331989757
 30
0.0
 10
57.8402176348
 20
161.8252379502
 30
0.0
 10
57.894432032
 20
161.8197945612
 30
0.0
 10
57.9297289436
 20
161.8180399803
 30
0.0
 10
57.9459227108
 20
161.8180399803
 30
0.0
  0
SPLINE
  5
2A6
100
AcDbEntity
  8
0
100
AcDbSpline
 62
7
  6
BYLAYER
 70
0
 71
3
 72
11
 73
7
 74
0
 42
0.0000001
 43
0.0000001
 44
0.0000000001
 40
0.0
 40
0.0
 40
0.0
 40
0.0
 40
0.2094668498
 40
0.4446559298
 40
0.7120302568
 40
1.0
 40
1.0
 40
1.0
 40
1.0
 10
58.0503773468
 20
161.9419927536
 30
0.0
 10
58.0363223094
 20
161.9419927536
 30
0.0
 10
58.006132836
 20
161.9511204851
 30
0.0
 10
57.9715612462
 20
161.9860738121
 30
0.0
 10
57.9493630951
 20
162.0351725572
 30
0.0
 10
57.9443113296
 20
162.0726702426
 30
0.0
 10
57.9443113296
 20
162.0919927536
 30
0.0
  0
SPLINE
  5
2A7
100
AcDbEntity
  8
0
100
AcDbSpline
 62
7
  6
BYLAYER
 70
0
 71
3
 72
11
 73
7
 74
0
 42
0.0000001
 43
0.0000001
 44
0.0000000001
 40
0.0
 40
0.0
 40
0.0
 40
0.0
 40
0.2879862754
 40
0.5523540169
 40
0.7869924095
 40
1.0
 40
1.0
 40
1.0
 40
1.0
 10
57.9459227108
 20
161.8180399803
 30
0.0
 10
57.9480073794
 20
161.8347598635
 30
0.0
 10
57.9559096607
 20
161.8665305161
 30
0.0
 10
57.9790872604
 20
161.9070995794
 30
0.0
 10
58.0114268606
 20
161.9349950938
 30
0.0
 10
58.0379148161
 20
161.9419927536
 30
0.0
 10
58.0503773468
 20
161.9419927536
 30
0.0
  0
SPLINE
  5
2A8
100
AcDbEntity
  8
0
100
AcDbSpline
 62
7
  6
BYLAYER
 70
0
 71
3
 72
9
 73
5
 74
0
 42
0.0000001
 43
0.0000001
 44
0.0000000001
 40
0.0
 40
0.0
 40
0.0
 40
0.0
 40
0.5039920747
 40
1.0
 40
1.0
 40
1.0
 40
1.0
 10
57.2865614773
 20
158.8969511321
 30
0.0
 10
57.2973205986
 20
158.8731067505
 30
0.0
 10
57.3276472259
 20
158.8297456443
 30
0.0
 10
57.3694544501
 20
158.7971494757
 30
0.0
 10
57.3924932162
 20
158.785659537
 30
0.0
  0
SPLINE
  5
2A9
100
AcDbEntity
  8
0
100
AcDbSpline
 62
7
  6
BYLAYER
 70
0
 71
3
 72
9
 73
5
 74
0
 42
0.0000001
 43
0.0000001
 44
0.0000000001
 40
0.0
 40
0.0
 40
0.0
 40
0.0
 40
0.5212004709
 40
1.0
 40
1.0
 40
1.0
 40
1.0
 10
57.5756386047
 20
159.1061126945
 30
0.0
 10
57.544341512
 20
159.107778663
 30
0.0
 10
57.4844958399
 20
159.1141678304
 30
0.0
 10
57.425092055
 20
159.1242496032
 30
0.0
 10
57.3971558262
 20
159.1312158931
 30
0.0
  0
SPLINE
  5
2AA
100
AcDbEntity
  8
0
100
AcDbSpline
 62
7
  6
BYLAYER
 70
0
 71
3
 72
11
 73
7
 74
0
 42
0.0000001
 43
0.0000001
 44
0.0000000001
 40
0.0
 40
0.0
 40
0.0
 40
0.0
 40
0.2344727661
 40
0.5051590573
 40
0.7731435337
 40
1.0
 40
1.0
 40
1.0
 40
1.0
 10
56.6629165093
 20
157.7677907311
 30
0.0
 10
56.6779786309
 20
157.760651354
 30
0.0
 10
56.7116893639
 20
157.7479646057
 30
0.0
 10
56.7647265489
 20
157.7333403305
 30
0.0
 10
56.8182689489
 20
157.7233327065
 30
0.0
 10
56.8534228243
 20
157.72012213
 30
0.0
 10
56.8695498672
 20
157.72012213
 30
0.0
  0
SPLINE
  5
2AB
100
AcDbEntity
  8
0
100
AcDbSpline
 62
7
  6
BYLAYER
 70
0
 71
3
 72
9
 73
5
 74
0
 42
0.0000001
 43
0.0000001
 44
0.0000000001
 40
0.0
 40
0.0
 40
0.0
 40
0.0
 40
0.2620998747
 40
1.0
 40
1.0
 40
1.0
 40
1.0
 10
56.9514290919
 20
157.9953602469
 30
0.0
 10
56.9734513484
 20
158.0562611345
 30
0.0
 10
57.0666933553
 20
158.2850207161
 30
0.0
 10
57.198927203
 20
158.499114419
 30
0.0
 10
57.318604967
 20
158.6366594646
 30
0.0
  0
SPLINE
  5
2AC
100
AcDbEntity
  8
0
100
AcDbSpline
 62
7
  6
BYLAYER
 70
0
 71
3
 72
9
 73
5
 74
0
 42
0.0000001
 43
0.0000001
 44
0.0000000001
 40
0.0
 40
0.0
 40
0.0
 40
0.0
 40
0.5000157701
 40
1.0
 40
1.0
 40
1.0
 40
1.0
 10
56.6011496155
 20
157.2602177062
 30
0.0
 10
56.6364957639
 20
157.2593451799
 30
0.0
 10
56.7072006726
 20
157.2582607405
 30
0.0
 10
56.7779108098
 20
157.2575998453
 30
0.0
 10
56.8132654955
 20
157.2575998453
 30
0.0
  0
SPLINE
  5
2AD
100
AcDbEntity
  8
0
100
AcDbSpline
 62
7
  6
BYLAYER
 70
0
 71
3
 72
9
 73
5
 74
0
 42
0.0000001
 43
0.0000001
 44
0.0000000001
 40
0.0
 40
0.0
 40
0.0
 40
0.0
 40
0.2522497865
 40
1.0
 40
1.0
 40
1.0
 40
1.0
 10
56.8132654955
 20
157.2575998453
 30
0.0
 10
56.8137495523
 20
157.2968182393
 30
0.0
 10
56.8198652162
 20
157.4522051818
 30
0.0
 10
56.842737972
 20
157.6069910149
 30
0.0
 10
56.8695498672
 20
157.72012213
 30
0.0
  0
SPLINE
  5
2AE
100
AcDbEntity
  8
0
100
AcDbSpline
 62
7
  6
BYLAYER
 70
0
 71
3
 72
9
 73
5
 74
0
 42
0.0000001
 43
0.0000001
 44
0.0000000001
 40
0.0
 40
0.0
 40
0.0
 40
0.0
 40
0.4999853935
 40
1.0
 40
1.0
 40
1.0
 40
1.0
 10
56.5447173967
 20
152.6880657515
 30
0.0
 10
56.5800378195
 20
152.6864869748
 30
0.0
 10
56.6507917146
 20
152.6868568825
 30
0.0
 10
56.7214916744
 20
152.6867542018
 30
0.0
 10
56.75684943
 20
152.6867566329
 30
0.0
  0
LINE
  5
2AF
100
AcDbEntity
  8
0
100
AcDbLine
 62
7
  6
BYLAYER
 10
57.0913571489
 20
159.1919927536
 11
57.4581331145
 21
162.1289621272
  0
SPLINE
  5
2B0
100
AcDbEntity
  8
0
100
AcDbSpline
 62
7
  6
BYLAYER
 70
0
 71
3
 72
12
 73
8
 74
0
 42
0.0000001
 43
0.0000001
 44
0.0000000001
 40
0.0
 40
0.0
 40
0.0
 40
0.0
 40
0.105532879
 40
0.2142500206
 40
0.4485019169
 40
0.7124000533
 40
1.0
 40
1.0
 40
1.0
 40
1.0
 10
57.8070006082
 20
162.5419927536
 30
0.0
 10
57.7863741465
 20
162.5419927536
 30
0.0
 10
57.7443297188
 20
162.5367439349
 30
0.0
 10
57.6617412183
 20
162.5052368451
 30
0.0
 10
57.568868097
 20
162.4258927502
 30
0.0
 10
57.4916793761
 20
162.2906827145
 30
0.0
 10
57.4650995141
 20
162.1847403524
 30
0.0
 10
57.4581331145
 20
162.1289621272
 30
0.0
  0
SPLINE
  5
2B1
100
AcDbEntity
  8
0
100
AcDbSpline
 62
7
  6
BYLAYER
 70
0
 71
3
 72
11
 73
7
 74
0
 42
0.0000001
 43
0.0000001
 44
0.0000000001
 40
0.0
 40
0.0
 40
0.0
 40
0.0
 40
0.2880053892
 40
0.5523555351
 40
0.7869771649
 40
1.0
 40
1.0
 40
1.0
 40
1.0
 10
57.73540526
 20
161.8440996077
 30
0.0
 10
57.7395751383
 20
161.8775437151
 30
0.0
 10
57.7553923849
 20
161.9410871276
 30
0.0
 10
57.8017562743
 20
162.0222236989
 30
0.0
 10
57.8664473781
 20
162.0780092855
 30
0.0
 10
57.9194288682
 20
162.091990447
 30
0.0
 10
57.9443572949
 20
162.091990447
 30
0.0
  0
SPLINE
  5
2B2
100
AcDbEntity
  8
0
100
AcDbSpline
 62
7
  6
BYLAYER
 70
0
 71
3
 72
9
 73
5
 74
0
 42
0.0000001
 43
0.0000001
 44
0.0000000001
 40
0.0
 40
0.0
 40
0.0
 40
0.0
 40
0.4721849025
 40
1.0
 40
1.0
 40
1.0
 40
1.0
 10
57.2865619849
 20
158.896950007
 30
0.0
 10
57.3173001396
 20
158.9246902756
 30
0.0
 10
57.3683306671
 20
158.9992448914
 30
0.0
 10
57.3914323209
 20
159.0853153968
 30
0.0
 10
57.3971586242
 20
159.131242662
 30
0.0
  0
LINE
  5
2B3
100
AcDbEntity
  8
0
100
AcDbLine
 62
7
  6
BYLAYER
 10
58.181297167
 20
159.1919927536
 11
58.5498384084
 21
162.1288168425
  0
SPLINE
  5
2B4
100
AcDbEntity
  8
0
100
AcDbSpline
 62
7
  6
BYLAYER
 70
0
 71
3
 72
10
 73
6
 74
0
 42
0.0000001
 43
0.0000001
 44
0.0000000001
 40
0.0
 40
0.0
 40
0.0
 40
0.0
 40
0.268065681
 40
0.5256699056
 40
1.0
 40
1.0
 40
1.0
 40
1.0
 10
56.6629128487
 20
157.7677772213
 30
0.0
 10
56.6898228893
 20
157.8813224547
 30
0.0
 10
56.7565987308
 20
158.1011471617
 30
0.0
 10
56.9377230882
 20
158.4974721606
 30
0.0
 10
57.1332761135
 20
158.7586140762
 30
0.0
 10
57.2865619849
 20
158.896950007
 30
0.0
  0
SPLINE
  5
2B5
100
AcDbEntity
  8
0
100
AcDbSpline
 62
7
  6
BYLAYER
 70
0
 71
3
 72
9
 73
5
 74
0
 42
0.0000001
 43
0.0000001
 44
0.0000000001
 40
0.0
 40
0.0
 40
0.0
 40
0.0
 40
0.2522496949
 40
1.0
 40
1.0
 40
1.0
 40
1.0
 10
56.6011497108
 20
157.2602362951
 30
0.0
 10
56.601680882
 20
157.3032719147
 30
0.0
 10
56.6083931254
 20
157.4737830699
 30
0.0
 10
56.6334912697
 20
157.643634708
 30
0.0
 10
56.6629128487
 20
157.7677772213
 30
0.0
  0
ENDSEC
  0
SECTION
  2
OBJECTS
  0
DICTIONARY
  5
C
100
AcDbDictionary
280
0
281
1
  3
ACAD_GROUP
350
D
  3
ACAD_MLINESTYLE
350
17
  3
ACAD_LAYOUT
350
1A
  3
ACAD_PLOTSETTINGS
350
19
  3
ACAD_PLOTSTYLENAME
350
E
  0
DICTIONARY
  5
D
102
{ACAD_REACTORS
330
C
102
}
100
AcDbDictionary
280
0
281
1
  0
ACDBDICTIONARYWDFLT
  5
E
102
{ACAD_REACTORS
330
C
102
}
100
AcDbDictionary
281
1
  3
Normal
350
F
100
AcDbDictionaryWithDefault
340
F
  0
DICTIONARY
  5
17
102
{ACAD_REACTORS
330
C
102
}
100
AcDbDictionary
280
0
281
1
  3
Standard
350
18
  0
DICTIONARY
  5
19
102
{ACAD_REACTORS
330
C
102
}
100
AcDbDictionary
281
1
  0
DICTIONARY
  5
1A
102
{ACAD_REACTORS
330
C
102
}
100
AcDbDictionary
281
1
  3
Model
350
2B6
  3
Layout1
350
2B7
  0
ACDBPLACEHOLDER
  5
F
102
{ACAD_REACTORS
330
E
102
}
  0
MLINESTYLE
  5
18
102
{ACAD_REACTORS
330
17
102
}
100
AcDbMlineStyle
  2
STANDARD
 70
0
  3

 62
256
 51
90.0
 52
90.0
 71
2
 49
0.5
 62
256
  6
BYLAYER
 49
-0.5
 62
256
  6
BYLAYER
  0
LAYOUT
  5
2B6
102
{ACAD_REACTORS
330
1A
102
}
100
AcDbPlotSettings
  1

  2
none_device
  4

  6

 40
0.0
 41
0.0
 42
0.0
 43
0.0
 44
210.0
 45
297.0
 46
0.0
 47
0.0
 48
0.0
 49
0.0
140
0.0
141
0.0
142
1.0
143
1.0
 70
1024
 72
1
 73
0
 74
0
  7

 75
0
147
1.0
148
0.0
149
0.0
100
AcDbLayout
  1
Model
 70
0
 71
0
 10
0.0
 20
0.0
 11
210.0
 21
297.0
 12
0.0
 22
0.0
 32
0.0
 14
0.0
 24
0.0
 34
0.0
 15
0.0
 25
0.0
 35
0.0
146
0.0
 13
0.0
 23
0.0
 33
0.0
 16
1.0
 26
0.0
 36
0.0
 17
0.0
 27
1.0
 37
0.0
 76
0
330
210
345
0
346
0
  0
LAYOUT
  5
2B7
102
{ACAD_REACTORS
330
1A
102
}
100
AcDbPlotSettings
  1

  2
none_device
  4

  6

 40
0.0
 41
0.0
 42
0.0
 43
0.0
 44
210.0
 45
297.0
 46
0.0
 47
0.0
 48
0.0
 49
0.0
140
0.0
141
0.0
142
1.0
143
1.0
 70
0
 72
1
 73
0
 74
0
  7

 75
0
147
1.0
148
0.0
149
0.0
100
AcDbLayout
  1
Layout1
 70
0
 71
1
 10
0.0
 20
0.0
 11
210.0
 21
297.0
 12
0.0
 22
0.0
 32
0.0
 14
0.0
 24
0.0
 34
0.0
 15
0.0
 25
0.0
 35
0.0
146
0.0
 13
0.0
 23
0.0
 33
0.0
 16
1.0
 26
0.0
 36
0.0
 17
0.0
 27
1.0
 37
0.0
 76
0
330
211
345
0
346
0
  0
ENDSEC
  0
EOF
