999
DXF file: C:\Users\sesa63760\Dev\_Creo\CAD\MCADID0004796_3D-CAD\drw0001_7.dxf
999
Pro/ENGINEER 2019471 by Parametric Technology Corporation
  0
SECTION
  2
HEADER
  9
$ACADVER
  1
AC1024
  9
$DWGCODEPAGE
  3
ANSI_1252
  9
$EXTMAX
 10
65.7312733462
 20
92.9628008753
 30
0.0
  9
$EXTMIN
 10
0.0
 20
0.0
 30
0.0
  9
$LIMMIN
 10
0.0
 20
0.0
  9
$LIMMAX
 10
65.7312733462
 20
92.9628008753
  9
$VIEWCTR
 10
32.8656366731
 20
46.4814004376
  9
$VIEWSIZE
 40
92.9628008753
  9
$CLAYER
  8
0
  9
$LTSCALE
 40
6.0597973904
  9
$CELTYPE
  6
BYLAYER
  9
$DIMSCALE
 40
1.0
  9
$DIMASZ
 40
0.7825151589
  9
$DIMEXO
 40
1.0
  9
$DIMDLI
 40
4.1867691061
  9
$DIMEXE
 40
1.0
  9
$DIMCEN
 40
0.9916032093
  9
$DIMLFAC
 40
1.0
  9
$DIMBLK
  1
_FILLED
  9
$DIMALT
 70
0
  9
$DIMALTF
 40
0.0393700787
  9
$DIMTXT
 40
1.0955212224
  9
$DIMTOL
 70
1
  9
$DIMLIM
 70
0
  9
$DIMTFAC
 40
1.0
  9
$DIMTP
 40
0.01
  9
$DIMTM
 40
0.01
  9
$DIMGAP
 40
0.625
  9
$DIMDSEP
 70
46
  9
$AUNITS
 70
0
  9
$PDMODE
 70
3
  9
$PDSIZE
 40
0.3125
  9
$HANDSEED
  5
2BB
  9
$TILEMODE
 70
1
  9
$MEASUREMENT
 70
1
  9
$INSUNITS
 70
4
  0
ENDSEC
  0
SECTION
  2
CLASSES
  0
CLASS
  1
ACDBDICTIONARYWDFLT
  2
AcDbDictionaryWithDefault
  3
AutoCAD 2000
 90
0
 91
1
280
0
281
0
  0
CLASS
  1
ACDBPLACEHOLDER
  2
AcDbPlaceHolder
  3
AutoCAD 2000
 90
0
 91
1
280
0
281
0
  0
CLASS
  1
LAYOUT
  2
AcDbLayout
  3
AutoCAD 2000
 90
0
 91
0
280
0
281
0
  0
ENDSEC
  0
SECTION
  2
TABLES
  0
TABLE
  2
VPORT
  5
8
100
AcDbSymbolTable
 70
2
  0
VPORT
  5
1F4
100
AcDbSymbolTableRecord
100
AcDbViewportTableRecord
  2
*ACTIVE
 70
0
 10
0.0
 20
0.0
 11
1.0
 21
1.0
 12
32.8656366731
 22
46.4814004376
 13
0.0
 23
0.0
 14
1.0
 24
1.0
 15
0.0
 25
0.0
 16
0.0
 26
0.0
 36
1.0
 17
0.0
 27
0.0
 37
0.0
 40
92.9628008753
 41
0.7070707071
 42
50.0
 43
0.0
 44
0.0
 50
0.0
 51
0.0
 71
0
 72
100
 73
1
 74
1
 75
0
 76
0
 77
0
 78
0
  0
ENDTAB
  0
TABLE
  2
LTYPE
  5
5
100
AcDbSymbolTable
 70
6
  0
LTYPE
  5
14
100
AcDbSymbolTableRecord
100
AcDbLinetypeTableRecord
  2
BYBLOCK
 70
0
  3

 72
65
 73
0
 40
0.0
  0
LTYPE
  5
15
100
AcDbSymbolTableRecord
100
AcDbLinetypeTableRecord
  2
BYLAYER
 70
0
  3

 72
65
 73
0
 40
0.0
  0
LTYPE
  5
16
100
AcDbSymbolTableRecord
100
AcDbLinetypeTableRecord
  2
CONTINUOUS
 70
64
  3
Solid line
 72
65
 73
0
 40
0.0
  0
LTYPE
  5
1F5
100
AcDbSymbolTableRecord
100
AcDbLinetypeTableRecord
  2
CENTER
 70
64
  3
____ _ ____ _ ____ _ ____ _ ____ _ ____ _ ____
 72
65
 73
4
 40
0.6
 49
0.375
 74
0
 49
-0.075
 74
0
 49
0.075
 74
0
 49
-0.075
 74
0
  0
LTYPE
  5
1F6
100
AcDbSymbolTableRecord
100
AcDbLinetypeTableRecord
  2
HIDDEN
 70
64
  3
- - - - - - - - - - - - - - - - - - - -
 72
65
 73
2
 40
0.2
 49
0.1
 74
0
 49
-0.1
 74
0
  0
LTYPE
  5
1F7
100
AcDbSymbolTableRecord
100
AcDbLinetypeTableRecord
  2
PHANTOM
 70
64
  3
_____ _ _ _____ _ _ _____ _ _ _____
 72
65
 73
6
 40
0.8
 49
0.45
 74
0
 49
-0.05
 74
0
 49
0.1
 74
0
 49
-0.05
 74
0
 49
0.1
 74
0
 49
-0.05
 74
0
  0
LTYPE
  5
1F8
100
AcDbSymbolTableRecord
100
AcDbLinetypeTableRecord
  2
DOT
 70
64
  3
. . . . . . . . . . . . . . . . . . . .
 72
65
 73
2
 40
0.2
 49
0.1
 74
0
 49
-0.1
 74
0
  0
LTYPE
  5
1F9
100
AcDbSymbolTableRecord
100
AcDbLinetypeTableRecord
  2
DASHED
 70
64
  3
- - - - - - - - - - - - - - - - - - - -
 72
65
 73
2
 40
0.2
 49
0.1
 74
0
 49
-0.1
 74
0
  0
ENDTAB
  0
TABLE
  2
LAYER
  5
2
100
AcDbSymbolTable
 70
36
  0
LAYER
  5
10
100
AcDbSymbolTableRecord
100
AcDbLayerTableRecord
  2
0
 70
0
 62
7
  6
CONTINUOUS
370
-3
390
F
  0
LAYER
  5
1FA
100
AcDbSymbolTableRecord
100
AcDbLayerTableRecord
  2
DEFAULT_1
 70
0
 62
7
  6
CENTER
370
-3
390
F
  0
LAYER
  5
1FB
100
AcDbSymbolTableRecord
100
AcDbLayerTableRecord
  2
DEFAULT_2
 70
0
 62
7
  6
HIDDEN
370
-3
390
F
  0
LAYER
  5
1FC
100
AcDbSymbolTableRecord
100
AcDbLayerTableRecord
  2
DEFAULT_3
 70
0
 62
7
  6
PHANTOM
370
-3
390
F
  0
LAYER
  5
1FD
100
AcDbSymbolTableRecord
100
AcDbLayerTableRecord
  2
00_COMPONENTS
 70
0
 62
7
  6
CONTINUOUS
370
-3
390
F
  0
LAYER
  5
1FE
100
AcDbSymbolTableRecord
100
AcDbLayerTableRecord
  2
01_1_DEFAULT_DATUMS
 70
0
 62
7
  6
CONTINUOUS
370
-3
390
F
  0
LAYER
  5
1FF
100
AcDbSymbolTableRecord
100
AcDbLayerTableRecord
  2
01_PLANES
 70
0
 62
7
  6
CONTINUOUS
370
-3
390
F
  0
LAYER
  5
200
100
AcDbSymbolTableRecord
100
AcDbLayerTableRecord
  2
02_COORD_SYS
 70
0
 62
7
  6
CONTINUOUS
370
-3
390
F
  0
LAYER
  5
201
100
AcDbSymbolTableRecord
100
AcDbLayerTableRecord
  2
03_AXES
 70
0
 62
7
  6
CONTINUOUS
370
-3
390
F
  0
LAYER
  5
202
100
AcDbSymbolTableRecord
100
AcDbLayerTableRecord
  2
04_POINTS
 70
0
 62
7
  6
CONTINUOUS
370
-3
390
F
  0
LAYER
  5
203
100
AcDbSymbolTableRecord
100
AcDbLayerTableRecord
  2
05_CURVES
 70
0
 62
7
  6
CONTINUOUS
370
-3
390
F
  0
LAYER
  5
204
100
AcDbSymbolTableRecord
100
AcDbLayerTableRecord
  2
06_SURFS
 70
0
 62
7
  6
CONTINUOUS
370
-3
390
F
  0
LAYER
  5
205
100
AcDbSymbolTableRecord
100
AcDbLayerTableRecord
  2
07_COSMETICS
 70
0
 62
7
  6
CONTINUOUS
370
-3
390
F
  0
LAYER
  5
206
100
AcDbSymbolTableRecord
100
AcDbLayerTableRecord
  2
10_NOTES
 70
0
 62
7
  6
CONTINUOUS
370
-3
390
F
  0
LAYER
  5
207
100
AcDbSymbolTableRecord
100
AcDbLayerTableRecord
  2
11_NOTES_PUB
 70
0
 62
7
  6
CONTINUOUS
370
-3
390
F
  0
LAYER
  5
208
100
AcDbSymbolTableRecord
100
AcDbLayerTableRecord
  2
13_REF_GTOL
 70
0
 62
7
  6
CONTINUOUS
370
-3
390
F
  0
LAYER
  5
209
100
AcDbSymbolTableRecord
100
AcDbLayerTableRecord
  2
16_MISC
 70
0
 62
7
  6
CONTINUOUS
370
-3
390
F
  0
LAYER
  5
20A
100
AcDbSymbolTableRecord
100
AcDbLayerTableRecord
  2
17_NO_PRINT
 70
0
 62
7
  6
CONTINUOUS
370
-3
390
F
  0
LAYER
  5
20B
100
AcDbSymbolTableRecord
100
AcDbLayerTableRecord
  2
18_DATUM_CAMS_JOINTS
 70
0
 62
7
  6
CONTINUOUS
370
-3
390
F
  0
LAYER
  5
20C
100
AcDbSymbolTableRecord
100
AcDbLayerTableRecord
  2
19_DATUM_FUNCTIONAL
 70
0
 62
7
  6
CONTINUOUS
370
-3
390
F
  0
LAYER
  5
20D
100
AcDbSymbolTableRecord
100
AcDbLayerTableRecord
  2
20_DATUM_KINEMATIC_SCHEME
 70
0
 62
7
  6
CONTINUOUS
370
-3
390
F
  0
ENDTAB
  0
TABLE
  2
STYLE
  5
3
100
AcDbSymbolTable
 70
1
  0
STYLE
  5
11
100
AcDbSymbolTableRecord
100
AcDbTextStyleTableRecord
  2
STANDARD
 70
0
 40
0.0
 41
1.0
 50
0.0
 71
0
 42
0.2
  3
ARIAL.TTF
  4

  0
STYLE
  5
20E
100
AcDbSymbolTableRecord
100
AcDbTextStyleTableRecord
  2
TEXTSTYLE_1
 70
0
 40
0.0
 41
0.8
 50
0.0
 71
0
 42
0.2
  3
gdt
  4

  0
ENDTAB
  0
TABLE
  2
VIEW
  5
6
100
AcDbSymbolTable
 70
0
  0
ENDTAB
  0
TABLE
  2
UCS
  5
7
100
AcDbSymbolTable
 70
0
  0
ENDTAB
  0
TABLE
  2
APPID
  5
9
100
AcDbSymbolTable
 70
1
  0
APPID
  5
20F
100
AcDbSymbolTableRecord
100
AcDbRegAppTableRecord
  2
ACAD
 70
0
  0
ENDTAB
  0
TABLE
  2
BLOCK_RECORD
  5
1
100
AcDbSymbolTable
 70
0
  0
BLOCK_RECORD
  5
210
100
AcDbSymbolTableRecord
100
AcDbBlockTableRecord
  2
*Model_Space
  0
BLOCK_RECORD
  5
211
100
AcDbSymbolTableRecord
100
AcDbBlockTableRecord
  2
*Paper_Space
  0
BLOCK_RECORD
  5
212
100
AcDbSymbolTableRecord
100
AcDbBlockTableRecord
  2
_FILLED
  0
ENDTAB
  0
TABLE
  2
DIMSTYLE
  5
A
100
AcDbSymbolTable
 70
1
100
AcDbDimStyleTable
 71
0
  0
DIMSTYLE
105
213
100
AcDbSymbolTableRecord
100
AcDbDimStyleTableRecord
  2
STANDARD
 70
0
  3

  4

 40
1.0
 41
0.7825151589
 42
1.0
 43
0.38
 44
1.0
 45
0.0
 46
0.0
 47
0.01
 48
0.01
140
1.0955212224
141
0.09
142
0.0
143
25.4
144
1.0
145
0.0
146
1.0
147
0.625
 71
1
 72
0
 73
0
 74
0
 75
0
 76
0
 77
1
 78
8
 79
2
170
0
171
1
172
0
173
0
174
0
175
0
176
0
177
0
178
0
270
2
179
2
271
2
272
2
273
2
274
2
275
0
280
0
281
0
282
0
283
1
284
8
285
0
286
0
287
3
288
0
340
11
278
46
341
212
342
212
343
212
344
212
  0
ENDTAB
  0
ENDSEC
  0
SECTION
  2
BLOCKS
  0
BLOCK
  5
20
100
AcDbEntity
  8
0
100
AcDbBlockBegin
  2
*Model_Space
 70
0
 10
0.0
 20
0.0
 30
0.0
  3
*Model_Space
  1

  0
ENDBLK
  5
21
100
AcDbEntity
  8
0
100
AcDbBlockEnd
  0
BLOCK
  5
1C
100
AcDbEntity
  8
0
100
AcDbBlockBegin
  2
*Paper_Space
 70
0
 10
0.0
 20
0.0
 30
0.0
  3
*Paper_Space
  1

  0
ENDBLK
  5
1D
100
AcDbEntity
  8
0
100
AcDbBlockEnd
  0
BLOCK
  5
214
100
AcDbEntity
  8
0
100
AcDbBlockBegin
  2
_FILLED
 70
64
 10
0.0
 20
0.0
  3
_FILLED
  1

  0
SOLID
  5
215
100
AcDbEntity
  8
0
  6
BYBLOCK
 62
0
100
AcDbTrace
 10
0.0
 20
0.0
 11
-1.0
 21
0.25
 12
-1.0
 22
-0.25
 13
-1.0
 23
-0.25
  0
ENDBLK
  5
216
100
AcDbEntity
  8
0
  6
BYBLOCK
 62
0
100
AcDbBlockEnd
  0
ENDSEC
  0
SECTION
  2
ENTITIES
  0
LINE
  5
217
100
AcDbEntity
  8
0
100
AcDbLine
 62
7
  6
BYLAYER
 10
8.0800341941
 20
32.5589715536
 11
7.9794222311
 21
33.7089715536
  0
LINE
  5
218
100
AcDbEntity
  8
0
100
AcDbLine
 62
7
  6
BYLAYER
 10
6.9794222311
 20
61.2089715536
 11
6.9794222311
 21
36.7089715536
  0
LINE
  5
219
100
AcDbEntity
  8
0
100
AcDbLine
 62
7
  6
BYLAYER
 10
6.9794222311
 20
35.2089715536
 11
6.9794222311
 21
33.7089715536
  0
LINE
  5
21A
100
AcDbEntity
  8
0
100
AcDbLine
 62
7
  6
BYLAYER
 10
7.4794222311
 20
61.7089715536
 11
7.4794222311
 21
61.2089715536
  0
LINE
  5
21B
100
AcDbEntity
  8
0
100
AcDbLine
 62
7
  6
BYLAYER
 10
7.7794222311
 20
36.7089715536
 11
7.7794222311
 21
36.4089715536
  0
LINE
  5
21C
100
AcDbEntity
  8
0
100
AcDbLine
 62
7
  6
BYLAYER
 10
9.5794222311
 20
36.4089715536
 11
9.5794222311
 21
36.7089715536
  0
LINE
  5
21D
100
AcDbEntity
  8
0
100
AcDbLine
 62
7
  6
BYLAYER
 10
9.6794222311
 20
35.2089715536
 11
9.6794222311
 21
36.7089715536
  0
LINE
  5
21E
100
AcDbEntity
  8
0
100
AcDbLine
 62
7
  6
BYLAYER
 10
10.9794222311
 20
33.7089715536
 11
10.9794222311
 21
35.2089715536
  0
LINE
  5
21F
100
AcDbEntity
  8
0
100
AcDbLine
 62
7
  6
BYLAYER
 10
10.9794222311
 20
36.7089715536
 11
10.9794222311
 21
61.2089715536
  0
LINE
  5
220
100
AcDbEntity
  8
0
100
AcDbLine
 62
7
  6
BYLAYER
 10
12.2794222311
 20
35.2089715536
 11
12.2794222311
 21
36.7089715536
  0
LINE
  5
221
100
AcDbEntity
  8
0
100
AcDbLine
 62
7
  6
BYLAYER
 10
13.4794222311
 20
56.2089715536
 11
13.4794222311
 21
36.7089715536
  0
LINE
  5
222
100
AcDbEntity
  8
0
100
AcDbLine
 62
7
  6
BYLAYER
 10
13.4794222311
 20
35.2089715536
 11
13.4794222311
 21
33.7089715536
  0
LINE
  5
223
100
AcDbEntity
  8
0
100
AcDbLine
 62
7
  6
BYLAYER
 10
13.6871862951
 20
36.7089715536
 11
13.6871862951
 21
36.4089715536
  0
LINE
  5
224
100
AcDbEntity
  8
0
100
AcDbLine
 62
7
  6
BYLAYER
 10
15.0669566073
 20
36.7089715536
 11
15.0669566073
 21
36.4089715536
  0
LINE
  5
225
100
AcDbEntity
  8
0
100
AcDbLine
 62
7
  6
BYLAYER
 10
13.878810268
 20
32.5589715536
 11
13.9794222311
 21
33.7089715536
  0
LINE
  5
226
100
AcDbEntity
  8
0
100
AcDbLine
 62
7
  6
BYLAYER
 10
18.0800341941
 20
32.5589715536
 11
18.0056688301
 21
33.4089715536
  0
LINE
  5
227
100
AcDbEntity
  8
0
100
AcDbLine
 62
7
  6
BYLAYER
 10
15.7294222311
 20
33.4089715536
 11
15.7294222311
 21
33.7089715536
  0
LINE
  5
228
100
AcDbEntity
  8
0
100
AcDbLine
 62
7
  6
BYLAYER
 10
17.4794222311
 20
61.7089715536
 11
17.4794222311
 21
61.2089715536
  0
LINE
  5
229
100
AcDbEntity
  8
0
100
AcDbLine
 62
7
  6
BYLAYER
 10
18.9105823281
 20
33.7089715536
 11
18.9105823281
 21
35.2089715536
  0
LINE
  5
22A
100
AcDbEntity
  8
0
100
AcDbLine
 62
7
  6
BYLAYER
 10
57.4863705008
 20
31.7089715536
 11
52.4724739613
 21
31.7089715536
  0
LINE
  5
22B
100
AcDbEntity
  8
0
100
AcDbLine
 62
7
  6
BYLAYER
 10
47.4863705008
 20
31.7089715536
 11
42.4724739613
 21
31.7089715536
  0
LINE
  5
22C
100
AcDbEntity
  8
0
100
AcDbLine
 62
7
  6
BYLAYER
 10
23.4863705008
 20
31.7089715536
 11
18.4724739613
 21
31.7089715536
  0
LINE
  5
22D
100
AcDbEntity
  8
0
100
AcDbLine
 62
7
  6
BYLAYER
 10
13.4863705008
 20
31.7089715536
 11
8.4724739613
 21
31.7089715536
  0
LINE
  5
22E
100
AcDbEntity
  8
0
100
AcDbLine
 62
7
  6
BYLAYER
 10
57.7952082072
 20
31.9828248308
 11
52.1636362549
 21
31.9828248308
  0
LINE
  5
22F
100
AcDbEntity
  8
0
100
AcDbLine
 62
7
  6
BYLAYER
 10
47.7952082072
 20
31.9828248308
 11
42.1636362549
 21
31.9828248308
  0
LINE
  5
230
100
AcDbEntity
  8
0
100
AcDbLine
 62
7
  6
BYLAYER
 10
23.7952082072
 20
31.9828248308
 11
18.1636362549
 21
31.9828248308
  0
LINE
  5
231
100
AcDbEntity
  8
0
100
AcDbLine
 62
7
  6
BYLAYER
 10
13.7952082072
 20
31.9828248308
 11
8.1636362549
 21
31.9828248308
  0
LINE
  5
232
100
AcDbEntity
  8
0
100
AcDbLine
 62
7
  6
BYLAYER
 10
57.878810268
 20
32.5589715536
 11
57.8560094121
 21
32.5589715536
  0
LINE
  5
233
100
AcDbEntity
  8
0
100
AcDbLine
 62
7
  6
BYLAYER
 10
52.10283505
 20
32.5589715536
 11
52.0800341941
 21
32.5589715536
  0
LINE
  5
234
100
AcDbEntity
  8
0
100
AcDbLine
 62
7
  6
BYLAYER
 10
47.878810268
 20
32.5589715536
 11
47.8560094121
 21
32.5589715536
  0
LINE
  5
235
100
AcDbEntity
  8
0
100
AcDbLine
 62
7
  6
BYLAYER
 10
42.10283505
 20
32.5589715536
 11
42.0800341941
 21
32.5589715536
  0
LINE
  5
236
100
AcDbEntity
  8
0
100
AcDbLine
 62
7
  6
BYLAYER
 10
23.878810268
 20
32.5589715536
 11
23.8560094121
 21
32.5589715536
  0
LINE
  5
237
100
AcDbEntity
  8
0
100
AcDbLine
 62
7
  6
BYLAYER
 10
18.10283505
 20
32.5589715536
 11
18.0800341941
 21
32.5589715536
  0
LINE
  5
238
100
AcDbEntity
  8
0
100
AcDbLine
 62
7
  6
BYLAYER
 10
13.878810268
 20
32.5589715536
 11
13.8560094121
 21
32.5589715536
  0
LINE
  5
239
100
AcDbEntity
  8
0
100
AcDbLine
 62
7
  6
BYLAYER
 10
8.10283505
 20
32.5589715536
 11
8.0800341941
 21
32.5589715536
  0
LINE
  5
23A
100
AcDbEntity
  8
0
100
AcDbLine
 62
7
  6
BYLAYER
 10
19.4115382111
 20
36.7089715536
 11
19.4115382111
 21
33.7753626629
  0
LINE
  5
23B
100
AcDbEntity
  8
0
100
AcDbLine
 62
7
  6
BYLAYER
 10
19.4794222311
 20
33.8253626629
 11
19.4794222311
 21
61.2089715536
  0
LINE
  5
23C
100
AcDbEntity
  8
0
100
AcDbLine
 62
7
  6
BYLAYER
 10
19.9794222311
 20
33.3292237245
 11
19.9794222311
 21
34.1542237245
  0
LINE
  5
23D
100
AcDbEntity
  8
0
100
AcDbLine
 62
7
  6
BYLAYER
 10
19.9671031408
 20
33.2792237262
 11
19.9005336202
 21
33.2753627707
  0
LINE
  5
23E
100
AcDbEntity
  8
0
100
AcDbLine
 62
7
  6
BYLAYER
 10
19.9008420555
 20
33.2753626629
 11
46.0580022929
 21
33.2753626629
  0
LINE
  5
23F
100
AcDbEntity
  8
0
100
AcDbLine
 62
7
  6
BYLAYER
 10
19.967103142
 20
33.2792237263
 11
45.9917412749
 21
33.279223726
  0
LINE
  5
240
100
AcDbEntity
  8
0
100
AcDbLine
 62
7
  6
BYLAYER
 10
50.2294222311
 20
33.4089715536
 11
46.3876640885
 21
33.4089715536
  0
LINE
  5
241
100
AcDbEntity
  8
0
100
AcDbLine
 62
7
  6
BYLAYER
 10
19.5711103959
 20
33.4089715536
 11
15.7294222311
 21
33.4089715536
  0
LINE
  5
242
100
AcDbEntity
  8
0
100
AcDbLine
 62
7
  6
BYLAYER
 10
6.9794222311
 20
33.7089715536
 11
19.4650605767
 21
33.7089715536
  0
LINE
  5
243
100
AcDbEntity
  8
0
100
AcDbLine
 62
7
  6
BYLAYER
 10
46.4937499587
 20
33.7089715536
 11
58.9794222311
 21
33.7089715536
  0
LINE
  5
244
100
AcDbEntity
  8
0
100
AcDbLine
 62
7
  6
BYLAYER
 10
19.9794222311
 20
34.1542237245
 11
45.9794222311
 21
34.1542237245
  0
LINE
  5
245
100
AcDbEntity
  8
0
100
AcDbLine
 62
7
  6
BYLAYER
 10
46.4755611694
 20
34.6503626629
 11
19.4832832927
 21
34.6503626629
  0
LINE
  5
246
100
AcDbEntity
  8
0
100
AcDbLine
 62
7
  6
BYLAYER
 10
45.9917412738
 20
33.2792237262
 11
46.0583146128
 21
33.2753627734
  0
LINE
  5
247
100
AcDbEntity
  8
0
100
AcDbLine
 62
7
  6
BYLAYER
 10
20.5646076653
 20
38.3560191663
 11
21.5542906334
 21
42.0495662866
  0
LINE
  5
248
100
AcDbEntity
  8
0
100
AcDbLine
 62
7
  6
BYLAYER
 10
6.9794222311
 20
35.2089715536
 11
19.4115382111
 21
35.2089715536
  0
LINE
  5
249
100
AcDbEntity
  8
0
100
AcDbLine
 62
7
  6
BYLAYER
 10
46.5473062511
 20
35.2089715536
 11
58.9794222311
 21
35.2089715536
  0
LINE
  5
24A
100
AcDbEntity
  8
0
100
AcDbLine
 62
7
  6
BYLAYER
 10
53.6794222311
 20
36.4089715536
 11
46.5473062511
 21
36.4089715536
  0
LINE
  5
24B
100
AcDbEntity
  8
0
100
AcDbLine
 62
7
  6
BYLAYER
 10
19.4115382111
 20
36.4089715536
 11
12.2794222311
 21
36.4089715536
  0
LINE
  5
24C
100
AcDbEntity
  8
0
100
AcDbLine
 62
7
  6
BYLAYER
 10
7.7794222311
 20
36.4089715536
 11
9.6794222311
 21
36.4089715536
  0
LINE
  5
24D
100
AcDbEntity
  8
0
100
AcDbLine
 62
7
  6
BYLAYER
 10
56.2794222311
 20
36.4089715536
 11
58.1794222311
 21
36.4089715536
  0
LINE
  5
24E
100
AcDbEntity
  8
0
100
AcDbLine
 62
7
  6
BYLAYER
 10
19.411538211
 20
36.7089715536
 11
6.9794222311
 21
36.7089715536
  0
LINE
  5
24F
100
AcDbEntity
  8
0
100
AcDbLine
 62
7
  6
BYLAYER
 10
46.5473062511
 20
36.7089715536
 11
58.9794222311
 21
36.7089715536
  0
LINE
  5
250
100
AcDbEntity
  8
0
100
AcDbLine
 62
7
  6
BYLAYER
 10
23.878810268
 20
32.5589715536
 11
23.9414863687
 21
33.2753626629
  0
LINE
  5
251
100
AcDbEntity
  8
0
100
AcDbLine
 62
7
  6
BYLAYER
 10
27.320016964
 20
36.283839956
 11
23.6264698438
 21
35.2941569879
  0
LINE
  5
252
100
AcDbEntity
  8
0
100
AcDbLine
 62
7
  6
BYLAYER
 10
42.3323746183
 20
35.2941569879
 11
38.6388274981
 21
36.283839956
  0
LINE
  5
253
100
AcDbEntity
  8
0
100
AcDbLine
 62
7
  6
BYLAYER
 10
21.5542906334
 20
53.3683768206
 11
20.5646076653
 21
57.0619239409
  0
LINE
  5
254
100
AcDbEntity
  8
0
100
AcDbLine
 62
7
  6
BYLAYER
 10
28.4794222311
 20
61.7089715536
 11
28.4794222311
 21
61.2089715536
  0
LINE
  5
255
100
AcDbEntity
  8
0
100
AcDbLine
 62
7
  6
BYLAYER
 10
25.3996475302
 20
42.2505171963
 11
27.4466261043
 21
44.2974957704
  0
LINE
  5
256
100
AcDbEntity
  8
0
100
AcDbLine
 62
7
  6
BYLAYER
 10
36.3908980143
 20
53.2417676804
 11
38.452611044
 21
55.3034807101
  0
LINE
  5
257
100
AcDbEntity
  8
0
100
AcDbLine
 62
7
  6
BYLAYER
 10
38.452611044
 20
40.1144623971
 11
36.3908980143
 21
42.1761754268
  0
LINE
  5
258
100
AcDbEntity
  8
0
100
AcDbLine
 62
7
  6
BYLAYER
 10
27.4466261043
 20
51.1204473368
 11
25.3996475302
 21
53.1674259109
  0
LINE
  5
259
100
AcDbEntity
  8
0
100
AcDbLine
 62
7
  6
BYLAYER
 10
40.5591969319
 20
53.1674259109
 11
38.5122183578
 21
51.1204473368
  0
LINE
  5
25A
100
AcDbEntity
  8
0
100
AcDbLine
 62
7
  6
BYLAYER
 10
29.5679464478
 20
42.1761754268
 11
27.5062334181
 21
40.1144623971
  0
LINE
  5
25B
100
AcDbEntity
  8
0
100
AcDbLine
 62
7
  6
BYLAYER
 10
27.5062334181
 20
55.3034807101
 11
29.5679464478
 21
53.2417676804
  0
LINE
  5
25C
100
AcDbEntity
  8
0
100
AcDbLine
 62
7
  6
BYLAYER
 10
38.5122183578
 20
44.2974957704
 11
40.5591969319
 21
42.2505171963
  0
LINE
  5
25D
100
AcDbEntity
  8
0
100
AcDbLine
 62
7
  6
BYLAYER
 10
37.4794222311
 20
61.7089715536
 11
37.4794222311
 21
61.2089715536
  0
LINE
  5
25E
100
AcDbEntity
  8
0
100
AcDbLine
 62
7
  6
BYLAYER
 10
42.0800341941
 20
32.5589715536
 11
42.0173580934
 21
33.2753626629
  0
LINE
  5
25F
100
AcDbEntity
  8
0
100
AcDbLine
 62
7
  6
BYLAYER
 10
45.3942367968
 20
57.0619239409
 11
44.4045538287
 21
53.3683768206
  0
LINE
  5
260
100
AcDbEntity
  8
0
100
AcDbLine
 62
7
  6
BYLAYER
 10
6.9794222311
 20
56.2089715536
 11
19.4794222311
 21
56.2089715536
  0
LINE
  5
261
100
AcDbEntity
  8
0
100
AcDbLine
 62
7
  6
BYLAYER
 10
46.4794222311
 20
56.2089715536
 11
58.9794222311
 21
56.2089715536
  0
LINE
  5
262
100
AcDbEntity
  8
0
100
AcDbLine
 62
7
  6
BYLAYER
 10
44.4045538287
 20
42.0495662866
 11
45.3942367968
 21
38.3560191663
  0
LINE
  5
263
100
AcDbEntity
  8
0
100
AcDbLine
 62
7
  6
BYLAYER
 10
38.6388274981
 20
59.1341031513
 11
42.3323746183
 21
60.1237861193
  0
LINE
  5
264
100
AcDbEntity
  8
0
100
AcDbLine
 62
7
  6
BYLAYER
 10
23.6264698438
 20
60.1237861193
 11
27.320016964
 21
59.1341031513
  0
LINE
  5
265
100
AcDbEntity
  8
0
100
AcDbLine
 62
7
  6
BYLAYER
 10
45.9794222311
 20
34.1542237245
 11
45.9794222311
 21
33.3292237245
  0
LINE
  5
266
100
AcDbEntity
  8
0
100
AcDbLine
 62
7
  6
BYLAYER
 10
46.4794222311
 20
61.2089715536
 11
46.4794222311
 21
33.8253626629
  0
LINE
  5
267
100
AcDbEntity
  8
0
100
AcDbLine
 62
7
  6
BYLAYER
 10
46.5473062511
 20
33.7753626629
 11
46.5473062511
 21
36.7089715536
  0
LINE
  5
268
100
AcDbEntity
  8
0
100
AcDbLine
 62
7
  6
BYLAYER
 10
47.048262134
 20
33.7089715536
 11
47.048262134
 21
35.2089715536
  0
LINE
  5
269
100
AcDbEntity
  8
0
100
AcDbLine
 62
7
  6
BYLAYER
 10
48.4794222311
 20
61.7089715536
 11
48.4794222311
 21
61.2089715536
  0
LINE
  5
26A
100
AcDbEntity
  8
0
100
AcDbLine
 62
7
  6
BYLAYER
 10
47.878810268
 20
32.5589715536
 11
47.953175632
 21
33.4089715536
  0
LINE
  5
26B
100
AcDbEntity
  8
0
100
AcDbLine
 62
7
  6
BYLAYER
 10
6.9794222311
 20
61.2089715536
 11
58.9794222311
 21
61.2089715536
  0
LINE
  5
26C
100
AcDbEntity
  8
0
100
AcDbLine
 62
7
  6
BYLAYER
 10
7.4794222311
 20
61.7089715536
 11
17.4794222311
 21
61.7089715536
  0
LINE
  5
26D
100
AcDbEntity
  8
0
100
AcDbLine
 62
7
  6
BYLAYER
 10
28.4794222311
 20
61.7089715536
 11
37.4794222311
 21
61.7089715536
  0
LINE
  5
26E
100
AcDbEntity
  8
0
100
AcDbLine
 62
7
  6
BYLAYER
 10
48.4794222311
 20
61.7089715536
 11
58.4794222311
 21
61.7089715536
  0
LINE
  5
26F
100
AcDbEntity
  8
0
100
AcDbLine
 62
7
  6
BYLAYER
 10
52.0800341941
 20
32.5589715536
 11
51.9794222311
 21
33.7089715536
  0
LINE
  5
270
100
AcDbEntity
  8
0
100
AcDbLine
 62
7
  6
BYLAYER
 10
50.2294222311
 20
33.4089715536
 11
50.2294222311
 21
33.7089715536
  0
LINE
  5
271
100
AcDbEntity
  8
0
100
AcDbLine
 62
7
  6
BYLAYER
 10
50.8918878548
 20
36.7089715536
 11
50.8918878548
 21
36.4089715536
  0
LINE
  5
272
100
AcDbEntity
  8
0
100
AcDbLine
 62
7
  6
BYLAYER
 10
52.271658167
 20
36.4089715536
 11
52.271658167
 21
36.7089715536
  0
LINE
  5
273
100
AcDbEntity
  8
0
100
AcDbLine
 62
7
  6
BYLAYER
 10
52.4794222311
 20
33.7089715536
 11
52.4794222311
 21
35.2089715536
  0
LINE
  5
274
100
AcDbEntity
  8
0
100
AcDbLine
 62
7
  6
BYLAYER
 10
52.4794222311
 20
36.7089715536
 11
52.4794222311
 21
56.2089715536
  0
LINE
  5
275
100
AcDbEntity
  8
0
100
AcDbLine
 62
7
  6
BYLAYER
 10
53.6794222311
 20
35.2089715536
 11
53.6794222311
 21
36.7089715536
  0
LINE
  5
276
100
AcDbEntity
  8
0
100
AcDbLine
 62
7
  6
BYLAYER
 10
54.9794222311
 20
61.2089715536
 11
54.9794222311
 21
36.7089715536
  0
LINE
  5
277
100
AcDbEntity
  8
0
100
AcDbLine
 62
7
  6
BYLAYER
 10
54.9794222311
 20
35.2089715536
 11
54.9794222311
 21
33.7089715536
  0
LINE
  5
278
100
AcDbEntity
  8
0
100
AcDbLine
 62
7
  6
BYLAYER
 10
56.2794222311
 20
35.2089715536
 11
56.2794222311
 21
36.7089715536
  0
LINE
  5
279
100
AcDbEntity
  8
0
100
AcDbLine
 62
7
  6
BYLAYER
 10
56.3794222311
 20
36.7089715536
 11
56.3794222311
 21
36.4089715536
  0
LINE
  5
27A
100
AcDbEntity
  8
0
100
AcDbLine
 62
7
  6
BYLAYER
 10
58.1794222311
 20
36.4089715536
 11
58.1794222311
 21
36.7089715536
  0
LINE
  5
27B
100
AcDbEntity
  8
0
100
AcDbLine
 62
7
  6
BYLAYER
 10
58.4794222311
 20
61.7089715536
 11
58.4794222311
 21
61.2089715536
  0
LINE
  5
27C
100
AcDbEntity
  8
0
100
AcDbLine
 62
7
  6
BYLAYER
 10
58.9794222311
 20
33.7089715536
 11
58.9794222311
 21
35.2089715536
  0
LINE
  5
27D
100
AcDbEntity
  8
0
100
AcDbLine
 62
7
  6
BYLAYER
 10
58.9794222311
 20
36.7089715536
 11
58.9794222311
 21
61.2089715536
  0
LINE
  5
27E
100
AcDbEntity
  8
0
100
AcDbLine
 62
7
  6
BYLAYER
 10
57.878810268
 20
32.5589715536
 11
57.9794222311
 21
33.7089715536
  0
ARC
  5
27F
100
AcDbEntity
  8
0
100
AcDbCircle
 62
7
  6
BYLAYER
 10
22.7061103768
 20
33.7753622418
 40
3.2945721658
100
AcDbArc
 50
179.9999823062
 51
180.4139144579
  0
ARC
  5
280
100
AcDbEntity
  8
0
100
AcDbCircle
 62
7
  6
BYLAYER
 10
22.6870662416
 20
33.7751830004
 40
3.2755272329
100
AcDbArc
 50
180.4131857404
 51
181.2420700986
  0
ARC
  5
281
100
AcDbEntity
  8
0
100
AcDbCircle
 62
7
  6
BYLAYER
 10
22.9794222311
 20
37.7089715536
 40
2.5
100
AcDbArc
 50
165.0000000009
 51
284.9999999995
  0
CIRCLE
  5
282
100
AcDbEntity
  8
0
100
AcDbCircle
 62
7
  6
BYLAYER
 10
22.9794222311
 20
37.7089715536
 40
1.25
  0
ARC
  5
283
100
AcDbEntity
  8
0
100
AcDbCircle
 62
7
  6
BYLAYER
 10
32.9794222311
 20
47.7089715536
 40
12.75
100
AcDbArc
 50
153.6486208965
 51
206.3513791035
  0
ARC
  5
284
100
AcDbEntity
  8
0
100
AcDbCircle
 62
7
  6
BYLAYER
 10
32.9794222311
 20
47.7089715536
 40
12.75
100
AcDbArc
 50
243.6486208965
 51
296.3513791035
  0
ARC
  5
285
100
AcDbEntity
  8
0
100
AcDbCircle
 62
7
  6
BYLAYER
 10
32.9794222311
 20
47.7089715536
 40
12.75
100
AcDbArc
 50
333.6486208965
 51
26.3513791035
  0
ARC
  5
286
100
AcDbEntity
  8
0
100
AcDbCircle
 62
7
  6
BYLAYER
 10
32.9794222311
 20
47.7089715536
 40
12.75
100
AcDbArc
 50
63.6486208965
 51
116.3513791035
  0
CIRCLE
  5
287
100
AcDbEntity
  8
0
100
AcDbCircle
 62
7
  6
BYLAYER
 10
32.9794222311
 20
47.7089715536
 40
10.4
  0
CIRCLE
  5
288
100
AcDbEntity
  8
0
100
AcDbCircle
 62
7
  6
BYLAYER
 10
32.9794222311
 20
47.7089715536
 40
9.5
  0
ARC
  5
289
100
AcDbEntity
  8
0
100
AcDbCircle
 62
7
  6
BYLAYER
 10
32.9794222311
 20
47.7089715536
 40
7.0
100
AcDbArc
 50
147.3736251162
 51
212.6263748838
  0
ARC
  5
28A
100
AcDbEntity
  8
0
100
AcDbCircle
 62
7
  6
BYLAYER
 10
32.9794222311
 20
47.7089715536
 40
7.0
100
AcDbArc
 50
327.3736251162
 51
32.6263748838
  0
ARC
  5
28B
100
AcDbEntity
  8
0
100
AcDbCircle
 62
7
  6
BYLAYER
 10
32.9794222311
 20
47.7089715536
 40
7.0
100
AcDbArc
 50
57.3736251162
 51
122.6263748838
  0
ARC
  5
28C
100
AcDbEntity
  8
0
100
AcDbCircle
 62
7
  6
BYLAYER
 10
32.9794222311
 20
47.7089715536
 40
7.0
100
AcDbArc
 50
237.3736251162
 51
302.6263748838
  0
ARC
  5
28D
100
AcDbEntity
  8
0
100
AcDbCircle
 62
7
  6
BYLAYER
 10
32.9794222311
 20
47.7089715536
 40
6.5
100
AcDbArc
 50
58.3423637971
 51
121.6576362029
  0
ARC
  5
28E
100
AcDbEntity
  8
0
100
AcDbCircle
 62
7
  6
BYLAYER
 10
32.9794222311
 20
47.7089715536
 40
6.5
100
AcDbArc
 50
328.3423637971
 51
31.6576362029
  0
ARC
  5
28F
100
AcDbEntity
  8
0
100
AcDbCircle
 62
7
  6
BYLAYER
 10
32.9794222311
 20
47.7089715536
 40
6.5
100
AcDbArc
 50
148.3423637971
 51
211.6576362029
  0
ARC
  5
290
100
AcDbEntity
  8
0
100
AcDbCircle
 62
7
  6
BYLAYER
 10
32.9794222311
 20
47.7089715536
 40
6.5
100
AcDbArc
 50
238.3423637971
 51
301.6576362029
  0
CIRCLE
  5
291
100
AcDbEntity
  8
0
100
AcDbCircle
 62
7
  6
BYLAYER
 10
32.9794222311
 20
47.7089715536
 40
3.5
  0
ARC
  5
292
100
AcDbEntity
  8
0
100
AcDbCircle
 62
7
  6
BYLAYER
 10
22.9794222311
 20
57.7089715536
 40
2.5
100
AcDbArc
 50
75.0000000003
 51
194.9999999986
  0
CIRCLE
  5
293
100
AcDbEntity
  8
0
100
AcDbCircle
 62
7
  6
BYLAYER
 10
22.9794222311
 20
57.7089715536
 40
1.25
  0
ARC
  5
294
100
AcDbEntity
  8
0
100
AcDbCircle
 62
7
  6
BYLAYER
 10
43.2521120046
 20
33.7753952529
 40
3.2951943565
100
AcDbArc
 50
359.5856393306
 51
359.9994333358
  0
ARC
  5
295
100
AcDbEntity
  8
0
100
AcDbCircle
 62
7
  6
BYLAYER
 10
43.2721233371
 20
33.7751597778
 40
3.2751818456
100
AcDbArc
 50
358.7581621953
 51
359.587226888
  0
ARC
  5
296
100
AcDbEntity
  8
0
100
AcDbCircle
 62
7
  6
BYLAYER
 10
42.9794222311
 20
37.7089715536
 40
2.5
100
AcDbArc
 50
255.0000000003
 51
14.9999999986
  0
CIRCLE
  5
297
100
AcDbEntity
  8
0
100
AcDbCircle
 62
7
  6
BYLAYER
 10
42.9794222311
 20
37.7089715536
 40
1.25
  0
ARC
  5
298
100
AcDbEntity
  8
0
100
AcDbCircle
 62
7
  6
BYLAYER
 10
46.0824993766
 20
33.3292928054
 40
0.1030771687
100
AcDbArc
 50
180.0383988107
 51
189.3491744729
  0
ARC
  5
299
100
AcDbEntity
  8
0
100
AcDbCircle
 62
7
  6
BYLAYER
 10
42.9794222311
 20
57.7089715536
 40
2.5
100
AcDbArc
 50
345.0000000009
 51
104.9999999995
  0
CIRCLE
  5
29A
100
AcDbEntity
  8
0
100
AcDbCircle
 62
7
  6
BYLAYER
 10
42.9794222311
 20
57.7089715536
 40
1.25
  0
SPLINE
  5
29B
100
AcDbEntity
  8
0
100
AcDbSpline
 62
7
  6
BYLAYER
 70
0
 71
3
 72
15
 73
11
 74
0
 42
0.0000001
 43
0.0000001
 44
0.0000000001
 40
0.0
 40
0.0
 40
0.0
 40
0.0
 40
0.1253853667
 40
0.2508027547
 40
0.3760376287
 40
0.501137886
 40
0.6260696612
 40
0.7508236457
 40
0.8755055638
 40
1.0
 40
1.0
 40
1.0
 40
1.0
 10
23.4863705008
 20
31.7089715536
 30
0.0
 10
23.5052264321
 20
31.7089715536
 30
0.0
 10
23.5430303759
 20
31.7124331784
 30
0.0
 10
23.5977826216
 20
31.7277093816
 30
0.0
 10
23.6488785985
 20
31.7525582681
 30
0.0
 10
23.6946286345
 20
31.7861226324
 30
0.0
 10
23.7335173752
 20
31.827348024
 30
0.0
 10
23.7642372541
 20
31.8749106966
 30
0.0
 10
23.7856518006
 20
31.9272409763
 30
0.0
 10
23.7932084256
 20
31.9642099905
 30
0.0
 10
23.7952082072
 20
31.9828248308
 30
0.0
  0
SPLINE
  5
29C
100
AcDbEntity
  8
0
100
AcDbSpline
 62
7
  6
BYLAYER
 70
0
 71
3
 72
15
 73
11
 74
0
 42
0.0000001
 43
0.0000001
 44
0.0000000001
 40
0.0
 40
0.0
 40
0.0
 40
0.0
 40
0.1244940678
 40
0.2491744821
 40
0.3739269269
 40
0.4988574271
 40
0.6239568399
 40
0.7491917488
 40
0.8746123736
 40
1.0
 40
1.0
 40
1.0
 40
1.0
 10
18.1636362549
 20
31.9828248308
 30
0.0
 10
18.1656360305
 20
31.9642100459
 30
0.0
 10
18.173192553
 20
31.927241303
 30
0.0
 10
18.1946068196
 20
31.8749114697
 30
0.0
 10
18.2253261999
 20
31.8273492651
 30
0.0
 10
18.2642142971
 20
31.7861240406
 30
0.0
 10
18.3099637783
 20
31.7525594794
 30
0.0
 10
18.3610598731
 20
31.727709927
 30
0.0
 10
18.4158129613
 20
31.71243365
 30
0.0
 10
18.4536176905
 20
31.7089715536
 30
0.0
 10
18.4724739613
 20
31.7089715536
 30
0.0
  0
SPLINE
  5
29D
100
AcDbEntity
  8
0
100
AcDbSpline
 62
7
  6
BYLAYER
 70
0
 71
3
 72
15
 73
11
 74
0
 42
0.0000001
 43
0.0000001
 44
0.0000000001
 40
0.0
 40
0.0
 40
0.0
 40
0.0
 40
0.1253853667
 40
0.2508027547
 40
0.3760376287
 40
0.501137886
 40
0.6260696612
 40
0.7508236457
 40
0.8755055638
 40
1.0
 40
1.0
 40
1.0
 40
1.0
 10
47.4863705008
 20
31.7089715536
 30
0.0
 10
47.5052264321
 20
31.7089715536
 30
0.0
 10
47.5430303759
 20
31.7124331784
 30
0.0
 10
47.5977826216
 20
31.7277093816
 30
0.0
 10
47.6488785985
 20
31.7525582681
 30
0.0
 10
47.6946286345
 20
31.7861226324
 30
0.0
 10
47.7335173752
 20
31.827348024
 30
0.0
 10
47.7642372541
 20
31.8749106966
 30
0.0
 10
47.7856518006
 20
31.9272409763
 30
0.0
 10
47.7932084256
 20
31.9642099905
 30
0.0
 10
47.7952082072
 20
31.9828248308
 30
0.0
  0
SPLINE
  5
29E
100
AcDbEntity
  8
0
100
AcDbSpline
 62
7
  6
BYLAYER
 70
0
 71
3
 72
15
 73
11
 74
0
 42
0.0000001
 43
0.0000001
 44
0.0000000001
 40
0.0
 40
0.0
 40
0.0
 40
0.0
 40
0.1244940678
 40
0.2491744821
 40
0.3739269269
 40
0.4988574271
 40
0.6239568399
 40
0.7491917488
 40
0.8746123736
 40
1.0
 40
1.0
 40
1.0
 40
1.0
 10
42.1636362549
 20
31.9828248308
 30
0.0
 10
42.1656360305
 20
31.9642100459
 30
0.0
 10
42.173192553
 20
31.927241303
 30
0.0
 10
42.1946068196
 20
31.8749114697
 30
0.0
 10
42.2253261999
 20
31.8273492651
 30
0.0
 10
42.2642142971
 20
31.7861240406
 30
0.0
 10
42.3099637783
 20
31.7525594794
 30
0.0
 10
42.3610598731
 20
31.727709927
 30
0.0
 10
42.4158129613
 20
31.71243365
 30
0.0
 10
42.4536176905
 20
31.7089715536
 30
0.0
 10
42.4724739613
 20
31.7089715536
 30
0.0
  0
SPLINE
  5
29F
100
AcDbEntity
  8
0
100
AcDbSpline
 62
7
  6
BYLAYER
 70
0
 71
3
 72
15
 73
11
 74
0
 42
0.0000001
 43
0.0000001
 44
0.0000000001
 40
0.0
 40
0.0
 40
0.0
 40
0.0
 40
0.1253853667
 40
0.2508027547
 40
0.3760376287
 40
0.501137886
 40
0.6260696612
 40
0.7508236457
 40
0.8755055638
 40
1.0
 40
1.0
 40
1.0
 40
1.0
 10
57.4863705008
 20
31.7089715536
 30
0.0
 10
57.5052264321
 20
31.7089715536
 30
0.0
 10
57.5430303759
 20
31.7124331784
 30
0.0
 10
57.5977826216
 20
31.7277093816
 30
0.0
 10
57.6488785985
 20
31.7525582681
 30
0.0
 10
57.6946286345
 20
31.7861226324
 30
0.0
 10
57.7335173752
 20
31.827348024
 30
0.0
 10
57.7642372541
 20
31.8749106966
 30
0.0
 10
57.7856518006
 20
31.9272409763
 30
0.0
 10
57.7932084256
 20
31.9642099905
 30
0.0
 10
57.7952082072
 20
31.9828248308
 30
0.0
  0
SPLINE
  5
2A0
100
AcDbEntity
  8
0
100
AcDbSpline
 62
7
  6
BYLAYER
 70
0
 71
3
 72
15
 73
11
 74
0
 42
0.0000001
 43
0.0000001
 44
0.0000000001
 40
0.0
 40
0.0
 40
0.0
 40
0.0
 40
0.1244940678
 40
0.2491744821
 40
0.3739269269
 40
0.4988574271
 40
0.6239568399
 40
0.7491917488
 40
0.8746123736
 40
1.0
 40
1.0
 40
1.0
 40
1.0
 10
52.1636362549
 20
31.9828248308
 30
0.0
 10
52.1656360305
 20
31.9642100459
 30
0.0
 10
52.173192553
 20
31.927241303
 30
0.0
 10
52.1946068196
 20
31.8749114697
 30
0.0
 10
52.2253261999
 20
31.8273492651
 30
0.0
 10
52.2642142971
 20
31.7861240406
 30
0.0
 10
52.3099637783
 20
31.7525594794
 30
0.0
 10
52.3610598731
 20
31.727709927
 30
0.0
 10
52.4158129613
 20
31.71243365
 30
0.0
 10
52.4536176905
 20
31.7089715536
 30
0.0
 10
52.4724739613
 20
31.7089715536
 30
0.0
  0
SPLINE
  5
2A1
100
AcDbEntity
  8
0
100
AcDbSpline
 62
7
  6
BYLAYER
 70
0
 71
3
 72
15
 73
11
 74
0
 42
0.0000001
 43
0.0000001
 44
0.0000000001
 40
0.0
 40
0.0
 40
0.0
 40
0.0
 40
0.1253853667
 40
0.2508027547
 40
0.3760376287
 40
0.501137886
 40
0.6260696612
 40
0.7508236457
 40
0.8755055638
 40
1.0
 40
1.0
 40
1.0
 40
1.0
 10
13.4863705008
 20
31.7089715536
 30
0.0
 10
13.5052264321
 20
31.7089715536
 30
0.0
 10
13.5430303759
 20
31.7124331784
 30
0.0
 10
13.5977826216
 20
31.7277093816
 30
0.0
 10
13.6488785985
 20
31.7525582681
 30
0.0
 10
13.6946286345
 20
31.7861226324
 30
0.0
 10
13.7335173752
 20
31.827348024
 30
0.0
 10
13.7642372541
 20
31.8749106966
 30
0.0
 10
13.7856518006
 20
31.9272409763
 30
0.0
 10
13.7932084256
 20
31.9642099905
 30
0.0
 10
13.7952082072
 20
31.9828248308
 30
0.0
  0
SPLINE
  5
2A2
100
AcDbEntity
  8
0
100
AcDbSpline
 62
7
  6
BYLAYER
 70
0
 71
3
 72
15
 73
11
 74
0
 42
0.0000001
 43
0.0000001
 44
0.0000000001
 40
0.0
 40
0.0
 40
0.0
 40
0.0
 40
0.1244940678
 40
0.2491744821
 40
0.3739269269
 40
0.4988574271
 40
0.6239568399
 40
0.7491917488
 40
0.8746123736
 40
1.0
 40
1.0
 40
1.0
 40
1.0
 10
8.1636362549
 20
31.9828248308
 30
0.0
 10
8.1656360305
 20
31.9642100459
 30
0.0
 10
8.173192553
 20
31.927241303
 30
0.0
 10
8.1946068196
 20
31.8749114697
 30
0.0
 10
8.2253261999
 20
31.8273492651
 30
0.0
 10
8.2642142971
 20
31.7861240406
 30
0.0
 10
8.3099637783
 20
31.7525594794
 30
0.0
 10
8.3610598731
 20
31.727709927
 30
0.0
 10
8.4158129613
 20
31.71243365
 30
0.0
 10
8.4536176905
 20
31.7089715536
 30
0.0
 10
8.4724739613
 20
31.7089715536
 30
0.0
  0
SPLINE
  5
2A3
100
AcDbEntity
  8
0
100
AcDbSpline
 62
7
  6
BYLAYER
 70
0
 71
3
 72
13
 73
9
 74
0
 42
0.0000001
 43
0.0000001
 44
0.0000000001
 40
0.0
 40
0.0
 40
0.0
 40
0.0
 40
0.2247417393
 40
0.4569919012
 40
0.5802440438
 40
0.7107430596
 40
0.8507116122
 40
1.0
 40
1.0
 40
1.0
 40
1.0
 10
46.0580050503
 20
33.2753577447
 30
0.0
 10
46.1118403446
 20
33.2753570013
 30
0.0
 10
46.2219459021
 20
33.2910079975
 30
0.0
 10
46.3495442672
 20
33.3527124006
 30
0.0
 10
46.4376268743
 20
33.4298269253
 30
0.0
 10
46.4948404037
 20
33.5058020352
 30
0.0
 10
46.5351979578
 20
33.5989793903
 30
0.0
 10
46.5457602465
 20
33.6684259611
 30
0.0
 10
46.5465359231
 20
33.7041785252
 30
0.0
  0
SPLINE
  5
2A4
100
AcDbEntity
  8
0
100
AcDbSpline
 62
7
  6
BYLAYER
 70
0
 71
3
 72
13
 73
9
 74
0
 42
0.0000001
 43
0.0000001
 44
0.0000000001
 40
0.0
 40
0.0
 40
0.0
 40
0.0
 40
0.224766384
 40
0.4569811031
 40
0.58027157
 40
0.7107558012
 40
0.8507177168
 40
1.0
 40
1.0
 40
1.0
 40
1.0
 10
19.9008428545
 20
33.2753591752
 30
0.0
 10
19.8469998939
 20
33.2753599187
 30
0.0
 10
19.7368745517
 20
33.290966196
 30
0.0
 10
19.6093282579
 20
33.3527738907
 30
0.0
 10
19.5211558143
 20
33.4297768658
 30
0.0
 10
19.463927081
 20
33.5057722301
 30
0.0
 10
19.4237251081
 20
33.5990028279
 30
0.0
 10
19.413083771
 20
33.6684286505
 30
0.0
 10
19.4123081651
 20
33.7041809246
 30
0.0
  0
SPLINE
  5
2A5
100
AcDbEntity
  8
0
100
AcDbSpline
 62
7
  6
BYLAYER
 70
0
 71
3
 72
9
 73
5
 74
0
 42
0.0000001
 43
0.0000001
 44
0.0000000001
 40
0.0
 40
0.0
 40
0.0
 40
0.0
 40
0.4699768161
 40
1.0
 40
1.0
 40
1.0
 40
1.0
 10
46.4794224757
 20
33.8253626209
 30
0.0
 10
46.4794224883
 20
33.8112208871
 30
0.0
 10
46.4855681178
 20
33.7809550931
 30
0.0
 10
46.5013558069
 20
33.7548010504
 30
0.0
 10
46.5110103825
 20
33.7421067492
 30
0.0
  0
SPLINE
  5
2A6
100
AcDbEntity
  8
0
100
AcDbSpline
 62
7
  6
BYLAYER
 70
0
 71
3
 72
9
 73
5
 74
0
 42
0.0000001
 43
0.0000001
 44
0.0000000001
 40
0.0
 40
0.0
 40
0.0
 40
0.0
 40
0.2344720407
 40
1.0
 40
1.0
 40
1.0
 40
1.0
 10
46.5110103825
 20
33.7421067492
 30
0.0
 10
46.5134712998
 20
33.7388710167
 30
0.0
 10
46.5243591439
 20
33.7253694731
 30
0.0
 10
46.5366595366
 20
33.7130439657
 30
0.0
 10
46.5465359764
 20
33.7041773457
 30
0.0
  0
SPLINE
  5
2A7
100
AcDbEntity
  8
0
100
AcDbSpline
 62
7
  6
BYLAYER
 70
0
 71
3
 72
9
 73
5
 74
0
 42
0.0000001
 43
0.0000001
 44
0.0000000001
 40
0.0
 40
0.0
 40
0.0
 40
0.0
 40
0.2845226795
 40
1.0
 40
1.0
 40
1.0
 40
1.0
 10
19.4123079909
 20
33.7041778272
 30
0.0
 10
19.4194222643
 20
33.7105648311
 30
0.0
 10
19.4434576792
 20
33.7339215309
 30
0.0
 10
19.4636212731
 20
33.7622751992
 30
0.0
 10
19.4719443021
 20
33.7848304221
 30
0.0
  0
SPLINE
  5
2A8
100
AcDbEntity
  8
0
100
AcDbSpline
 62
7
  6
BYLAYER
 70
0
 71
3
 72
9
 73
5
 74
0
 42
0.0000001
 43
0.0000001
 44
0.0000000001
 40
0.0
 40
0.0
 40
0.0
 40
0.0
 40
0.2574585863
 40
1.0
 40
1.0
 40
1.0
 40
1.0
 10
19.4719443021
 20
33.7848304221
 30
0.0
 10
19.4731724214
 20
33.788158598
 30
0.0
 10
19.4774291848
 20
33.8012664713
 30
0.0
 10
19.4794213403
 20
33.8151315771
 30
0.0
 10
19.479421661
 20
33.8253631043
 30
0.0
  0
SPLINE
  5
2A9
100
AcDbEntity
  8
0
100
AcDbSpline
 62
7
  6
BYLAYER
 70
0
 71
3
 72
13
 73
9
 74
0
 42
0.0000001
 43
0.0000001
 44
0.0000000001
 40
0.0
 40
0.0
 40
0.0
 40
0.0
 40
0.2403375429
 40
0.3695993076
 40
0.50125599
 40
0.6327009817
 40
0.761388538
 40
1.0
 40
1.0
 40
1.0
 40
1.0
 10
19.9794222311
 20
33.3292237931
 30
0.0
 10
19.9169838775
 20
33.3292237166
 30
0.0
 10
19.819679923
 20
33.3474983105
 30
0.0
 10
19.7035514837
 20
33.4077815939
 30
0.0
 10
19.6233069867
 20
33.4718779259
 30
0.0
 10
19.558670298
 20
33.5515016321
 30
0.0
 10
19.4979145619
 20
33.6666532689
 30
0.0
 10
19.4794216624
 20
33.7633727358
 30
0.0
 10
19.479421661
 20
33.8253626631
 30
0.0
  0
SPLINE
  5
2AA
100
AcDbEntity
  8
0
100
AcDbSpline
 62
7
  6
BYLAYER
 70
0
 71
3
 72
12
 73
8
 74
0
 42
0.0000001
 43
0.0000001
 44
0.0000000001
 40
0.0
 40
0.0
 40
0.0
 40
0.0
 40
0.2164689841
 40
0.4502946133
 40
0.5769987519
 40
0.7114278714
 40
1.0
 40
1.0
 40
1.0
 40
1.0
 10
19.9794222311
 20
34.1542237245
 30
0.0
 10
19.9256892612
 20
34.1608884792
 30
0.0
 10
19.8155811924
 20
34.1925905019
 30
0.0
 10
19.692816652
 20
34.2725878893
 30
0.0
 10
19.6064610471
 20
34.3619878803
 30
0.0
 10
19.5278795679
 20
34.4752806727
 30
0.0
 10
19.4921679948
 20
34.5787319046
 30
0.0
 10
19.4832832927
 20
34.6503626629
 30
0.0
  0
SPLINE
  5
2AB
100
AcDbEntity
  8
0
100
AcDbSpline
 62
7
  6
BYLAYER
 70
0
 71
3
 72
12
 73
8
 74
0
 42
0.0000001
 43
0.0000001
 44
0.0000000001
 40
0.0
 40
0.0
 40
0.0
 40
0.0
 40
0.2164669404
 40
0.4502972304
 40
0.5770272859
 40
0.7114370949
 40
1.0
 40
1.0
 40
1.0
 40
1.0
 10
45.9794222311
 20
34.1542237245
 30
0.0
 10
46.0331555779
 20
34.1608885259
 30
0.0
 10
46.1432708545
 20
34.1925871048
 30
0.0
 10
46.2660246732
 20
34.2726046058
 30
0.0
 10
46.3524331603
 20
34.3619628479
 30
0.0
 10
46.4309641584
 20
34.4752967876
 30
0.0
 10
46.4666766051
 20
34.5787330152
 30
0.0
 10
46.4755611694
 20
34.6503626629
 30
0.0
  0
SPLINE
  5
2AC
100
AcDbEntity
  8
0
100
AcDbSpline
 62
7
  6
BYLAYER
 70
0
 71
3
 72
9
 73
5
 74
0
 42
0.0000001
 43
0.0000001
 44
0.0000000001
 40
0.0
 40
0.0
 40
0.0
 40
0.0
 40
0.2599444812
 40
1.0
 40
1.0
 40
1.0
 40
1.0
 10
45.9917412749
 20
33.279223726
 30
0.0
 10
45.9903940869
 20
33.2819550319
 30
0.0
 10
45.9855539119
 20
33.2926243756
 30
0.0
 10
45.9821965084
 20
33.3039920467
 30
0.0
 10
45.9807914175
 20
33.3125478434
 30
0.0
  0
SPLINE
  5
2AD
100
AcDbEntity
  8
0
100
AcDbSpline
 62
7
  6
BYLAYER
 70
0
 71
3
 72
9
 73
5
 74
0
 42
0.0000001
 43
0.0000001
 44
0.0000000001
 40
0.0
 40
0.0
 40
0.0
 40
0.0
 40
0.2420883993
 40
1.0
 40
1.0
 40
1.0
 40
1.0
 10
19.9794222311
 20
33.3292237245
 30
0.0
 10
19.9794220897
 20
33.3250467303
 30
0.0
 10
19.9783662771
 20
33.3077913878
 30
0.0
 10
19.972887827
 20
33.2909517103
 30
0.0
 10
19.967103142
 20
33.2792237263
 30
0.0
  0
SPLINE
  5
2AE
100
AcDbEntity
  8
0
100
AcDbSpline
 62
7
  6
BYLAYER
 70
0
 71
3
 72
13
 73
9
 74
0
 42
0.0000001
 43
0.0000001
 44
0.0000000001
 40
0.0
 40
0.0
 40
0.0
 40
0.0
 40
0.2386114739
 40
0.3672990262
 40
0.4987440133
 40
0.6304006887
 40
0.7596624492
 40
1.0
 40
1.0
 40
1.0
 40
1.0
 10
46.4794224757
 20
33.8253626629
 30
0.0
 10
46.4794224758
 20
33.7633727561
 30
0.0
 10
46.4609295903
 20
33.6666533251
 30
0.0
 10
46.4001739027
 20
33.5515017186
 30
0.0
 10
46.3355372659
 20
33.4718780271
 30
0.0
 10
46.2552928313
 20
33.4077816875
 30
0.0
 10
46.139164467
 20
33.3474983709
 30
0.0
 10
46.0418605628
 20
33.3292237221
 30
0.0
 10
45.9794222311
 20
33.3292237549
 30
0.0
  0
ELLIPSE
  5
2AF
100
AcDbEntity
  8
0
100
AcDbEllipse
 62
7
  6
BYLAYER
 10
20.9794222311
 20
72.7409959691
 30
0.0
 11
0.0
 21
52.2448392831
 31
0.0
 40
0.0861497658
 41
-2.4656822927
 42
-2.4482436442
  0
ELLIPSE
  5
2B0
100
AcDbEntity
  8
0
100
AcDbEllipse
 62
7
  6
BYLAYER
 10
20.9794222311
 20
72.7409959691
 30
0.0
 11
-0.0
 21
52.2448392831
 31
0.0
 40
0.0861497658
 41
-3.834941663
 42
-3.8175030145
  0
ELLIPSE
  5
2B1
100
AcDbEntity
  8
0
100
AcDbEllipse
 62
7
  6
BYLAYER
 10
44.9794222311
 20
72.7409959691
 30
0.0
 11
0.0
 21
52.2448392831
 31
0.0
 40
0.0861497658
 41
-2.4656822927
 42
-2.4482436442
  0
ELLIPSE
  5
2B2
100
AcDbEntity
  8
0
100
AcDbEllipse
 62
7
  6
BYLAYER
 10
44.9794222311
 20
72.7409959691
 30
0.0
 11
-0.0
 21
52.2448392831
 31
0.0
 40
0.0861497658
 41
-3.834941663
 42
-3.8175030145
  0
ELLIPSE
  5
2B3
100
AcDbEntity
  8
0
100
AcDbEllipse
 62
7
  6
BYLAYER
 10
54.9794222311
 20
72.7409959691
 30
0.0
 11
-0.0
 21
52.2448392831
 31
0.0
 40
0.0861497658
 41
-2.4656822927
 42
-2.4482436442
  0
ELLIPSE
  5
2B4
100
AcDbEntity
  8
0
100
AcDbEllipse
 62
7
  6
BYLAYER
 10
54.9794222311
 20
72.7409959691
 30
0.0
 11
0.0
 21
52.2448392831
 31
0.0
 40
0.0861497658
 41
-3.834941663
 42
-3.8175030145
  0
ELLIPSE
  5
2B5
100
AcDbEntity
  8
0
100
AcDbEllipse
 62
7
  6
BYLAYER
 10
10.9794222311
 20
72.7409959691
 30
0.0
 11
0.0
 21
52.2448392831
 31
0.0
 40
0.0861497658
 41
-2.4656822927
 42
-2.4482436442
  0
ELLIPSE
  5
2B6
100
AcDbEntity
  8
0
100
AcDbEllipse
 62
7
  6
BYLAYER
 10
10.9794222311
 20
72.7409959691
 30
0.0
 11
0.0
 21
52.2448392831
 31
0.0
 40
0.0861497658
 41
-3.834941663
 42
-3.8175030145
  0
ELLIPSE
  5
2B7
100
AcDbEntity
  8
0
100
AcDbEllipse
 62
7
  6
BYLAYER
 10
45.9794222311
 20
34.7128626629
 30
0.0
 11
0.0
 21
0.5038911093
 31
0.0
 40
0.9922778767
 41
-1.6951513213
 42
-1.5707963268
  0
ELLIPSE
  5
2B8
100
AcDbEntity
  8
0
100
AcDbEllipse
 62
7
  6
BYLAYER
 10
19.9794222311
 20
34.7128626629
 30
0.0
 11
0.0
 21
-0.5038911093
 31
0.0
 40
0.9922778767
 41
-1.5707963268
 42
-1.4464413323
  0
ENDSEC
  0
SECTION
  2
OBJECTS
  0
DICTIONARY
  5
C
100
AcDbDictionary
280
0
281
1
  3
ACAD_GROUP
350
D
  3
ACAD_MLINESTYLE
350
17
  3
ACAD_LAYOUT
350
1A
  3
ACAD_PLOTSETTINGS
350
19
  3
ACAD_PLOTSTYLENAME
350
E
  0
DICTIONARY
  5
D
102
{ACAD_REACTORS
330
C
102
}
100
AcDbDictionary
280
0
281
1
  0
ACDBDICTIONARYWDFLT
  5
E
102
{ACAD_REACTORS
330
C
102
}
100
AcDbDictionary
281
1
  3
Normal
350
F
100
AcDbDictionaryWithDefault
340
F
  0
DICTIONARY
  5
17
102
{ACAD_REACTORS
330
C
102
}
100
AcDbDictionary
280
0
281
1
  3
Standard
350
18
  0
DICTIONARY
  5
19
102
{ACAD_REACTORS
330
C
102
}
100
AcDbDictionary
281
1
  0
DICTIONARY
  5
1A
102
{ACAD_REACTORS
330
C
102
}
100
AcDbDictionary
281
1
  3
Model
350
2B9
  3
Layout1
350
2BA
  0
ACDBPLACEHOLDER
  5
F
102
{ACAD_REACTORS
330
E
102
}
  0
MLINESTYLE
  5
18
102
{ACAD_REACTORS
330
17
102
}
100
AcDbMlineStyle
  2
STANDARD
 70
0
  3

 62
256
 51
90.0
 52
90.0
 71
2
 49
0.5
 62
256
  6
BYLAYER
 49
-0.5
 62
256
  6
BYLAYER
  0
LAYOUT
  5
2B9
102
{ACAD_REACTORS
330
1A
102
}
100
AcDbPlotSettings
  1

  2
none_device
  4

  6

 40
0.0
 41
0.0
 42
0.0
 43
0.0
 44
210.0
 45
297.0
 46
0.0
 47
0.0
 48
0.0
 49
0.0
140
0.0
141
0.0
142
1.0
143
1.0
 70
1024
 72
1
 73
0
 74
0
  7

 75
0
147
1.0
148
0.0
149
0.0
100
AcDbLayout
  1
Model
 70
0
 71
0
 10
0.0
 20
0.0
 11
210.0
 21
297.0
 12
0.0
 22
0.0
 32
0.0
 14
0.0
 24
0.0
 34
0.0
 15
0.0
 25
0.0
 35
0.0
146
0.0
 13
0.0
 23
0.0
 33
0.0
 16
1.0
 26
0.0
 36
0.0
 17
0.0
 27
1.0
 37
0.0
 76
0
330
210
345
0
346
0
  0
LAYOUT
  5
2BA
102
{ACAD_REACTORS
330
1A
102
}
100
AcDbPlotSettings
  1

  2
none_device
  4

  6

 40
0.0
 41
0.0
 42
0.0
 43
0.0
 44
210.0
 45
297.0
 46
0.0
 47
0.0
 48
0.0
 49
0.0
140
0.0
141
0.0
142
1.0
143
1.0
 70
0
 72
1
 73
0
 74
0
  7

 75
0
147
1.0
148
0.0
149
0.0
100
AcDbLayout
  1
Layout1
 70
0
 71
1
 10
0.0
 20
0.0
 11
210.0
 21
297.0
 12
0.0
 22
0.0
 32
0.0
 14
0.0
 24
0.0
 34
0.0
 15
0.0
 25
0.0
 35
0.0
146
0.0
 13
0.0
 23
0.0
 33
0.0
 16
1.0
 26
0.0
 36
0.0
 17
0.0
 27
1.0
 37
0.0
 76
0
330
211
345
0
346
0
  0
ENDSEC
  0
EOF
