999
DXF file: C:\Users\sesa63760\Dev\_Creo\CAD\MCADID0004768_3D-CAD\drw0001_3.dxf
999
Pro/ENGINEER 2019471 by Parametric Technology Corporation
  0
SECTION
  2
HEADER
  9
$ACADVER
  1
AC1024
  9
$DWGCODEPAGE
  3
ANSI_1252
  9
$EXTMAX
 10
34.129699622
 20
48.2691466083
 30
0.0
  9
$EXTMIN
 10
0.0
 20
0.0
 30
0.0
  9
$LIMMIN
 10
0.0
 20
0.0
  9
$LIMMAX
 10
34.129699622
 20
48.2691466083
  9
$VIEWCTR
 10
17.064849811
 20
24.1345733042
  9
$VIEWSIZE
 40
48.2691466083
  9
$CLAYER
  8
0
  9
$LTSCALE
 40
3.1464332604
  9
$CELTYPE
  6
BYLAYER
  9
$DIMSCALE
 40
1.0
  9
$DIMASZ
 40
0.4063059479
  9
$DIMEXO
 40
1.0
  9
$DIMDLI
 40
2.1738993435
  9
$DIMEXE
 40
1.0
  9
$DIMCEN
 40
0.5148708972
  9
$DIMLFAC
 40
1.0
  9
$DIMBLK
  1
_FILLED
  9
$DIMALT
 70
0
  9
$DIMALTF
 40
0.0393700787
  9
$DIMTXT
 40
0.568828327
  9
$DIMTOL
 70
1
  9
$DIMLIM
 70
0
  9
$DIMTFAC
 40
1.0
  9
$DIMTP
 40
0.01
  9
$DIMTM
 40
0.01
  9
$DIMGAP
 40
0.625
  9
$DIMDSEP
 70
46
  9
$AUNITS
 70
0
  9
$PDMODE
 70
3
  9
$PDSIZE
 40
0.3125
  9
$HANDSEED
  5
2C7
  9
$TILEMODE
 70
1
  9
$MEASUREMENT
 70
1
  9
$INSUNITS
 70
4
  0
ENDSEC
  0
SECTION
  2
CLASSES
  0
CLASS
  1
ACDBDICTIONARYWDFLT
  2
AcDbDictionaryWithDefault
  3
AutoCAD 2000
 90
0
 91
1
280
0
281
0
  0
CLASS
  1
ACDBPLACEHOLDER
  2
AcDbPlaceHolder
  3
AutoCAD 2000
 90
0
 91
1
280
0
281
0
  0
CLASS
  1
LAYOUT
  2
AcDbLayout
  3
AutoCAD 2000
 90
0
 91
0
280
0
281
0
  0
ENDSEC
  0
SECTION
  2
TABLES
  0
TABLE
  2
VPORT
  5
8
100
AcDbSymbolTable
 70
2
  0
VPORT
  5
1F4
100
AcDbSymbolTableRecord
100
AcDbViewportTableRecord
  2
*ACTIVE
 70
0
 10
0.0
 20
0.0
 11
1.0
 21
1.0
 12
17.064849811
 22
24.1345733042
 13
0.0
 23
0.0
 14
1.0
 24
1.0
 15
0.0
 25
0.0
 16
0.0
 26
0.0
 36
1.0
 17
0.0
 27
0.0
 37
0.0
 40
48.2691466083
 41
0.7070707071
 42
50.0
 43
0.0
 44
0.0
 50
0.0
 51
0.0
 71
0
 72
100
 73
1
 74
1
 75
0
 76
0
 77
0
 78
0
  0
ENDTAB
  0
TABLE
  2
LTYPE
  5
5
100
AcDbSymbolTable
 70
6
  0
LTYPE
  5
14
100
AcDbSymbolTableRecord
100
AcDbLinetypeTableRecord
  2
BYBLOCK
 70
0
  3

 72
65
 73
0
 40
0.0
  0
LTYPE
  5
15
100
AcDbSymbolTableRecord
100
AcDbLinetypeTableRecord
  2
BYLAYER
 70
0
  3

 72
65
 73
0
 40
0.0
  0
LTYPE
  5
16
100
AcDbSymbolTableRecord
100
AcDbLinetypeTableRecord
  2
CONTINUOUS
 70
64
  3
Solid line
 72
65
 73
0
 40
0.0
  0
LTYPE
  5
1F5
100
AcDbSymbolTableRecord
100
AcDbLinetypeTableRecord
  2
CENTER
 70
64
  3
____ _ ____ _ ____ _ ____ _ ____ _ ____ _ ____
 72
65
 73
4
 40
0.6
 49
0.375
 74
0
 49
-0.075
 74
0
 49
0.075
 74
0
 49
-0.075
 74
0
  0
LTYPE
  5
1F6
100
AcDbSymbolTableRecord
100
AcDbLinetypeTableRecord
  2
HIDDEN
 70
64
  3
- - - - - - - - - - - - - - - - - - - -
 72
65
 73
2
 40
0.2
 49
0.1
 74
0
 49
-0.1
 74
0
  0
LTYPE
  5
1F7
100
AcDbSymbolTableRecord
100
AcDbLinetypeTableRecord
  2
PHANTOM
 70
64
  3
_____ _ _ _____ _ _ _____ _ _ _____
 72
65
 73
6
 40
0.8
 49
0.45
 74
0
 49
-0.05
 74
0
 49
0.1
 74
0
 49
-0.05
 74
0
 49
0.1
 74
0
 49
-0.05
 74
0
  0
LTYPE
  5
1F8
100
AcDbSymbolTableRecord
100
AcDbLinetypeTableRecord
  2
DOT
 70
64
  3
. . . . . . . . . . . . . . . . . . . .
 72
65
 73
2
 40
0.2
 49
0.1
 74
0
 49
-0.1
 74
0
  0
LTYPE
  5
1F9
100
AcDbSymbolTableRecord
100
AcDbLinetypeTableRecord
  2
DASHED
 70
64
  3
- - - - - - - - - - - - - - - - - - - -
 72
65
 73
2
 40
0.2
 49
0.1
 74
0
 49
-0.1
 74
0
  0
ENDTAB
  0
TABLE
  2
LAYER
  5
2
100
AcDbSymbolTable
 70
36
  0
LAYER
  5
10
100
AcDbSymbolTableRecord
100
AcDbLayerTableRecord
  2
0
 70
0
 62
7
  6
CONTINUOUS
370
-3
390
F
  0
LAYER
  5
1FA
100
AcDbSymbolTableRecord
100
AcDbLayerTableRecord
  2
DEFAULT_1
 70
0
 62
7
  6
CENTER
370
-3
390
F
  0
LAYER
  5
1FB
100
AcDbSymbolTableRecord
100
AcDbLayerTableRecord
  2
DEFAULT_2
 70
0
 62
7
  6
HIDDEN
370
-3
390
F
  0
LAYER
  5
1FC
100
AcDbSymbolTableRecord
100
AcDbLayerTableRecord
  2
DEFAULT_3
 70
0
 62
7
  6
PHANTOM
370
-3
390
F
  0
LAYER
  5
1FD
100
AcDbSymbolTableRecord
100
AcDbLayerTableRecord
  2
00_COMPONENTS
 70
0
 62
7
  6
CONTINUOUS
370
-3
390
F
  0
LAYER
  5
1FE
100
AcDbSymbolTableRecord
100
AcDbLayerTableRecord
  2
01_1_DEFAULT_DATUMS
 70
0
 62
7
  6
CONTINUOUS
370
-3
390
F
  0
LAYER
  5
1FF
100
AcDbSymbolTableRecord
100
AcDbLayerTableRecord
  2
01_PLANES
 70
0
 62
7
  6
CONTINUOUS
370
-3
390
F
  0
LAYER
  5
200
100
AcDbSymbolTableRecord
100
AcDbLayerTableRecord
  2
02_COORD_SYS
 70
0
 62
7
  6
CONTINUOUS
370
-3
390
F
  0
LAYER
  5
201
100
AcDbSymbolTableRecord
100
AcDbLayerTableRecord
  2
03_AXES
 70
0
 62
7
  6
CONTINUOUS
370
-3
390
F
  0
LAYER
  5
202
100
AcDbSymbolTableRecord
100
AcDbLayerTableRecord
  2
04_POINTS
 70
0
 62
7
  6
CONTINUOUS
370
-3
390
F
  0
LAYER
  5
203
100
AcDbSymbolTableRecord
100
AcDbLayerTableRecord
  2
05_CURVES
 70
0
 62
7
  6
CONTINUOUS
370
-3
390
F
  0
LAYER
  5
204
100
AcDbSymbolTableRecord
100
AcDbLayerTableRecord
  2
06_SURFS
 70
0
 62
7
  6
CONTINUOUS
370
-3
390
F
  0
LAYER
  5
205
100
AcDbSymbolTableRecord
100
AcDbLayerTableRecord
  2
07_COSMETICS
 70
0
 62
7
  6
CONTINUOUS
370
-3
390
F
  0
LAYER
  5
206
100
AcDbSymbolTableRecord
100
AcDbLayerTableRecord
  2
10_NOTES
 70
0
 62
7
  6
CONTINUOUS
370
-3
390
F
  0
LAYER
  5
207
100
AcDbSymbolTableRecord
100
AcDbLayerTableRecord
  2
11_NOTES_PUB
 70
0
 62
7
  6
CONTINUOUS
370
-3
390
F
  0
LAYER
  5
208
100
AcDbSymbolTableRecord
100
AcDbLayerTableRecord
  2
13_REF_GTOL
 70
0
 62
7
  6
CONTINUOUS
370
-3
390
F
  0
LAYER
  5
209
100
AcDbSymbolTableRecord
100
AcDbLayerTableRecord
  2
16_MISC
 70
0
 62
7
  6
CONTINUOUS
370
-3
390
F
  0
LAYER
  5
20A
100
AcDbSymbolTableRecord
100
AcDbLayerTableRecord
  2
17_NO_PRINT
 70
0
 62
7
  6
CONTINUOUS
370
-3
390
F
  0
LAYER
  5
20B
100
AcDbSymbolTableRecord
100
AcDbLayerTableRecord
  2
18_DATUM_CAMS_JOINTS
 70
0
 62
7
  6
CONTINUOUS
370
-3
390
F
  0
LAYER
  5
20C
100
AcDbSymbolTableRecord
100
AcDbLayerTableRecord
  2
19_DATUM_FUNCTIONAL
 70
0
 62
7
  6
CONTINUOUS
370
-3
390
F
  0
LAYER
  5
20D
100
AcDbSymbolTableRecord
100
AcDbLayerTableRecord
  2
20_DATUM_KINEMATIC_SCHEME
 70
0
 62
7
  6
CONTINUOUS
370
-3
390
F
  0
ENDTAB
  0
TABLE
  2
STYLE
  5
3
100
AcDbSymbolTable
 70
1
  0
STYLE
  5
11
100
AcDbSymbolTableRecord
100
AcDbTextStyleTableRecord
  2
STANDARD
 70
0
 40
0.0
 41
1.0
 50
0.0
 71
0
 42
0.2
  3
ARIAL.TTF
  4

  0
STYLE
  5
20E
100
AcDbSymbolTableRecord
100
AcDbTextStyleTableRecord
  2
TEXTSTYLE_1
 70
0
 40
0.0
 41
0.8
 50
0.0
 71
0
 42
0.2
  3
gdt
  4

  0
ENDTAB
  0
TABLE
  2
VIEW
  5
6
100
AcDbSymbolTable
 70
0
  0
ENDTAB
  0
TABLE
  2
UCS
  5
7
100
AcDbSymbolTable
 70
0
  0
ENDTAB
  0
TABLE
  2
APPID
  5
9
100
AcDbSymbolTable
 70
1
  0
APPID
  5
20F
100
AcDbSymbolTableRecord
100
AcDbRegAppTableRecord
  2
ACAD
 70
0
  0
ENDTAB
  0
TABLE
  2
BLOCK_RECORD
  5
1
100
AcDbSymbolTable
 70
0
  0
BLOCK_RECORD
  5
210
100
AcDbSymbolTableRecord
100
AcDbBlockTableRecord
  2
*Model_Space
  0
BLOCK_RECORD
  5
211
100
AcDbSymbolTableRecord
100
AcDbBlockTableRecord
  2
*Paper_Space
  0
BLOCK_RECORD
  5
212
100
AcDbSymbolTableRecord
100
AcDbBlockTableRecord
  2
_FILLED
  0
ENDTAB
  0
TABLE
  2
DIMSTYLE
  5
A
100
AcDbSymbolTable
 70
1
100
AcDbDimStyleTable
 71
0
  0
DIMSTYLE
105
213
100
AcDbSymbolTableRecord
100
AcDbDimStyleTableRecord
  2
STANDARD
 70
0
  3

  4

 40
1.0
 41
0.4063059479
 42
1.0
 43
0.38
 44
1.0
 45
0.0
 46
0.0
 47
0.01
 48
0.01
140
0.568828327
141
0.09
142
0.0
143
25.4
144
1.0
145
0.0
146
1.0
147
0.625
 71
1
 72
0
 73
0
 74
0
 75
0
 76
0
 77
1
 78
8
 79
2
170
0
171
1
172
0
173
0
174
0
175
0
176
0
177
0
178
0
270
2
179
2
271
2
272
2
273
2
274
2
275
0
280
0
281
0
282
0
283
1
284
8
285
0
286
0
287
3
288
0
340
11
278
46
341
212
342
212
343
212
344
212
  0
ENDTAB
  0
ENDSEC
  0
SECTION
  2
BLOCKS
  0
BLOCK
  5
20
100
AcDbEntity
  8
0
100
AcDbBlockBegin
  2
*Model_Space
 70
0
 10
0.0
 20
0.0
 30
0.0
  3
*Model_Space
  1

  0
ENDBLK
  5
21
100
AcDbEntity
  8
0
100
AcDbBlockEnd
  0
BLOCK
  5
1C
100
AcDbEntity
  8
0
100
AcDbBlockBegin
  2
*Paper_Space
 70
0
 10
0.0
 20
0.0
 30
0.0
  3
*Paper_Space
  1

  0
ENDBLK
  5
1D
100
AcDbEntity
  8
0
100
AcDbBlockEnd
  0
BLOCK
  5
214
100
AcDbEntity
  8
0
100
AcDbBlockBegin
  2
_FILLED
 70
64
 10
0.0
 20
0.0
  3
_FILLED
  1

  0
SOLID
  5
215
100
AcDbEntity
  8
0
  6
BYBLOCK
 62
0
100
AcDbTrace
 10
0.0
 20
0.0
 11
-1.0
 21
0.25
 12
-1.0
 22
-0.25
 13
-1.0
 23
-0.25
  0
ENDBLK
  5
216
100
AcDbEntity
  8
0
  6
BYBLOCK
 62
0
100
AcDbBlockEnd
  0
ENDSEC
  0
SECTION
  2
ENTITIES
  0
LINE
  5
217
100
AcDbEntity
  8
0
100
AcDbLine
 62
7
  6
BYLAYER
 10
30.3375943632
 20
7.2027352298
 11
4.7373992114
 21
7.2027352298
  0
LINE
  5
218
100
AcDbEntity
  8
0
100
AcDbLine
 62
7
  6
BYLAYER
 10
4.0874975134
 20
7.2527352298
 11
4.5510069832
 21
7.2527352298
  0
LINE
  5
219
100
AcDbEntity
  8
0
100
AcDbLine
 62
7
  6
BYLAYER
 10
30.5239982809
 20
7.2527352298
 11
30.9874975134
 21
7.2527352298
  0
LINE
  5
21A
100
AcDbEntity
  8
0
100
AcDbLine
 62
7
  6
BYLAYER
 10
4.0374975134
 20
7.9026364402
 11
4.0374975134
 21
33.5028330429
  0
LINE
  5
21B
100
AcDbEntity
  8
0
100
AcDbLine
 62
7
  6
BYLAYER
 10
4.0874975134
 20
7.2527352298
 11
4.0874975134
 21
7.716233017
  0
LINE
  5
21C
100
AcDbEntity
  8
0
100
AcDbLine
 62
7
  6
BYLAYER
 10
4.0874975134
 20
33.68922576
 11
4.0874975134
 21
34.1527352298
  0
LINE
  5
21D
100
AcDbEntity
  8
0
100
AcDbLine
 62
7
  6
BYLAYER
 10
15.4375117033
 20
41.3027232323
 11
15.0375117744
 21
40.9027183153
  0
LINE
  5
21E
100
AcDbEntity
  8
0
100
AcDbLine
 62
7
  6
BYLAYER
 10
14.3374975134
 20
37.6027352298
 11
14.0733958983
 21
37.4502560912
  0
LINE
  5
21F
100
AcDbEntity
  8
0
100
AcDbLine
 62
7
  6
BYLAYER
 10
8.0551356037
 20
8.7708835772
 11
12.0050760569
 21
9.8292669318
  0
LINE
  5
220
100
AcDbEntity
  8
0
100
AcDbLine
 62
7
  6
BYLAYER
 10
23.06991897
 20
9.8292669318
 11
27.0198594232
 21
8.7708835772
  0
LINE
  5
221
100
AcDbEntity
  8
0
100
AcDbLine
 62
7
  6
BYLAYER
 10
10.475016156
 20
14.3473606535
 11
11.1821229372
 21
13.6402538723
  0
LINE
  5
222
100
AcDbEntity
  8
0
100
AcDbLine
 62
7
  6
BYLAYER
 10
5.6056458609
 20
30.1850971395
 11
6.6640292154
 21
26.2351566863
  0
LINE
  5
223
100
AcDbEntity
  8
0
100
AcDbLine
 62
7
  6
BYLAYER
 10
9.5609984004
 20
34.9027352298
 11
9.5609984004
 21
34.2027352298
  0
LINE
  5
224
100
AcDbEntity
  8
0
100
AcDbLine
 62
7
  6
BYLAYER
 10
6.6640292154
 20
15.1703137732
 11
5.6056458609
 21
11.2203733201
  0
LINE
  5
225
100
AcDbEntity
  8
0
100
AcDbLine
 62
7
  6
BYLAYER
 10
21.0015991286
 20
35.0552143684
 11
20.7374975134
 21
34.9027352298
  0
LINE
  5
226
100
AcDbEntity
  8
0
100
AcDbLine
 62
7
  6
BYLAYER
 10
14.0733958983
 20
37.4502560912
 11
14.0733958983
 21
35.0552143684
  0
LINE
  5
227
100
AcDbEntity
  8
0
100
AcDbLine
 62
7
  6
BYLAYER
 10
10.4413085372
 20
26.3847106436
 11
13.0201850421
 21
23.8058340464
  0
LINE
  5
228
100
AcDbEntity
  8
0
100
AcDbLine
 62
7
  6
BYLAYER
 10
20.6405963308
 20
16.1854227589
 11
23.2194729273
 21
13.6065462535
  0
LINE
  5
229
100
AcDbEntity
  8
0
100
AcDbLine
 62
7
  6
BYLAYER
 10
5.899100292
 20
31.2804722794
 11
5.6961563673
 21
31.4834162041
  0
LINE
  5
22A
100
AcDbEntity
  8
0
100
AcDbLine
 62
7
  6
BYLAYER
 10
28.115234563
 20
9.0643380084
 11
28.3181784878
 21
8.8613940837
  0
LINE
  5
22B
100
AcDbEntity
  8
0
100
AcDbLine
 62
7
  6
BYLAYER
 10
15.0374975134
 20
40.9027040542
 11
15.0374975134
 21
37.6027352298
  0
LINE
  5
22C
100
AcDbEntity
  8
0
100
AcDbLine
 62
7
  6
BYLAYER
 10
15.9543748564
 20
34.2027352298
 11
15.9543748564
 21
34.9027352298
  0
LINE
  5
22D
100
AcDbEntity
  8
0
100
AcDbLine
 62
7
  6
BYLAYER
 10
16.1456579317
 20
34.2027352298
 11
16.1456579317
 21
34.9027352298
  0
LINE
  5
22E
100
AcDbEntity
  8
0
100
AcDbLine
 62
7
  6
BYLAYER
 10
6.9597604638
 20
32.3411324512
 11
6.7568165391
 21
32.5440763759
  0
LINE
  5
22F
100
AcDbEntity
  8
0
100
AcDbLine
 62
7
  6
BYLAYER
 10
29.1758947348
 20
10.1249981801
 11
29.3788386595
 21
9.9220542554
  0
LINE
  5
230
100
AcDbEntity
  8
0
100
AcDbLine
 62
7
  6
BYLAYER
 10
24.6336864896
 20
15.0207598159
 11
22.0548099613
 21
17.5996363796
  0
LINE
  5
231
100
AcDbEntity
  8
0
100
AcDbLine
 62
7
  6
BYLAYER
 10
14.4343986636
 20
25.2200476779
 11
11.8555220996
 21
27.798924206
  0
LINE
  5
232
100
AcDbEntity
  8
0
100
AcDbLine
 62
7
  6
BYLAYER
 10
17.5374975134
 20
37.1408550144
 11
17.5374975134
 21
35.3646154451
  0
LINE
  5
233
100
AcDbEntity
  8
0
100
AcDbLine
 62
7
  6
BYLAYER
 10
18.150246973
 20
34.9027352298
 11
18.150246973
 21
34.2027352298
  0
LINE
  5
234
100
AcDbEntity
  8
0
100
AcDbLine
 62
7
  6
BYLAYER
 10
23.2194729273
 20
27.798924206
 11
20.6405963387
 21
25.2200476948
  0
LINE
  5
235
100
AcDbEntity
  8
0
100
AcDbLine
 62
7
  6
BYLAYER
 10
13.0201850644
 20
17.5996363814
 11
10.4413085372
 21
15.0207598159
  0
LINE
  5
236
100
AcDbEntity
  8
0
100
AcDbLine
 62
7
  6
BYLAYER
 10
20.0374975134
 20
40.9027040542
 11
20.0374975134
 21
37.6027352298
  0
LINE
  5
237
100
AcDbEntity
  8
0
100
AcDbLine
 62
7
  6
BYLAYER
 10
5.6961563673
 20
9.9220542554
 11
5.899100292
 21
10.1249981801
  0
LINE
  5
238
100
AcDbEntity
  8
0
100
AcDbLine
 62
7
  6
BYLAYER
 10
28.115234563
 20
32.3411324512
 11
28.3181784878
 21
32.5440763759
  0
LINE
  5
239
100
AcDbEntity
  8
0
100
AcDbLine
 62
7
  6
BYLAYER
 10
9.9093655228
 20
13.7817100204
 11
10.475016156
 21
14.3473606535
  0
LINE
  5
23A
100
AcDbEntity
  8
0
100
AcDbLine
 62
7
  6
BYLAYER
 10
21.5326508271
 20
25.4049953246
 11
24.4585227228
 21
28.3308672203
  0
LINE
  5
23B
100
AcDbEntity
  8
0
100
AcDbLine
 62
7
  6
BYLAYER
 10
21.5326508271
 20
25.1928632903
 11
24.5690038892
 21
28.2292163523
  0
LINE
  5
23C
100
AcDbEntity
  8
0
100
AcDbLine
 62
7
  6
BYLAYER
 10
22.027625574
 20
24.6978885435
 11
25.063978636
 21
27.7342416055
  0
LINE
  5
23D
100
AcDbEntity
  8
0
100
AcDbLine
 62
7
  6
BYLAYER
 10
10.616472304
 20
13.0746032392
 11
11.1821229372
 21
13.6402538723
  0
LINE
  5
23E
100
AcDbEntity
  8
0
100
AcDbLine
 62
7
  6
BYLAYER
 10
22.2397576083
 20
24.6978885435
 11
25.165629504
 21
27.6237604392
  0
LINE
  5
23F
100
AcDbEntity
  8
0
100
AcDbLine
 62
7
  6
BYLAYER
 10
21.0015991286
 20
35.0552143684
 11
21.0015991286
 21
37.4502560912
  0
LINE
  5
240
100
AcDbEntity
  8
0
100
AcDbLine
 62
7
  6
BYLAYER
 10
6.7568165391
 20
8.8613940837
 11
6.9597604638
 21
9.0643380084
  0
LINE
  5
241
100
AcDbEntity
  8
0
100
AcDbLine
 62
7
  6
BYLAYER
 10
29.1758947348
 20
31.2804722794
 11
29.3788386595
 21
31.4834162041
  0
LINE
  5
242
100
AcDbEntity
  8
0
100
AcDbLine
 62
7
  6
BYLAYER
 10
11.8555220996
 20
13.6065462535
 11
14.434398665
 21
16.1854227808
  0
LINE
  5
243
100
AcDbEntity
  8
0
100
AcDbLine
 62
7
  6
BYLAYER
 10
22.0548099786
 20
23.8058340549
 11
24.6336864896
 21
26.3847106436
  0
LINE
  5
244
100
AcDbEntity
  8
0
100
AcDbLine
 62
7
  6
BYLAYER
 10
22.027625574
 20
24.6978885435
 11
21.5326508271
 21
25.1928632903
  0
LINE
  5
245
100
AcDbEntity
  8
0
100
AcDbLine
 62
7
  6
BYLAYER
 10
21.5326508271
 20
25.4049953246
 11
22.2397576083
 21
24.6978885435
  0
LINE
  5
246
100
AcDbEntity
  8
0
100
AcDbLine
 62
7
  6
BYLAYER
 10
27.0198594232
 20
32.6345868823
 11
23.06991897
 21
31.5762035277
  0
LINE
  5
247
100
AcDbEntity
  8
0
100
AcDbLine
 62
7
  6
BYLAYER
 10
12.0050760569
 20
31.5762035277
 11
8.0551356037
 21
32.6345868823
  0
LINE
  5
248
100
AcDbEntity
  8
0
100
AcDbLine
 62
7
  6
BYLAYER
 10
22.7493519835
 20
26.621696481
 11
23.4564587647
 21
25.9145896999
  0
LINE
  5
249
100
AcDbEntity
  8
0
100
AcDbLine
 62
7
  6
BYLAYER
 10
22.9598726367
 20
26.6200850998
 11
23.4548473835
 21
26.125110353
  0
LINE
  5
24A
100
AcDbEntity
  8
0
100
AcDbLine
 62
7
  6
BYLAYER
 10
23.7930936149
 20
26.4633565844
 11
23.2981188682
 21
26.9583313314
  0
LINE
  5
24B
100
AcDbEntity
  8
0
100
AcDbLine
 62
7
  6
BYLAYER
 10
23.9510843174
 20
26.6213472869
 11
23.4561095706
 21
27.1163220338
  0
LINE
  5
24C
100
AcDbEntity
  8
0
100
AcDbLine
 62
7
  6
BYLAYER
 10
24.5312202271
 20
27.2014831966
 11
24.0362454803
 21
27.6964579434
  0
LINE
  5
24D
100
AcDbEntity
  8
0
100
AcDbLine
 62
7
  6
BYLAYER
 10
24.092529852
 20
27.7527423151
 11
24.5875045988
 21
27.2577675683
  0
LINE
  5
24E
100
AcDbEntity
  8
0
100
AcDbLine
 62
7
  6
BYLAYER
 10
24.6439206644
 20
27.3141836339
 11
24.1489459175
 21
27.8091583807
  0
LINE
  5
24F
100
AcDbEntity
  8
0
100
AcDbLine
 62
7
  6
BYLAYER
 10
24.8560526987
 20
27.3141836339
 11
24.2548965611
 21
27.9151090243
  0
LINE
  5
250
100
AcDbEntity
  8
0
100
AcDbLine
 62
7
  6
BYLAYER
 10
25.3792908448
 20
34.2027352298
 11
25.3792908448
 21
34.9027352298
  0
LINE
  5
251
100
AcDbEntity
  8
0
100
AcDbLine
 62
7
  6
BYLAYER
 10
25.5139966264
 20
34.9027352298
 11
25.5139966264
 21
34.2027352298
  0
LINE
  5
252
100
AcDbEntity
  8
0
100
AcDbLine
 62
7
  6
BYLAYER
 10
14.0733958983
 20
35.0552143684
 11
14.3374975134
 21
34.9027352298
  0
LINE
  5
253
100
AcDbEntity
  8
0
100
AcDbLine
 62
7
  6
BYLAYER
 10
29.469349166
 20
11.22037332
 11
28.4109658114
 21
15.1703137732
  0
LINE
  5
254
100
AcDbEntity
  8
0
100
AcDbLine
 62
7
  6
BYLAYER
 10
28.4109658114
 20
26.2351566863
 11
29.469349166
 21
30.1850971395
  0
LINE
  5
255
100
AcDbEntity
  8
0
100
AcDbLine
 62
7
  6
BYLAYER
 10
4.0874975134
 20
34.1527352298
 11
4.5509953007
 21
34.1527352298
  0
LINE
  5
256
100
AcDbEntity
  8
0
100
AcDbLine
 62
7
  6
BYLAYER
 10
30.523986598
 20
34.1527352298
 11
30.9874975134
 21
34.1527352298
  0
LINE
  5
257
100
AcDbEntity
  8
0
100
AcDbLine
 62
7
  6
BYLAYER
 10
4.7373987238
 20
34.2027352298
 11
30.3375931444
 21
34.2027352298
  0
LINE
  5
258
100
AcDbEntity
  8
0
100
AcDbLine
 62
7
  6
BYLAYER
 10
9.5609984004
 20
34.9027352298
 11
25.5139966264
 21
34.9027352298
  0
LINE
  5
259
100
AcDbEntity
  8
0
100
AcDbLine
 62
7
  6
BYLAYER
 10
20.7374975134
 20
37.6027352298
 11
21.0015991286
 21
37.4502560912
  0
LINE
  5
25A
100
AcDbEntity
  8
0
100
AcDbLine
 62
7
  6
BYLAYER
 10
30.9874975134
 20
7.2527352298
 11
30.9874975134
 21
7.7162461452
  0
LINE
  5
25B
100
AcDbEntity
  8
0
100
AcDbLine
 62
7
  6
BYLAYER
 10
30.9874975134
 20
33.6892359972
 11
30.9874975134
 21
34.1527352298
  0
LINE
  5
25C
100
AcDbEntity
  8
0
100
AcDbLine
 62
7
  6
BYLAYER
 10
31.0374975134
 20
33.5028320796
 11
31.0374975134
 21
7.9026389886
  0
LINE
  5
25D
100
AcDbEntity
  8
0
100
AcDbLine
 62
7
  6
BYLAYER
 10
14.3374975134
 20
37.6027352298
 11
20.7374975134
 21
37.6027352298
  0
LINE
  5
25E
100
AcDbEntity
  8
0
100
AcDbLine
 62
7
  6
BYLAYER
 10
19.6374833236
 20
41.3027232323
 11
20.0374832525
 21
40.9027183153
  0
LINE
  5
25F
100
AcDbEntity
  8
0
100
AcDbLine
 62
7
  6
BYLAYER
 10
15.0374975134
 20
40.9027183153
 11
20.0374975134
 21
40.9027183153
  0
LINE
  5
260
100
AcDbEntity
  8
0
100
AcDbLine
 62
7
  6
BYLAYER
 10
15.4376329791
 20
41.3027352298
 11
19.6373620478
 21
41.3027352298
  0
ARC
  5
261
100
AcDbEntity
  8
0
100
AcDbCircle
 62
7
  6
BYLAYER
 10
7.5374975134
 20
10.7027352298
 40
2.0
100
AcDbArc
 50
247.024312837
 51
285.000000001
  0
ARC
  5
262
100
AcDbEntity
  8
0
100
AcDbCircle
 62
7
  6
BYLAYER
 10
7.5374975134
 20
10.7027352298
 40
2.0
100
AcDbArc
 50
164.9999999964
 51
202.9756871631
  0
ARC
  5
263
100
AcDbEntity
  8
0
100
AcDbCircle
 62
7
  6
BYLAYER
 10
7.5374975134
 20
10.7027352298
 40
1.7477483636
100
AcDbArc
 50
250.4119519197
 51
199.5880480804
  0
ARC
  5
264
100
AcDbEntity
  8
0
100
AcDbCircle
 62
7
  6
BYLAYER
 10
7.5374975134
 20
10.7027352298
 40
1.7372753246
100
AcDbArc
 50
250.5761618724
 51
199.4238381276
  0
CIRCLE
  5
265
100
AcDbEntity
  8
0
100
AcDbCircle
 62
7
  6
BYLAYER
 10
7.5374975134
 20
10.7027352298
 40
1.5
  0
CIRCLE
  5
266
100
AcDbEntity
  8
0
100
AcDbCircle
 62
7
  6
BYLAYER
 10
7.5374975134
 20
10.7027352298
 40
1.3
  0
ARC
  5
267
100
AcDbEntity
  8
0
100
AcDbCircle
 62
7
  6
BYLAYER
 10
4.7373471307
 20
7.9025848321
 40
0.6998464524
100
AcDbArc
 50
179.9943849529
 51
270.0056074435
  0
ARC
  5
268
100
AcDbEntity
  8
0
100
AcDbCircle
 62
7
  6
BYLAYER
 10
7.5374975134
 20
30.7027352298
 40
2.0
100
AcDbArc
 50
74.9999999986
 51
112.9756871631
  0
ARC
  5
269
100
AcDbEntity
  8
0
100
AcDbCircle
 62
7
  6
BYLAYER
 10
7.5374975134
 20
30.7027352298
 40
2.0
100
AcDbArc
 50
157.024312837
 51
195.0000000025
  0
ARC
  5
26A
100
AcDbEntity
  8
0
100
AcDbCircle
 62
7
  6
BYLAYER
 10
7.5374975134
 20
30.7027352298
 40
1.7477483636
100
AcDbArc
 50
160.4119519197
 51
109.5880480804
  0
ARC
  5
26B
100
AcDbEntity
  8
0
100
AcDbCircle
 62
7
  6
BYLAYER
 10
7.5374975134
 20
30.7027352298
 40
1.7372753246
100
AcDbArc
 50
160.5761618724
 51
109.4238381276
  0
CIRCLE
  5
26C
100
AcDbEntity
  8
0
100
AcDbCircle
 62
7
  6
BYLAYER
 10
7.5374975134
 20
30.7027352298
 40
1.5
  0
CIRCLE
  5
26D
100
AcDbEntity
  8
0
100
AcDbCircle
 62
7
  6
BYLAYER
 10
7.5374975134
 20
30.7027352298
 40
1.3
  0
ARC
  5
26E
100
AcDbEntity
  8
0
100
AcDbCircle
 62
7
  6
BYLAYER
 10
4.7373471158
 20
33.5028856124
 40
0.6998464524
100
AcDbArc
 50
89.9943849485
 51
180.0056074435
  0
ARC
  5
26F
100
AcDbEntity
  8
0
100
AcDbCircle
 62
7
  6
BYLAYER
 10
27.5374975134
 20
10.7027352298
 40
2.0
100
AcDbArc
 50
337.024312837
 51
15.0000000025
  0
ARC
  5
270
100
AcDbEntity
  8
0
100
AcDbCircle
 62
7
  6
BYLAYER
 10
27.5374975134
 20
10.7027352298
 40
2.0
100
AcDbArc
 50
254.9999999986
 51
292.9756871631
  0
ARC
  5
271
100
AcDbEntity
  8
0
100
AcDbCircle
 62
7
  6
BYLAYER
 10
27.5374975134
 20
10.7027352298
 40
1.7477483636
100
AcDbArc
 50
340.4119519197
 51
289.5880480804
  0
ARC
  5
272
100
AcDbEntity
  8
0
100
AcDbCircle
 62
7
  6
BYLAYER
 10
27.5374975134
 20
10.7027352298
 40
1.7372753246
100
AcDbArc
 50
340.5761618724
 51
289.4238381276
  0
CIRCLE
  5
273
100
AcDbEntity
  8
0
100
AcDbCircle
 62
7
  6
BYLAYER
 10
27.5374975134
 20
10.7027352298
 40
1.5
  0
CIRCLE
  5
274
100
AcDbEntity
  8
0
100
AcDbCircle
 62
7
  6
BYLAYER
 10
27.5374975134
 20
10.7027352298
 40
1.3
  0
ARC
  5
275
100
AcDbEntity
  8
0
100
AcDbCircle
 62
7
  6
BYLAYER
 10
30.3376467785
 20
7.9025859796
 40
0.6998475836
100
AcDbArc
 50
269.9942984602
 51
0.0056939564
  0
ARC
  5
276
100
AcDbEntity
  8
0
100
AcDbCircle
 62
7
  6
BYLAYER
 10
17.5374975134
 20
20.7027352298
 40
12.2
100
AcDbArc
 50
116.9669953084
 51
153.0330046916
  0
ARC
  5
277
100
AcDbEntity
  8
0
100
AcDbCircle
 62
7
  6
BYLAYER
 10
17.5374975134
 20
20.7027352298
 40
12.2
100
AcDbArc
 50
296.9669953084
 51
333.0330046916
  0
ARC
  5
278
100
AcDbEntity
  8
0
100
AcDbCircle
 62
7
  6
BYLAYER
 10
17.5374975134
 20
20.7027352298
 40
12.2
100
AcDbArc
 50
206.9669953084
 51
243.0330046916
  0
ARC
  5
279
100
AcDbEntity
  8
0
100
AcDbCircle
 62
7
  6
BYLAYER
 10
17.5374975134
 20
20.7027352298
 40
12.2
100
AcDbArc
 50
26.9669953084
 51
63.0330046916
  0
ARC
  5
27A
100
AcDbEntity
  8
0
100
AcDbCircle
 62
7
  6
BYLAYER
 10
17.5374975134
 20
20.7027352298
 40
10.3
100
AcDbArc
 50
46.9473188417
 51
47.7827746366
  0
ARC
  5
27B
100
AcDbEntity
  8
0
100
AcDbCircle
 62
7
  6
BYLAYER
 10
17.5374975134
 20
20.7027352298
 40
10.3
100
AcDbArc
 50
47.7870787212
 51
222.2149078098
  0
ARC
  5
27C
100
AcDbEntity
  8
0
100
AcDbCircle
 62
7
  6
BYLAYER
 10
17.5374975134
 20
20.7027352298
 40
10.3
100
AcDbArc
 50
227.7870787212
 51
43.0526811583
  0
ARC
  5
27D
100
AcDbEntity
  8
0
100
AcDbCircle
 62
7
  6
BYLAYER
 10
17.5374975134
 20
20.7027352298
 40
10.212260565
100
AcDbArc
 50
47.8010266901
 51
222.1989733099
  0
ARC
  5
27E
100
AcDbEntity
  8
0
100
AcDbCircle
 62
7
  6
BYLAYER
 10
17.5374975134
 20
20.7027352298
 40
10.212260565
100
AcDbArc
 50
227.8010266901
 51
42.1989733099
  0
ARC
  5
27F
100
AcDbEntity
  8
0
100
AcDbCircle
 62
7
  6
BYLAYER
 10
17.5374975134
 20
20.7027352298
 40
10.1453494193
100
AcDbArc
 50
47.8248903327
 51
222.1751096673
  0
ARC
  5
280
100
AcDbEntity
  8
0
100
AcDbCircle
 62
7
  6
BYLAYER
 10
17.5374975134
 20
20.7027352298
 40
10.1453494193
100
AcDbArc
 50
227.8248903327
 51
42.1751096673
  0
ARC
  5
281
100
AcDbEntity
  8
0
100
AcDbCircle
 62
7
  6
BYLAYER
 10
17.5374975134
 20
20.7027352298
 40
9.5783121635
100
AcDbArc
 50
47.9922714253
 51
222.0077278721
  0
ARC
  5
282
100
AcDbEntity
  8
0
100
AcDbCircle
 62
7
  6
BYLAYER
 10
17.5374975134
 20
20.7027352298
 40
9.5783121635
100
AcDbArc
 50
227.9922721279
 51
42.0077286115
  0
ARC
  5
283
100
AcDbEntity
  8
0
100
AcDbCircle
 62
7
  6
BYLAYER
 10
17.5374975134
 20
20.7027352298
 40
9.1452994616
100
AcDbArc
 50
48.1340888792
 51
41.8659111433
  0
ARC
  5
284
100
AcDbEntity
  8
0
100
AcDbCircle
 62
7
  6
BYLAYER
 10
17.5374975134
 20
20.7027352298
 40
9.0906953854
100
AcDbArc
 50
48.1529329969
 51
51.315464635
  0
ARC
  5
285
100
AcDbEntity
  8
0
100
AcDbCircle
 62
7
  6
BYLAYER
 10
17.5374975134
 20
20.7027352298
 40
9.0906953854
100
AcDbArc
 50
128.684535365
 51
141.315464635
  0
ARC
  5
286
100
AcDbEntity
  8
0
100
AcDbCircle
 62
7
  6
BYLAYER
 10
17.5374975134
 20
20.7027352298
 40
9.0906953854
100
AcDbArc
 50
218.684535365
 51
231.315464635
  0
ARC
  5
287
100
AcDbEntity
  8
0
100
AcDbCircle
 62
7
  6
BYLAYER
 10
17.5374975134
 20
20.7027352298
 40
9.0906953854
100
AcDbArc
 50
308.684535365
 51
321.315464635
  0
ARC
  5
288
100
AcDbEntity
  8
0
100
AcDbCircle
 62
7
  6
BYLAYER
 10
17.5374975134
 20
20.7027352298
 40
9.0906953854
100
AcDbArc
 50
38.684535365
 51
41.8470670031
  0
ARC
  5
289
100
AcDbEntity
  8
0
100
AcDbCircle
 62
7
  6
BYLAYER
 10
17.5374975134
 20
20.7027352298
 40
8.5728540609
100
AcDbArc
 50
308.3013539597
 51
321.6986460403
  0
ARC
  5
28A
100
AcDbEntity
  8
0
100
AcDbCircle
 62
7
  6
BYLAYER
 10
17.5374975134
 20
20.7027352298
 40
8.5728540609
100
AcDbArc
 50
48.3435915632
 51
51.6986460403
  0
ARC
  5
28B
100
AcDbEntity
  8
0
100
AcDbCircle
 62
7
  6
BYLAYER
 10
17.5374975134
 20
20.7027352298
 40
8.5728540609
100
AcDbArc
 50
38.3013539597
 51
41.6564094214
  0
ARC
  5
28C
100
AcDbEntity
  8
0
100
AcDbCircle
 62
7
  6
BYLAYER
 10
17.5374975134
 20
20.7027352298
 40
8.5728540609
100
AcDbArc
 50
128.3013539597
 51
141.6986460403
  0
ARC
  5
28D
100
AcDbEntity
  8
0
100
AcDbCircle
 62
7
  6
BYLAYER
 10
17.5374975134
 20
20.7027352298
 40
8.5728540609
100
AcDbArc
 50
218.3013539597
 51
231.6986460403
  0
ARC
  5
28E
100
AcDbEntity
  8
0
100
AcDbCircle
 62
7
  6
BYLAYER
 10
17.5374975134
 20
20.7027352298
 40
8.0804501844
100
AcDbArc
 50
37.8911079232
 51
41.4524001915
  0
ARC
  5
28F
100
AcDbEntity
  8
0
100
AcDbCircle
 62
7
  6
BYLAYER
 10
17.5374975134
 20
20.7027352298
 40
8.0804501844
100
AcDbArc
 50
307.8911079232
 51
322.1088920718
  0
ARC
  5
290
100
AcDbEntity
  8
0
100
AcDbCircle
 62
7
  6
BYLAYER
 10
17.5374975134
 20
20.7027352298
 40
8.0804501844
100
AcDbArc
 50
217.8911079232
 51
232.1088920718
  0
ARC
  5
291
100
AcDbEntity
  8
0
100
AcDbCircle
 62
7
  6
BYLAYER
 10
17.5374975134
 20
20.7027352298
 40
8.0804501844
100
AcDbArc
 50
127.8911079232
 51
142.1088920718
  0
ARC
  5
292
100
AcDbEntity
  8
0
100
AcDbCircle
 62
7
  6
BYLAYER
 10
17.5374975134
 20
20.7027352298
 40
8.0804501844
100
AcDbArc
 50
48.5475999975
 51
52.1088920718
  0
ARC
  5
293
100
AcDbEntity
  8
0
100
AcDbCircle
 62
7
  6
BYLAYER
 10
17.5374975134
 20
20.7027352298
 40
6.910245201
100
AcDbArc
 50
53.3206406532
 51
126.679359557
  0
ARC
  5
294
100
AcDbEntity
  8
0
100
AcDbCircle
 62
7
  6
BYLAYER
 10
17.5374975134
 20
20.7027352298
 40
6.910245201
100
AcDbArc
 50
143.3206406101
 51
216.6793593968
  0
ARC
  5
295
100
AcDbEntity
  8
0
100
AcDbCircle
 62
7
  6
BYLAYER
 10
17.5374975134
 20
20.7027352298
 40
6.910245201
100
AcDbArc
 50
233.3206405911
 51
306.6793594505
  0
ARC
  5
296
100
AcDbEntity
  8
0
100
AcDbCircle
 62
7
  6
BYLAYER
 10
17.5374975134
 20
20.7027352298
 40
6.910245201
100
AcDbArc
 50
323.320640436
 51
36.6793592966
  0
ARC
  5
297
100
AcDbEntity
  8
0
100
AcDbCircle
 62
7
  6
BYLAYER
 10
17.5374975134
 20
20.7027352298
 40
6.4178413245
100
AcDbArc
 50
233.9641032688
 51
306.0358967312
  0
ARC
  5
298
100
AcDbEntity
  8
0
100
AcDbCircle
 62
7
  6
BYLAYER
 10
17.5374975134
 20
20.7027352298
 40
6.4178413245
100
AcDbArc
 50
323.9641032688
 51
36.0358967312
  0
ARC
  5
299
100
AcDbEntity
  8
0
100
AcDbCircle
 62
7
  6
BYLAYER
 10
17.5374975134
 20
20.7027352298
 40
6.4178413245
100
AcDbArc
 50
53.9641032688
 51
126.0358967312
  0
ARC
  5
29A
100
AcDbEntity
  8
0
100
AcDbCircle
 62
7
  6
BYLAYER
 10
17.5374975134
 20
20.7027352298
 40
6.4178413245
100
AcDbArc
 50
143.9641032688
 51
216.0358967312
  0
ARC
  5
29B
100
AcDbEntity
  8
0
100
AcDbCircle
 62
7
  6
BYLAYER
 10
17.5374975134
 20
20.7027352298
 40
5.9728540609
100
AcDbArc
 50
144.6380871911
 51
215.3619128089
  0
ARC
  5
29C
100
AcDbEntity
  8
0
100
AcDbCircle
 62
7
  6
BYLAYER
 10
17.5374975134
 20
20.7027352298
 40
5.9728540609
100
AcDbArc
 50
54.6380871911
 51
125.3619128089
  0
ARC
  5
29D
100
AcDbEntity
  8
0
100
AcDbCircle
 62
7
  6
BYLAYER
 10
17.5374975134
 20
20.7027352298
 40
5.9728540609
100
AcDbArc
 50
324.6380871911
 51
35.3619128089
  0
ARC
  5
29E
100
AcDbEntity
  8
0
100
AcDbCircle
 62
7
  6
BYLAYER
 10
17.5374975134
 20
20.7027352298
 40
5.9728540609
100
AcDbArc
 50
234.6380871911
 51
305.3619128089
  0
ARC
  5
29F
100
AcDbEntity
  8
0
100
AcDbCircle
 62
7
  6
BYLAYER
 10
17.5374975134
 20
20.7027352298
 40
5.4804501844
100
AcDbArc
 50
325.5134750728
 51
34.4865246094
  0
ARC
  5
2A0
100
AcDbEntity
  8
0
100
AcDbCircle
 62
7
  6
BYLAYER
 10
17.5374975134
 20
20.7027352298
 40
5.4804501844
100
AcDbArc
 50
235.5134750945
 51
304.4865245085
  0
ARC
  5
2A1
100
AcDbEntity
  8
0
100
AcDbCircle
 62
7
  6
BYLAYER
 10
17.5374975134
 20
20.7027352298
 40
5.4804501844
100
AcDbArc
 50
145.5134755005
 51
214.4865249046
  0
ARC
  5
2A2
100
AcDbEntity
  8
0
100
AcDbCircle
 62
7
  6
BYLAYER
 10
17.5374975134
 20
20.7027352298
 40
5.4804501844
100
AcDbArc
 50
55.5134753887
 51
124.4865249226
  0
CIRCLE
  5
2A3
100
AcDbEntity
  8
0
100
AcDbCircle
 62
7
  6
BYLAYER
 10
17.5374975134
 20
20.7027352298
 40
2.5
  0
CIRCLE
  5
2A4
100
AcDbEntity
  8
0
100
AcDbCircle
 62
7
  6
BYLAYER
 10
17.5374975134
 20
20.7027352298
 40
1.9
  0
ARC
  5
2A5
100
AcDbEntity
  8
0
100
AcDbCircle
 62
7
  6
BYLAYER
 10
21.6387168443
 20
25.2989293075
 40
0.15
100
AcDbArc
 50
135.0000000002
 51
225.0
  0
ARC
  5
2A6
100
AcDbEntity
  8
0
100
AcDbCircle
 62
7
  6
BYLAYER
 10
22.1336915911
 20
24.8039545606
 40
0.15
100
AcDbArc
 50
224.9999999998
 51
315.0
  0
ARC
  5
2A7
100
AcDbEntity
  8
0
100
AcDbCircle
 62
7
  6
BYLAYER
 10
23.4024747295
 20
27.0650035513
 40
0.1487657137
100
AcDbArc
 50
167.411627329
 51
180.415249329
  0
ARC
  5
2A8
100
AcDbEntity
  8
0
100
AcDbCircle
 62
7
  6
BYLAYER
 10
23.8997658422
 20
26.5677124079
 40
0.148765676
100
AcDbArc
 50
269.5847476947
 51
282.5874662608
  0
ARC
  5
2A9
100
AcDbEntity
  8
0
100
AcDbCircle
 62
7
  6
BYLAYER
 10
23.4001530745
 20
27.0654546306
 40
0.1464015731
100
AcDbArc
 50
135.0686945033
 51
167.3858923454
  0
ARC
  5
2AA
100
AcDbEntity
  8
0
100
AcDbCircle
 62
7
  6
BYLAYER
 10
23.9002169241
 20
26.5653907733
 40
0.1464015538
100
AcDbArc
 50
282.6131838749
 51
314.9313074798
  0
ARC
  5
2AB
100
AcDbEntity
  8
0
100
AcDbCircle
 62
7
  6
BYLAYER
 10
27.5374975134
 20
30.7027352298
 40
2.0
100
AcDbArc
 50
67.024312837
 51
105.000000001
  0
ARC
  5
2AC
100
AcDbEntity
  8
0
100
AcDbCircle
 62
7
  6
BYLAYER
 10
27.5374975134
 20
30.7027352298
 40
2.0
100
AcDbArc
 50
344.9999999982
 51
22.9756871631
  0
ARC
  5
2AD
100
AcDbEntity
  8
0
100
AcDbCircle
 62
7
  6
BYLAYER
 10
27.5374975134
 20
30.7027352298
 40
1.7477483636
100
AcDbArc
 50
70.4119519197
 51
19.5880480804
  0
ARC
  5
2AE
100
AcDbEntity
  8
0
100
AcDbCircle
 62
7
  6
BYLAYER
 10
27.5374975134
 20
30.7027352298
 40
1.7372753246
100
AcDbArc
 50
70.5761618724
 51
19.4238381276
  0
CIRCLE
  5
2AF
100
AcDbEntity
  8
0
100
AcDbCircle
 62
7
  6
BYLAYER
 10
27.5374975134
 20
30.7027352298
 40
1.5
  0
CIRCLE
  5
2B0
100
AcDbEntity
  8
0
100
AcDbCircle
 62
7
  6
BYLAYER
 10
27.5374975134
 20
30.7027352298
 40
1.3
  0
ARC
  5
2B1
100
AcDbEntity
  8
0
100
AcDbCircle
 62
7
  6
BYLAYER
 10
30.3376467636
 20
33.5028844948
 40
0.6998475836
100
AcDbArc
 50
359.9942984557
 51
90.0056939564
  0
ARC
  5
2B2
100
AcDbEntity
  8
0
100
AcDbCircle
 62
7
  6
BYLAYER
 10
24.2550119347
 20
27.9152243979
 40
0.15
100
AcDbArc
 50
134.9999387757
 51
225.0
  0
ARC
  5
2B3
100
AcDbEntity
  8
0
100
AcDbCircle
 62
7
  6
BYLAYER
 10
24.7499866815
 20
27.420249651
 40
0.15
100
AcDbArc
 50
225.0
 51
315.0
  0
ARC
  5
2B4
100
AcDbEntity
  8
0
100
AcDbCircle
 62
7
  6
BYLAYER
 10
24.1985567149
 20
27.8588178582
 40
0.1499655779
100
AcDbArc
 50
135.0007241249
 51
225.0007237923
  0
ARC
  5
2B5
100
AcDbEntity
  8
0
100
AcDbCircle
 62
7
  6
BYLAYER
 10
24.6935801419
 20
27.3637944312
 40
0.1499655779
100
AcDbArc
 50
224.9992762075
 51
314.9992758752
  0
SPLINE
  5
2B6
100
AcDbEntity
  8
0
100
AcDbSpline
 62
7
  6
BYLAYER
 70
0
 71
3
 72
19
 73
15
 74
0
 42
0.0000001
 43
0.0000001
 44
0.0000000001
 40
0.0
 40
0.0
 40
0.0
 40
0.0
 40
0.1256911025
 40
0.2508395067
 40
0.3132443276
 40
0.3755541793
 40
0.4377954691
 40
0.5000006043
 40
0.5622061515
 40
0.6244474583
 40
0.6867570417
 40
0.7491614899
 40
0.8743092835
 40
1.0
 40
1.0
 40
1.0
 40
1.0
 10
21.0015991286
 20
35.3646154451
 30
0.0
 10
20.8611309257
 20
35.3177927108
 30
0.0
 10
20.5781675904
 20
35.2319654488
 30
0.0
 10
20.218167703
 20
35.1491848463
 30
0.0
 10
19.9276882179
 20
35.1011401491
 30
0.0
 10
19.7089476925
 20
35.0748469491
 30
0.0
 10
19.4894479964
 20
35.0587935963
 30
0.0
 10
19.2695458475
 20
35.0534370552
 30
0.0
 10
19.0496447695
 20
35.0588148405
 30
0.0
 10
18.8301436311
 20
35.0748450165
 30
0.0
 10
18.6114016257
 20
35.1011253767
 30
0.0
 10
18.3209292874
 20
35.1492039012
 30
0.0
 10
17.9609269374
 20
35.2319616463
 30
0.0
 10
17.6779652849
 20
35.3177928546
 30
0.0
 10
17.5374975134
 20
35.3646154451
 30
0.0
  0
SPLINE
  5
2B7
100
AcDbEntity
  8
0
100
AcDbSpline
 62
7
  6
BYLAYER
 70
0
 71
3
 72
19
 73
15
 74
0
 42
0.0000001
 43
0.0000001
 44
0.0000000001
 40
0.0
 40
0.0
 40
0.0
 40
0.0
 40
0.1256911015
 40
0.2508395135
 40
0.3132443319
 40
0.3755541825
 40
0.4377954735
 40
0.5000006093
 40
0.5622061556
 40
0.6244474602
 40
0.6867570444
 40
0.7491614945
 40
0.8743092824
 40
1.0
 40
1.0
 40
1.0
 40
1.0
 10
17.5374975134
 20
37.1408550144
 30
0.0
 10
17.6779657153
 20
37.1876777484
 30
0.0
 10
17.9609291195
 20
37.273504783
 30
0.0
 10
18.3209289149
 20
37.3562858113
 30
0.0
 10
18.6114084375
 20
37.4043303429
 30
0.0
 10
18.8301489686
 20
37.4306234557
 30
0.0
 10
19.0496486643
 20
37.4466768073
 30
0.0
 10
19.2695508115
 20
37.452033438
 30
0.0
 10
19.4894518897
 20
37.4466557044
 30
0.0
 10
19.7089530216
 20
37.4306254589
 30
0.0
 10
19.9276950189
 20
37.4043450311
 30
0.0
 10
20.2181673531
 20
37.3562665145
 30
0.0
 10
20.5781697295
 20
37.2735088884
 30
0.0
 10
20.8611313557
 20
37.1876776054
 30
0.0
 10
21.0015991286
 20
37.1408550144
 30
0.0
  0
SPLINE
  5
2B8
100
AcDbEntity
  8
0
100
AcDbSpline
 62
7
  6
BYLAYER
 70
0
 71
3
 72
19
 73
15
 74
0
 42
0.0000001
 43
0.0000001
 44
0.0000000001
 40
0.0
 40
0.0
 40
0.0
 40
0.0
 40
0.1256911025
 40
0.2508395067
 40
0.3132443276
 40
0.3755541793
 40
0.4377954691
 40
0.5000006043
 40
0.5622061515
 40
0.6244474583
 40
0.6867570417
 40
0.7491614899
 40
0.8743092835
 40
1.0
 40
1.0
 40
1.0
 40
1.0
 10
17.5374975134
 20
35.3646154451
 30
0.0
 10
17.3970293106
 20
35.3177927108
 30
0.0
 10
17.1140659752
 20
35.2319654488
 30
0.0
 10
16.7540660878
 20
35.1491848463
 30
0.0
 10
16.4635866028
 20
35.1011401491
 30
0.0
 10
16.2448460774
 20
35.0748469491
 30
0.0
 10
16.0253463813
 20
35.0587935963
 30
0.0
 10
15.8054442324
 20
35.0534370552
 30
0.0
 10
15.5855431544
 20
35.0588148405
 30
0.0
 10
15.366042016
 20
35.0748450165
 30
0.0
 10
15.1473000105
 20
35.1011253767
 30
0.0
 10
14.8568276722
 20
35.1492039012
 30
0.0
 10
14.4968253223
 20
35.2319616463
 30
0.0
 10
14.2138636698
 20
35.3177928546
 30
0.0
 10
14.0733958983
 20
35.3646154451
 30
0.0
  0
SPLINE
  5
2B9
100
AcDbEntity
  8
0
100
AcDbSpline
 62
7
  6
BYLAYER
 70
0
 71
3
 72
19
 73
15
 74
0
 42
0.0000001
 43
0.0000001
 44
0.0000000001
 40
0.0
 40
0.0
 40
0.0
 40
0.0
 40
0.1256911015
 40
0.2508395135
 40
0.3132443319
 40
0.3755541825
 40
0.4377954735
 40
0.5000006093
 40
0.5622061556
 40
0.6244474602
 40
0.6867570444
 40
0.7491614945
 40
0.8743092824
 40
1.0
 40
1.0
 40
1.0
 40
1.0
 10
14.0733958983
 20
37.1408550144
 30
0.0
 10
14.2138641002
 20
37.1876777484
 30
0.0
 10
14.4968275043
 20
37.273504783
 30
0.0
 10
14.8568272997
 20
37.3562858113
 30
0.0
 10
15.1473068223
 20
37.4043303429
 30
0.0
 10
15.3660473534
 20
37.4306234557
 30
0.0
 10
15.5855470492
 20
37.4466768073
 30
0.0
 10
15.8054491964
 20
37.452033438
 30
0.0
 10
16.0253502746
 20
37.4466557044
 30
0.0
 10
16.2448514065
 20
37.4306254589
 30
0.0
 10
16.4635934038
 20
37.4043450311
 30
0.0
 10
16.754065738
 20
37.3562665145
 30
0.0
 10
17.1140681144
 20
37.2735088884
 30
0.0
 10
17.3970297405
 20
37.1876776054
 30
0.0
 10
17.5374975134
 20
37.1408550144
 30
0.0
  0
SPLINE
  5
2BA
100
AcDbEntity
  8
0
100
AcDbSpline
 62
7
  6
BYLAYER
 70
0
 71
3
 72
9
 73
5
 74
0
 42
0.0000001
 43
0.0000001
 44
0.0000000001
 40
0.0
 40
0.0
 40
0.0
 40
0.0
 40
0.5010253052
 40
1.0
 40
1.0
 40
1.0
 40
1.0
 10
22.9598726367
 20
26.6200850998
 30
0.0
 10
22.9460855859
 20
26.6338721506
 30
0.0
 10
22.9236801305
 20
26.6670365102
 30
0.0
 10
22.9156153177
 20
26.7062616903
 30
0.0
 10
22.9154666912
 20
26.7256791544
 30
0.0
  0
SPLINE
  5
2BB
100
AcDbEntity
  8
0
100
AcDbSpline
 62
7
  6
BYLAYER
 70
0
 71
3
 72
9
 73
5
 74
0
 42
0.0000001
 43
0.0000001
 44
0.0000000001
 40
0.0
 40
0.0
 40
0.0
 40
0.0
 40
0.501046019
 40
1.0
 40
1.0
 40
1.0
 40
1.0
 10
22.9154666912
 20
26.7256791544
 30
0.0
 10
22.9153189329
 20
26.7449832026
 30
0.0
 10
22.9226691721
 20
26.7839693607
 30
0.0
 10
22.9446678275
 20
26.817012325
 30
0.0
 10
22.9582612555
 20
26.830605753
 30
0.0
  0
SPLINE
  5
2BC
100
AcDbEntity
  8
0
100
AcDbSpline
 62
7
  6
BYLAYER
 70
0
 71
3
 72
9
 73
5
 74
0
 42
0.0000001
 43
0.0000001
 44
0.0000000001
 40
0.0
 40
0.0
 40
0.0
 40
0.0
 40
0.4989746948
 40
1.0
 40
1.0
 40
1.0
 40
1.0
 10
23.2537129228
 20
27.063925386
 30
0.0
 10
23.2538615493
 20
27.0445079219
 30
0.0
 10
23.261926362
 20
27.0052827418
 30
0.0
 10
23.2843318175
 20
26.9721183822
 30
0.0
 10
23.2981188682
 20
26.9583313314
 30
0.0
  0
SPLINE
  5
2BD
100
AcDbEntity
  8
0
100
AcDbSpline
 62
7
  6
BYLAYER
 70
0
 71
3
 72
16
 73
12
 74
0
 42
0.0000001
 43
0.0000001
 44
0.0000000001
 40
0.0
 40
0.0
 40
0.0
 40
0.0
 40
0.1580795781
 40
0.2361150726
 40
0.3125747534
 40
0.5270499251
 40
0.7127562704
 40
0.7938863603
 40
0.8676492836
 40
0.9355825718
 40
1.0
 40
1.0
 40
1.0
 40
1.0
 10
23.4561095719
 20
27.116322035
 30
0.0
 10
23.4492165285
 20
27.1232150784
 30
0.0
 10
23.439457653
 20
27.134069359
 30
0.0
 10
23.4277495293
 20
27.1493911347
 30
0.0
 10
23.4149637651
 20
27.1682216553
 30
0.0
 10
23.4012094237
 20
27.1943841662
 30
0.0
 10
23.3931538952
 20
27.2233408331
 30
0.0
 10
23.3924021373
 20
27.2444298157
 30
0.0
 10
23.3945422021
 20
27.258106695
 30
0.0
 10
23.3993272665
 20
27.2700104342
 30
0.0
 10
23.4042928475
 20
27.2766375027
 30
0.0
 10
23.4071018416
 20
27.2794463391
 30
0.0
  0
SPLINE
  5
2BE
100
AcDbEntity
  8
0
100
AcDbSpline
 62
7
  6
BYLAYER
 70
0
 71
3
 72
11
 73
7
 74
0
 42
0.0000001
 43
0.0000001
 44
0.0000000001
 40
0.0
 40
0.0
 40
0.0
 40
0.0
 40
0.2561132732
 40
0.5086890799
 40
0.7561758452
 40
1.0
 40
1.0
 40
1.0
 40
1.0
 10
24.0362454803
 20
27.6964579435
 30
0.0
 10
24.0224770729
 20
27.7102263509
 30
0.0
 10
23.9999947858
 20
27.7429920144
 30
0.0
 10
23.9869387241
 20
27.8003950976
 30
0.0
 10
23.9965456123
 20
27.857634384
 30
0.0
 10
24.0176390867
 20
27.889983508
 30
0.0
 10
24.0307468046
 20
27.9030913021
 30
0.0
  0
LINE
  5
2BF
100
AcDbEntity
  8
0
100
AcDbLine
 62
7
  6
BYLAYER
 10
24.2548965611
 20
27.9151090243
 11
24.1489453286
 21
28.0212898261
  0
SPLINE
  5
2C0
100
AcDbEntity
  8
0
100
AcDbSpline
 62
7
  6
BYLAYER
 70
0
 71
3
 72
11
 73
7
 74
0
 42
0.0000001
 43
0.0000001
 44
0.0000000001
 40
0.0
 40
0.0
 40
0.0
 40
0.0
 40
0.2561132985
 40
0.5086891043
 40
0.7561758471
 40
1.0
 40
1.0
 40
1.0
 40
1.0
 10
24.5312202271
 20
27.2014831966
 30
0.0
 10
24.544988691
 20
27.1877147327
 30
0.0
 10
24.5777545116
 20
27.165232374
 30
0.0
 10
24.6351578676
 20
27.1521763934
 30
0.0
 10
24.6923973555
 20
27.1617835589
 30
0.0
 10
24.7247464888
 20
27.182877319
 30
0.0
 10
24.7378542448
 20
27.1959851799
 30
0.0
  0
SPLINE
  5
2C1
100
AcDbEntity
  8
0
100
AcDbSpline
 62
7
  6
BYLAYER
 70
0
 71
3
 72
9
 73
5
 74
0
 42
0.0000001
 43
0.0000001
 44
0.0000000001
 40
0.0
 40
0.0
 40
0.0
 40
0.0
 40
0.4989542596
 40
1.0
 40
1.0
 40
1.0
 40
1.0
 10
23.6653680367
 20
26.1234989719
 30
0.0
 10
23.6517742051
 20
26.1099051403
 30
0.0
 10
23.6187300878
 20
26.0879060044
 30
0.0
 10
23.5797426004
 20
26.0805562217
 30
0.0
 10
23.5604380041
 20
26.0807044339
 30
0.0
  0
SPLINE
  5
2C2
100
AcDbEntity
  8
0
100
AcDbSpline
 62
7
  6
BYLAYER
 70
0
 71
3
 72
9
 73
5
 74
0
 42
0.0000001
 43
0.0000001
 44
0.0000000001
 40
0.0
 40
0.0
 40
0.0
 40
0.0
 40
0.4989747473
 40
1.0
 40
1.0
 40
1.0
 40
1.0
 10
23.5604380041
 20
26.0807044339
 30
0.0
 10
23.5410211018
 20
26.0808535084
 30
0.0
 10
23.5017972597
 20
26.0889187451
 30
0.0
 10
23.468634035
 20
26.1113237015
 30
0.0
 10
23.4548473835
 20
26.125110353
 30
0.0
  0
SPLINE
  5
2C3
100
AcDbEntity
  8
0
100
AcDbSpline
 62
7
  6
BYLAYER
 70
0
 71
3
 72
9
 73
5
 74
0
 42
0.0000001
 43
0.0000001
 44
0.0000000001
 40
0.0
 40
0.0
 40
0.0
 40
0.0
 40
0.5010253052
 40
1.0
 40
1.0
 40
1.0
 40
1.0
 10
23.7930936149
 20
26.4633565844
 30
0.0
 10
23.8068806656
 20
26.4495695336
 30
0.0
 10
23.8400450252
 20
26.4271640782
 30
0.0
 10
23.8792702054
 20
26.4190992654
 30
0.0
 10
23.8986876694
 20
26.4189506389
 30
0.0
  0
SPLINE
  5
2C4
100
AcDbEntity
  8
0
100
AcDbSpline
 62
7
  6
BYLAYER
 70
0
 71
3
 72
16
 73
12
 74
0
 42
0.0000001
 43
0.0000001
 44
0.0000000001
 40
0.0
 40
0.0
 40
0.0
 40
0.0
 40
0.1580790244
 40
0.236114268
 40
0.312573739
 40
0.5270486507
 40
0.7127553555
 40
0.7938857917
 40
0.8676490767
 40
0.9355826054
 40
1.0
 40
1.0
 40
1.0
 40
1.0
 10
23.9510843167
 20
26.6213472862
 30
0.0
 10
23.9579772828
 20
26.6144543202
 30
0.0
 10
23.9688314361
 20
26.6046955471
 30
0.0
 10
23.9841530258
 20
26.5929875284
 30
0.0
 10
24.0029833356
 20
26.5802018456
 30
0.0
 10
24.0291455849
 20
26.5664475199
 30
0.0
 10
24.0581019786
 20
26.5583918345
 30
0.0
 10
24.0791908489
 20
26.5576397944
 30
0.0
 10
24.0928677158
 20
26.5597795897
 30
0.0
 10
24.1047715127
 20
26.5645643221
 30
0.0
 10
24.1113986952
 20
26.5695296592
 30
0.0
 10
24.1142076017
 20
26.5723385368
 30
0.0
  0
ENDSEC
  0
SECTION
  2
OBJECTS
  0
DICTIONARY
  5
C
100
AcDbDictionary
280
0
281
1
  3
ACAD_GROUP
350
D
  3
ACAD_MLINESTYLE
350
17
  3
ACAD_LAYOUT
350
1A
  3
ACAD_PLOTSETTINGS
350
19
  3
ACAD_PLOTSTYLENAME
350
E
  0
DICTIONARY
  5
D
102
{ACAD_REACTORS
330
C
102
}
100
AcDbDictionary
280
0
281
1
  0
ACDBDICTIONARYWDFLT
  5
E
102
{ACAD_REACTORS
330
C
102
}
100
AcDbDictionary
281
1
  3
Normal
350
F
100
AcDbDictionaryWithDefault
340
F
  0
DICTIONARY
  5
17
102
{ACAD_REACTORS
330
C
102
}
100
AcDbDictionary
280
0
281
1
  3
Standard
350
18
  0
DICTIONARY
  5
19
102
{ACAD_REACTORS
330
C
102
}
100
AcDbDictionary
281
1
  0
DICTIONARY
  5
1A
102
{ACAD_REACTORS
330
C
102
}
100
AcDbDictionary
281
1
  3
Model
350
2C5
  3
Layout1
350
2C6
  0
ACDBPLACEHOLDER
  5
F
102
{ACAD_REACTORS
330
E
102
}
  0
MLINESTYLE
  5
18
102
{ACAD_REACTORS
330
17
102
}
100
AcDbMlineStyle
  2
STANDARD
 70
0
  3

 62
256
 51
90.0
 52
90.0
 71
2
 49
0.5
 62
256
  6
BYLAYER
 49
-0.5
 62
256
  6
BYLAYER
  0
LAYOUT
  5
2C5
102
{ACAD_REACTORS
330
1A
102
}
100
AcDbPlotSettings
  1

  2
none_device
  4

  6

 40
0.0
 41
0.0
 42
0.0
 43
0.0
 44
210.0
 45
297.0
 46
0.0
 47
0.0
 48
0.0
 49
0.0
140
0.0
141
0.0
142
1.0
143
1.0
 70
1024
 72
1
 73
0
 74
0
  7

 75
0
147
1.0
148
0.0
149
0.0
100
AcDbLayout
  1
Model
 70
0
 71
0
 10
0.0
 20
0.0
 11
210.0
 21
297.0
 12
0.0
 22
0.0
 32
0.0
 14
0.0
 24
0.0
 34
0.0
 15
0.0
 25
0.0
 35
0.0
146
0.0
 13
0.0
 23
0.0
 33
0.0
 16
1.0
 26
0.0
 36
0.0
 17
0.0
 27
1.0
 37
0.0
 76
0
330
210
345
0
346
0
  0
LAYOUT
  5
2C6
102
{ACAD_REACTORS
330
1A
102
}
100
AcDbPlotSettings
  1

  2
none_device
  4

  6

 40
0.0
 41
0.0
 42
0.0
 43
0.0
 44
210.0
 45
297.0
 46
0.0
 47
0.0
 48
0.0
 49
0.0
140
0.0
141
0.0
142
1.0
143
1.0
 70
0
 72
1
 73
0
 74
0
  7

 75
0
147
1.0
148
0.0
149
0.0
100
AcDbLayout
  1
Layout1
 70
0
 71
1
 10
0.0
 20
0.0
 11
210.0
 21
297.0
 12
0.0
 22
0.0
 32
0.0
 14
0.0
 24
0.0
 34
0.0
 15
0.0
 25
0.0
 35
0.0
146
0.0
 13
0.0
 23
0.0
 33
0.0
 16
1.0
 26
0.0
 36
0.0
 17
0.0
 27
1.0
 37
0.0
 76
0
330
211
345
0
346
0
  0
ENDSEC
  0
EOF
