999
DXF file: C:\Users\sesa63760\Dev\_Creo\CAD\MCADID0003705_3D-CAD\drw0001_1.dxf
999
Pro/ENGINEER 2019471 by Parametric Technology Corporation
  0
SECTION
  2
HEADER
  9
$ACADVER
  1
AC1024
  9
$DWGCODEPAGE
  3
ANSI_1252
  9
$EXTMAX
 10
43.2339963614
 20
61.1452234254
 30
0.0
  9
$EXTMIN
 10
0.0
 20
0.0
 30
0.0
  9
$LIMMIN
 10
0.0
 20
0.0
  9
$LIMMAX
 10
43.2339963614
 20
61.1452234254
  9
$VIEWCTR
 10
21.6169981807
 20
30.5726117127
  9
$VIEWSIZE
 40
61.1452234254
  9
$CLAYER
  8
0
  9
$LTSCALE
 40
3.9857627122
  9
$CELTYPE
  6
BYLAYER
  9
$DIMSCALE
 40
1.0
  9
$DIMASZ
 40
0.5146904329
  9
$DIMEXO
 40
1.0
  9
$DIMDLI
 40
2.753799692
  9
$DIMEXE
 40
1.0
  9
$DIMCEN
 40
0.6522157165
  9
$DIMLFAC
 40
1.0
  9
$DIMBLK
  1
_FILLED
  9
$DIMALT
 70
0
  9
$DIMALTF
 40
0.0393700787
  9
$DIMTXT
 40
0.720566606
  9
$DIMTOL
 70
1
  9
$DIMLIM
 70
0
  9
$DIMTFAC
 40
1.0
  9
$DIMTP
 40
0.01
  9
$DIMTM
 40
0.01
  9
$DIMGAP
 40
0.625
  9
$DIMDSEP
 70
46
  9
$AUNITS
 70
0
  9
$PDMODE
 70
3
  9
$PDSIZE
 40
0.3125
  9
$HANDSEED
  5
273
  9
$TILEMODE
 70
1
  9
$MEASUREMENT
 70
1
  9
$INSUNITS
 70
4
  0
ENDSEC
  0
SECTION
  2
CLASSES
  0
CLASS
  1
ACDBDICTIONARYWDFLT
  2
AcDbDictionaryWithDefault
  3
AutoCAD 2000
 90
0
 91
1
280
0
281
0
  0
CLASS
  1
ACDBPLACEHOLDER
  2
AcDbPlaceHolder
  3
AutoCAD 2000
 90
0
 91
1
280
0
281
0
  0
CLASS
  1
LAYOUT
  2
AcDbLayout
  3
AutoCAD 2000
 90
0
 91
0
280
0
281
0
  0
ENDSEC
  0
SECTION
  2
TABLES
  0
TABLE
  2
VPORT
  5
8
100
AcDbSymbolTable
 70
2
  0
VPORT
  5
1F4
100
AcDbSymbolTableRecord
100
AcDbViewportTableRecord
  2
*ACTIVE
 70
0
 10
0.0
 20
0.0
 11
1.0
 21
1.0
 12
21.6169981807
 22
30.5726117127
 13
0.0
 23
0.0
 14
1.0
 24
1.0
 15
0.0
 25
0.0
 16
0.0
 26
0.0
 36
1.0
 17
0.0
 27
0.0
 37
0.0
 40
61.1452234254
 41
0.7070707071
 42
50.0
 43
0.0
 44
0.0
 50
0.0
 51
0.0
 71
0
 72
100
 73
1
 74
1
 75
0
 76
0
 77
0
 78
0
  0
ENDTAB
  0
TABLE
  2
LTYPE
  5
5
100
AcDbSymbolTable
 70
6
  0
LTYPE
  5
14
100
AcDbSymbolTableRecord
100
AcDbLinetypeTableRecord
  2
BYBLOCK
 70
0
  3

 72
65
 73
0
 40
0.0
  0
LTYPE
  5
15
100
AcDbSymbolTableRecord
100
AcDbLinetypeTableRecord
  2
BYLAYER
 70
0
  3

 72
65
 73
0
 40
0.0
  0
LTYPE
  5
16
100
AcDbSymbolTableRecord
100
AcDbLinetypeTableRecord
  2
CONTINUOUS
 70
64
  3
Solid line
 72
65
 73
0
 40
0.0
  0
LTYPE
  5
1F5
100
AcDbSymbolTableRecord
100
AcDbLinetypeTableRecord
  2
CENTER
 70
64
  3
____ _ ____ _ ____ _ ____ _ ____ _ ____ _ ____
 72
65
 73
4
 40
0.6
 49
0.375
 74
0
 49
-0.075
 74
0
 49
0.075
 74
0
 49
-0.075
 74
0
  0
LTYPE
  5
1F6
100
AcDbSymbolTableRecord
100
AcDbLinetypeTableRecord
  2
HIDDEN
 70
64
  3
- - - - - - - - - - - - - - - - - - - -
 72
65
 73
2
 40
0.2
 49
0.1
 74
0
 49
-0.1
 74
0
  0
LTYPE
  5
1F7
100
AcDbSymbolTableRecord
100
AcDbLinetypeTableRecord
  2
PHANTOM
 70
64
  3
_____ _ _ _____ _ _ _____ _ _ _____
 72
65
 73
6
 40
0.8
 49
0.45
 74
0
 49
-0.05
 74
0
 49
0.1
 74
0
 49
-0.05
 74
0
 49
0.1
 74
0
 49
-0.05
 74
0
  0
LTYPE
  5
1F8
100
AcDbSymbolTableRecord
100
AcDbLinetypeTableRecord
  2
DOT
 70
64
  3
. . . . . . . . . . . . . . . . . . . .
 72
65
 73
2
 40
0.2
 49
0.1
 74
0
 49
-0.1
 74
0
  0
LTYPE
  5
1F9
100
AcDbSymbolTableRecord
100
AcDbLinetypeTableRecord
  2
DASHED
 70
64
  3
- - - - - - - - - - - - - - - - - - - -
 72
65
 73
2
 40
0.2
 49
0.1
 74
0
 49
-0.1
 74
0
  0
ENDTAB
  0
TABLE
  2
LAYER
  5
2
100
AcDbSymbolTable
 70
36
  0
LAYER
  5
10
100
AcDbSymbolTableRecord
100
AcDbLayerTableRecord
  2
0
 70
0
 62
7
  6
CONTINUOUS
370
-3
390
F
  0
LAYER
  5
1FA
100
AcDbSymbolTableRecord
100
AcDbLayerTableRecord
  2
DEFAULT_1
 70
0
 62
7
  6
CENTER
370
-3
390
F
  0
LAYER
  5
1FB
100
AcDbSymbolTableRecord
100
AcDbLayerTableRecord
  2
DEFAULT_2
 70
0
 62
7
  6
HIDDEN
370
-3
390
F
  0
LAYER
  5
1FC
100
AcDbSymbolTableRecord
100
AcDbLayerTableRecord
  2
DEFAULT_3
 70
0
 62
7
  6
PHANTOM
370
-3
390
F
  0
LAYER
  5
1FD
100
AcDbSymbolTableRecord
100
AcDbLayerTableRecord
  2
00_COMPONENTS
 70
0
 62
7
  6
CONTINUOUS
370
-3
390
F
  0
LAYER
  5
1FE
100
AcDbSymbolTableRecord
100
AcDbLayerTableRecord
  2
01_1_DEFAULT_DATUMS
 70
0
 62
7
  6
CONTINUOUS
370
-3
390
F
  0
LAYER
  5
1FF
100
AcDbSymbolTableRecord
100
AcDbLayerTableRecord
  2
01_PLANES
 70
0
 62
7
  6
CONTINUOUS
370
-3
390
F
  0
LAYER
  5
200
100
AcDbSymbolTableRecord
100
AcDbLayerTableRecord
  2
02_COORD_SYS
 70
0
 62
7
  6
CONTINUOUS
370
-3
390
F
  0
LAYER
  5
201
100
AcDbSymbolTableRecord
100
AcDbLayerTableRecord
  2
03_AXES
 70
0
 62
7
  6
CONTINUOUS
370
-3
390
F
  0
LAYER
  5
202
100
AcDbSymbolTableRecord
100
AcDbLayerTableRecord
  2
04_POINTS
 70
0
 62
7
  6
CONTINUOUS
370
-3
390
F
  0
LAYER
  5
203
100
AcDbSymbolTableRecord
100
AcDbLayerTableRecord
  2
05_CURVES
 70
0
 62
7
  6
CONTINUOUS
370
-3
390
F
  0
LAYER
  5
204
100
AcDbSymbolTableRecord
100
AcDbLayerTableRecord
  2
06_SURFS
 70
0
 62
7
  6
CONTINUOUS
370
-3
390
F
  0
LAYER
  5
205
100
AcDbSymbolTableRecord
100
AcDbLayerTableRecord
  2
07_COSMETICS
 70
0
 62
7
  6
CONTINUOUS
370
-3
390
F
  0
LAYER
  5
206
100
AcDbSymbolTableRecord
100
AcDbLayerTableRecord
  2
10_NOTES
 70
0
 62
7
  6
CONTINUOUS
370
-3
390
F
  0
LAYER
  5
207
100
AcDbSymbolTableRecord
100
AcDbLayerTableRecord
  2
11_NOTES_PUB
 70
0
 62
7
  6
CONTINUOUS
370
-3
390
F
  0
LAYER
  5
208
100
AcDbSymbolTableRecord
100
AcDbLayerTableRecord
  2
13_REF_GTOL
 70
0
 62
7
  6
CONTINUOUS
370
-3
390
F
  0
LAYER
  5
209
100
AcDbSymbolTableRecord
100
AcDbLayerTableRecord
  2
16_MISC
 70
0
 62
7
  6
CONTINUOUS
370
-3
390
F
  0
LAYER
  5
20A
100
AcDbSymbolTableRecord
100
AcDbLayerTableRecord
  2
17_NO_PRINT
 70
0
 62
7
  6
CONTINUOUS
370
-3
390
F
  0
LAYER
  5
20B
100
AcDbSymbolTableRecord
100
AcDbLayerTableRecord
  2
18_DATUM_CAMS_JOINTS
 70
0
 62
7
  6
CONTINUOUS
370
-3
390
F
  0
LAYER
  5
20C
100
AcDbSymbolTableRecord
100
AcDbLayerTableRecord
  2
19_DATUM_FUNCTIONAL
 70
0
 62
7
  6
CONTINUOUS
370
-3
390
F
  0
LAYER
  5
20D
100
AcDbSymbolTableRecord
100
AcDbLayerTableRecord
  2
20_DATUM_KINEMATIC_SCHEME
 70
0
 62
7
  6
CONTINUOUS
370
-3
390
F
  0
ENDTAB
  0
TABLE
  2
STYLE
  5
3
100
AcDbSymbolTable
 70
1
  0
STYLE
  5
11
100
AcDbSymbolTableRecord
100
AcDbTextStyleTableRecord
  2
STANDARD
 70
0
 40
0.0
 41
1.0
 50
0.0
 71
0
 42
0.2
  3
ARIAL.TTF
  4

  0
STYLE
  5
20E
100
AcDbSymbolTableRecord
100
AcDbTextStyleTableRecord
  2
TEXTSTYLE_1
 70
0
 40
0.0
 41
0.8
 50
0.0
 71
0
 42
0.2
  3
gdt
  4

  0
ENDTAB
  0
TABLE
  2
VIEW
  5
6
100
AcDbSymbolTable
 70
0
  0
ENDTAB
  0
TABLE
  2
UCS
  5
7
100
AcDbSymbolTable
 70
0
  0
ENDTAB
  0
TABLE
  2
APPID
  5
9
100
AcDbSymbolTable
 70
1
  0
APPID
  5
20F
100
AcDbSymbolTableRecord
100
AcDbRegAppTableRecord
  2
ACAD
 70
0
  0
ENDTAB
  0
TABLE
  2
BLOCK_RECORD
  5
1
100
AcDbSymbolTable
 70
0
  0
BLOCK_RECORD
  5
210
100
AcDbSymbolTableRecord
100
AcDbBlockTableRecord
  2
*Model_Space
  0
BLOCK_RECORD
  5
211
100
AcDbSymbolTableRecord
100
AcDbBlockTableRecord
  2
*Paper_Space
  0
BLOCK_RECORD
  5
212
100
AcDbSymbolTableRecord
100
AcDbBlockTableRecord
  2
_FILLED
  0
ENDTAB
  0
TABLE
  2
DIMSTYLE
  5
A
100
AcDbSymbolTable
 70
1
100
AcDbDimStyleTable
 71
0
  0
DIMSTYLE
105
213
100
AcDbSymbolTableRecord
100
AcDbDimStyleTableRecord
  2
STANDARD
 70
0
  3

  4

 40
1.0
 41
0.5146904329
 42
1.0
 43
0.38
 44
1.0
 45
0.0
 46
0.0
 47
0.01
 48
0.01
140
0.720566606
141
0.09
142
0.0
143
25.4
144
1.0
145
0.0
146
1.0
147
0.625
 71
1
 72
0
 73
0
 74
0
 75
0
 76
0
 77
1
 78
8
 79
2
170
0
171
1
172
0
173
0
174
0
175
0
176
0
177
0
178
0
270
2
179
2
271
2
272
2
273
2
274
2
275
0
280
0
281
0
282
0
283
1
284
8
285
0
286
0
287
3
288
0
340
11
278
46
341
212
342
212
343
212
344
212
  0
ENDTAB
  0
ENDSEC
  0
SECTION
  2
BLOCKS
  0
BLOCK
  5
20
100
AcDbEntity
  8
0
100
AcDbBlockBegin
  2
*Model_Space
 70
0
 10
0.0
 20
0.0
 30
0.0
  3
*Model_Space
  1

  0
ENDBLK
  5
21
100
AcDbEntity
  8
0
100
AcDbBlockEnd
  0
BLOCK
  5
1C
100
AcDbEntity
  8
0
100
AcDbBlockBegin
  2
*Paper_Space
 70
0
 10
0.0
 20
0.0
 30
0.0
  3
*Paper_Space
  1

  0
ENDBLK
  5
1D
100
AcDbEntity
  8
0
100
AcDbBlockEnd
  0
BLOCK
  5
214
100
AcDbEntity
  8
0
100
AcDbBlockBegin
  2
_FILLED
 70
64
 10
0.0
 20
0.0
  3
_FILLED
  1

  0
SOLID
  5
215
100
AcDbEntity
  8
0
  6
BYBLOCK
 62
0
100
AcDbTrace
 10
0.0
 20
0.0
 11
-1.0
 21
0.25
 12
-1.0
 22
-0.25
 13
-1.0
 23
-0.25
  0
ENDBLK
  5
216
100
AcDbEntity
  8
0
  6
BYBLOCK
 62
0
100
AcDbBlockEnd
  0
ENDSEC
  0
SECTION
  2
ENTITIES
  0
LINE
  5
217
100
AcDbEntity
  8
0
100
AcDbLine
 62
7
  6
BYLAYER
 10
5.1608412629
 20
50.391078617
 11
7.7771254606
 21
51.9015819863
  0
LINE
  5
218
100
AcDbEntity
  8
0
100
AcDbLine
 62
7
  6
BYLAYER
 10
5.0143961255
 20
50.1869582397
 11
5.0143961255
 21
29.9742920386
  0
LINE
  5
219
100
AcDbEntity
  8
0
100
AcDbLine
 62
7
  6
BYLAYER
 10
5.0143961255
 20
26.3901441576
 11
5.0143961255
 21
21.7318490028
  0
LINE
  5
21A
100
AcDbEntity
  8
0
100
AcDbLine
 62
7
  6
BYLAYER
 10
5.1608442069
 20
21.5277269258
 11
5.1608442069
 21
25.8630552927
  0
LINE
  5
21B
100
AcDbEntity
  8
0
100
AcDbLine
 62
7
  6
BYLAYER
 10
5.1608442069
 20
30.0931367496
 11
5.1608442069
 21
49.9828361628
  0
LINE
  5
21C
100
AcDbEntity
  8
0
100
AcDbLine
 62
7
  6
BYLAYER
 10
5.2644003673
 20
21.2988338519
 11
25.7705823965
 21
9.4598519708
  0
LINE
  5
21D
100
AcDbEntity
  8
0
100
AcDbLine
 62
7
  6
BYLAYER
 10
25.6670262362
 20
9.6887450447
 11
5.1608442069
 21
21.5277269258
  0
LINE
  5
21E
100
AcDbEntity
  8
0
100
AcDbLine
 62
7
  6
BYLAYER
 10
5.2644003673
 20
21.2988338519
 11
5.2336721686
 21
21.3215963898
  0
LINE
  5
21F
100
AcDbEntity
  8
0
100
AcDbLine
 62
7
  6
BYLAYER
 10
6.3629177862
 20
30.0960552987
 11
6.3629177862
 21
27.4555342421
  0
LINE
  5
220
100
AcDbEntity
  8
0
100
AcDbLine
 62
7
  6
BYLAYER
 10
6.6904577164
 20
48.8440120273
 11
6.6904577164
 21
37.6794701473
  0
LINE
  5
221
100
AcDbEntity
  8
0
100
AcDbLine
 62
7
  6
BYLAYER
 10
6.6904577164
 20
37.6794701473
 11
12.231916729
 21
40.8788652155
  0
LINE
  5
222
100
AcDbEntity
  8
0
100
AcDbLine
 62
7
  6
BYLAYER
 10
12.0197855779
 20
45.7671927588
 11
12.0197855779
 21
40.7563919694
  0
LINE
  5
223
100
AcDbEntity
  8
0
100
AcDbLine
 62
7
  6
BYLAYER
 10
12.231916729
 20
40.8788652155
 11
12.231916729
 21
45.6447215523
  0
LINE
  5
224
100
AcDbEntity
  8
0
100
AcDbLine
 62
7
  6
BYLAYER
 10
5.1608412629
 20
30.0111577702
 11
5.3605171553
 21
30.1264400122
  0
LINE
  5
225
100
AcDbEntity
  8
0
100
AcDbLine
 62
7
  6
BYLAYER
 10
5.1301584816
 20
30.0759190426
 11
5.1608442069
 21
30.0931367496
  0
LINE
  5
226
100
AcDbEntity
  8
0
100
AcDbLine
 62
7
  6
BYLAYER
 10
30.263204122
 20
16.0166016763
 11
29.112269365
 21
16.6810791356
  0
LINE
  5
227
100
AcDbEntity
  8
0
100
AcDbLine
 62
7
  6
BYLAYER
 10
6.3629177862
 20
27.4555342421
 11
5.1608412629
 21
26.7615191805
  0
LINE
  5
228
100
AcDbEntity
  8
0
100
AcDbLine
 62
7
  6
BYLAYER
 10
26.3741330173
 20
38.1438559814
 11
28.990417215
 21
39.6543593507
  0
LINE
  5
229
100
AcDbEntity
  8
0
100
AcDbLine
 62
7
  6
BYLAYER
 10
28.990417215
 20
21.7319598486
 11
30.1597150397
 21
21.0568807071
  0
LINE
  5
22A
100
AcDbEntity
  8
0
100
AcDbLine
 62
7
  6
BYLAYER
 10
28.990417215
 20
21.9313073184
 11
30.3338774118
 21
21.1556777593
  0
LINE
  5
22B
100
AcDbEntity
  8
0
100
AcDbLine
 62
7
  6
BYLAYER
 10
28.990417215
 20
24.7341303026
 11
36.3255758382
 21
20.4992367621
  0
LINE
  5
22C
100
AcDbEntity
  8
0
100
AcDbLine
 62
7
  6
BYLAYER
 10
8.7285603077
 20
23.8398847594
 11
8.6963928326
 21
23.8218515201
  0
LINE
  5
22D
100
AcDbEntity
  8
0
100
AcDbLine
 62
7
  6
BYLAYER
 10
6.6904577164
 20
37.6794701473
 11
24.1374127267
 21
27.6066938522
  0
LINE
  5
22E
100
AcDbEntity
  8
0
100
AcDbLine
 62
7
  6
BYLAYER
 10
38.889870936
 20
20.9102491481
 11
38.0347527336
 21
21.4039407036
  0
LINE
  5
22F
100
AcDbEntity
  8
0
100
AcDbLine
 62
7
  6
BYLAYER
 10
24.1374127267
 20
27.6066938522
 11
24.1374127267
 21
38.7712357322
  0
LINE
  5
230
100
AcDbEntity
  8
0
100
AcDbLine
 62
7
  6
BYLAYER
 10
25.6670262362
 20
38.1438542817
 11
25.6670262362
 21
18.2541548685
  0
LINE
  5
231
100
AcDbEntity
  8
0
100
AcDbLine
 62
7
  6
BYLAYER
 10
25.6670262362
 20
14.0240734116
 11
25.6670262362
 21
9.6887450447
  0
LINE
  5
232
100
AcDbEntity
  8
0
100
AcDbLine
 62
7
  6
BYLAYER
 10
12.0197855779
 20
40.7563919694
 11
24.1374127267
 21
33.7604349428
  0
LINE
  5
233
100
AcDbEntity
  8
0
100
AcDbLine
 62
7
  6
BYLAYER
 10
26.3741330173
 20
9.6887467444
 11
26.3741330173
 21
14.5142965449
  0
LINE
  5
234
100
AcDbEntity
  8
0
100
AcDbLine
 62
7
  6
BYLAYER
 10
26.3741330173
 20
17.7639351345
 11
26.3741330173
 21
38.1438559814
  0
LINE
  5
235
100
AcDbEntity
  8
0
100
AcDbLine
 62
7
  6
BYLAYER
 10
27.5762095406
 20
18.4579501961
 11
27.5762095406
 21
15.2083116065
  0
LINE
  5
236
100
AcDbEntity
  8
0
100
AcDbLine
 62
7
  6
BYLAYER
 10
24.1374127267
 20
34.0053793955
 11
12.231916729
 21
40.8788652155
  0
LINE
  5
237
100
AcDbEntity
  8
0
100
AcDbLine
 62
7
  6
BYLAYER
 10
28.990417215
 20
39.6543593507
 11
28.990417215
 21
15.2817621994
  0
LINE
  5
238
100
AcDbEntity
  8
0
100
AcDbLine
 62
7
  6
BYLAYER
 10
22.0993101353
 20
20.2773254018
 11
22.1314776104
 21
20.2953586411
  0
LINE
  5
239
100
AcDbEntity
  8
0
100
AcDbLine
 62
7
  6
BYLAYER
 10
24.1374127267
 20
38.7712357322
 11
6.6904577164
 21
48.8440120273
  0
LINE
  5
23A
100
AcDbEntity
  8
0
100
AcDbLine
 62
7
  6
BYLAYER
 10
5.1608442069
 20
49.9828361628
 11
25.6670262362
 21
38.1438542817
  0
LINE
  5
23B
100
AcDbEntity
  8
0
100
AcDbLine
 62
7
  6
BYLAYER
 10
28.990417215
 20
20.3935733756
 11
30.3338774118
 21
21.1556777593
  0
LINE
  5
23C
100
AcDbEntity
  8
0
100
AcDbLine
 62
7
  6
BYLAYER
 10
7.7771254606
 20
51.9015819863
 11
28.990417215
 21
39.6543593507
  0
LINE
  5
23D
100
AcDbEntity
  8
0
100
AcDbLine
 62
7
  6
BYLAYER
 10
34.1129436202
 20
21.7767052096
 11
28.990417215
 21
18.6223525937
  0
LINE
  5
23E
100
AcDbEntity
  8
0
100
AcDbLine
 62
7
  6
BYLAYER
 10
27.5762095406
 20
18.4579501961
 11
26.3741330173
 21
17.7639351345
  0
LINE
  5
23F
100
AcDbEntity
  8
0
100
AcDbLine
 62
7
  6
BYLAYER
 10
26.3741330173
 20
14.5142965449
 11
27.5762095406
 21
15.2083116065
  0
LINE
  5
240
100
AcDbEntity
  8
0
100
AcDbLine
 62
7
  6
BYLAYER
 10
25.6670262362
 20
14.0240734116
 11
25.7007121248
 21
14.0428676154
  0
LINE
  5
241
100
AcDbEntity
  8
0
100
AcDbLine
 62
7
  6
BYLAYER
 10
28.990417215
 20
16.6154933315
 11
29.112269365
 21
16.6810791356
  0
LINE
  5
242
100
AcDbEntity
  8
0
100
AcDbLine
 62
7
  6
BYLAYER
 10
38.0347527336
 20
21.4039407036
 11
29.112269365
 21
16.6810791356
  0
LINE
  5
243
100
AcDbEntity
  8
0
100
AcDbLine
 62
7
  6
BYLAYER
 10
38.889870936
 20
20.9102491481
 11
38.889870936
 21
16.9146682679
  0
LINE
  5
244
100
AcDbEntity
  8
0
100
AcDbLine
 62
7
  6
BYLAYER
 10
28.990417215
 20
15.2817621994
 11
30.263204122
 21
16.0166016763
  0
LINE
  5
245
100
AcDbEntity
  8
0
100
AcDbLine
 62
7
  6
BYLAYER
 10
38.889870936
 20
20.9102491481
 11
30.263204122
 21
16.0166016763
  0
LINE
  5
246
100
AcDbEntity
  8
0
100
AcDbLine
 62
7
  6
BYLAYER
 10
38.889870936
 20
16.9146682679
 11
26.3741330173
 21
9.6887467444
  0
LINE
  5
247
100
AcDbEntity
  8
0
100
AcDbLine
 62
7
  6
BYLAYER
 10
38.7863149542
 20
16.6857752971
 11
26.2705770355
 21
9.4598537736
  0
ARC
  5
248
100
AcDbEntity
  8
0
100
AcDbCircle
 62
7
  6
BYLAYER
 10
24.4174692891
 20
17.3284558496
 40
2.1745206467
100
AcDbArc
 50
12.0493784357
 51
13.3964413582
  0
ARC
  5
249
100
AcDbEntity
  8
0
100
AcDbCircle
 62
7
  6
BYLAYER
 10
24.9225467012
 20
18.97961981
 40
0.5355506022
100
AcDbArc
 50
115.1938207637
 51
119.9855260379
  0
ARC
  5
24A
100
AcDbEntity
  8
0
100
AcDbCircle
 62
7
  6
BYLAYER
 10
7.9516997681
 20
28.7777972413
 40
0.5350980102
100
AcDbArc
 50
115.8755675166
 51
119.9870920074
  0
ARC
  5
24B
100
AcDbEntity
  8
0
100
AcDbCircle
 62
7
  6
BYLAYER
 10
9.0173490227
 20
26.9324090633
 40
0.5339058354
100
AcDbArc
 50
299.9921704675
 51
304.6982291522
  0
ARC
  5
24C
100
AcDbEntity
  8
0
100
AcDbCircle
 62
7
  6
BYLAYER
 10
5.5143961255
 20
21.7318490028
 40
0.5
100
AcDbArc
 50
180.0
 51
240.0005612632
  0
ARC
  5
24D
100
AcDbEntity
  8
0
100
AcDbCircle
 62
7
  6
BYLAYER
 10
26.0205781548
 20
9.8928671217
 40
0.5
100
AcDbArc
 50
240.0005612632
 51
299.9998519061
  0
SPLINE
  5
24E
100
AcDbEntity
  8
0
100
AcDbSpline
 62
7
  6
BYLAYER
 70
0
 71
3
 72
14
 73
10
 74
0
 42
0.0000001
 43
0.0000001
 44
0.0000000001
 40
0.0
 40
0.0
 40
0.0
 40
0.0
 40
0.2892169362
 40
0.422570511
 40
0.5485265427
 40
0.6678986418
 40
0.7818616655
 40
0.8919535481
 40
1.0
 40
1.0
 40
1.0
 40
1.0
 10
26.5862559254
 20
17.4046679576
 30
0.0
 10
26.5862559254
 20
17.3235866257
 30
0.0
 10
26.5767574191
 20
17.2045434393
 30
0.0
 10
26.5402021648
 20
17.0549021812
 30
0.0
 10
26.5029471413
 20
16.9551892893
 30
0.0
 10
26.4555058915
 20
16.8659724679
 30
0.0
 10
26.3981646253
 20
16.7881603808
 30
0.0
 10
26.3315453294
 20
16.7225567086
 30
0.0
 10
26.2811071849
 20
16.6873592315
 30
0.0
 10
26.2548721572
 20
16.672218463
 30
0.0
  0
SPLINE
  5
24F
100
AcDbEntity
  8
0
100
AcDbSpline
 62
7
  6
BYLAYER
 70
0
 71
3
 72
11
 73
7
 74
0
 42
0.0000001
 43
0.0000001
 44
0.0000000001
 40
0.0
 40
0.0
 40
0.0
 40
0.0
 40
0.2895401978
 40
0.5491171512
 40
0.782255066
 40
1.0
 40
1.0
 40
1.0
 40
1.0
 10
38.889870936
 20
16.9146682679
 30
0.0
 10
38.889870936
 20
16.8893489563
 30
0.0
 10
38.8860049111
 20
16.8411706971
 30
0.0
 10
38.8665283765
 20
16.774965276
 30
0.0
 10
38.8336751438
 20
16.7212246825
 30
0.0
 10
38.8027910328
 20
16.6953200093
 30
0.0
 10
38.7863009662
 20
16.6857995256
 30
0.0
  0
SPLINE
  5
250
100
AcDbEntity
  8
0
100
AcDbSpline
 62
7
  6
BYLAYER
 70
0
 71
3
 72
9
 73
5
 74
0
 42
0.0000001
 43
0.0000001
 44
0.0000000001
 40
0.0
 40
0.0
 40
0.0
 40
0.0
 40
0.514805647
 40
1.0
 40
1.0
 40
1.0
 40
1.0
 10
26.5440810183
 20
17.782397031
 30
0.0
 10
26.5577080039
 20
17.7185237976
 30
0.0
 10
26.5784846758
 20
17.5931496878
 30
0.0
 10
26.5862559254
 20
17.466222007
 30
0.0
 10
26.5862559254
 20
17.4046679576
 30
0.0
  0
SPLINE
  5
251
100
AcDbEntity
  8
0
100
AcDbSpline
 62
7
  6
BYLAYER
 70
0
 71
3
 72
13
 73
9
 74
0
 42
0.0000001
 43
0.0000001
 44
0.0000000001
 40
0.0
 40
0.0
 40
0.0
 40
0.0
 40
0.2641862713
 40
0.522314275
 40
0.6477938314
 40
0.769642549
 40
0.8870551142
 40
1.0
 40
1.0
 40
1.0
 40
1.0
 10
5.0143941496
 20
26.3901445613
 30
0.0
 10
5.0143943951
 20
26.4267632478
 30
0.0
 10
5.018854442
 20
26.4992471173
 30
0.0
 10
5.0382277039
 20
26.5875225328
 30
0.0
 10
5.0645074723
 20
26.6526527433
 30
0.0
 10
5.0899072436
 20
26.6966127615
 30
0.0
 10
5.1215800184
 20
26.7341553873
 30
0.0
 10
5.1472834272
 20
26.7536916071
 30
0.0
 10
5.1608412629
 20
26.7615191805
 30
0.0
  0
SPLINE
  5
252
100
AcDbEntity
  8
0
100
AcDbSpline
 62
7
  6
BYLAYER
 70
0
 71
3
 72
11
 73
7
 74
0
 42
0.0000001
 43
0.0000001
 44
0.0000000001
 40
0.0
 40
0.0
 40
0.0
 40
0.0
 40
0.2895416688
 40
0.549118971
 40
0.7822562702
 40
1.0
 40
1.0
 40
1.0
 40
1.0
 10
5.1608412629
 20
50.391078617
 30
0.0
 10
5.1389147398
 20
50.3784194085
 30
0.0
 10
5.0991253503
 20
50.3509832647
 30
0.0
 10
5.0515293738
 20
50.3010153996
 30
0.0
 10
5.0214160479
 20
50.2456956671
 30
0.0
 10
5.0144240961
 20
50.2059985088
 30
0.0
 10
5.014424102
 20
50.1869582399
 30
0.0
  0
SPLINE
  5
253
100
AcDbEntity
  8
0
100
AcDbSpline
 62
7
  6
BYLAYER
 70
0
 71
3
 72
18
 73
14
 74
0
 42
0.0000001
 43
0.0000001
 44
0.0000000001
 40
0.0
 40
0.0
 40
0.0
 40
0.0
 40
0.136200555
 40
0.2712762299
 40
0.4040668867
 40
0.5335038575
 40
0.6584483991
 40
0.7188842661
 40
0.7777313522
 40
0.8348939924
 40
0.8904906617
 40
0.9451078652
 40
1.0
 40
1.0
 40
1.0
 40
1.0
 10
25.6670262362
 20
18.2541548685
 30
0.0
 10
25.6884257897
 20
18.2179519913
 30
0.0
 10
25.7341607597
 20
18.1476445031
 30
0.0
 10
25.8102553725
 20
18.0486282949
 30
0.0
 10
25.8925211195
 20
17.957430045
 30
0.0
 10
25.9801765319
 20
17.8759098243
 30
0.0
 10
26.0584048806
 20
17.8176618616
 30
0.0
 10
26.1239211656
 20
17.7801314876
 30
0.0
 10
26.1737911996
 20
17.7579038842
 30
0.0
 10
26.2247759065
 20
17.7427771035
 30
0.0
 10
26.2764577064
 20
17.7368113374
 30
0.0
 10
26.3276382827
 20
17.7425438798
 30
0.0
 10
26.3594547089
 20
17.7554606598
 30
0.0
 10
26.3741330173
 20
17.7639351345
 30
0.0
  0
SPLINE
  5
254
100
AcDbEntity
  8
0
100
AcDbSpline
 62
7
  6
BYLAYER
 70
0
 71
3
 72
15
 73
11
 74
0
 42
0.0000001
 43
0.0000001
 44
0.0000000001
 40
0.0
 40
0.0
 40
0.0
 40
0.0
 40
0.1485134878
 40
0.2894868855
 40
0.4227306659
 40
0.5486288513
 40
0.6679619383
 40
0.7819118756
 40
0.8920139941
 40
1.0
 40
1.0
 40
1.0
 40
1.0
 10
9.4742135303
 20
25.4878274186
 30
0.0
 10
9.4742135303
 20
25.3941172603
 30
0.0
 10
9.466621742
 20
25.2113314383
 30
0.0
 10
9.4306913265
 20
24.9466008451
 30
0.0
 10
9.3705504635
 20
24.7008645227
 30
0.0
 10
9.2868111182
 20
24.4765586587
 30
0.0
 10
9.1800308749
 20
24.2758350231
 30
0.0
 10
9.0510955531
 20
24.1006385068
 30
0.0
 10
8.9010820129
 20
23.9531039918
 30
0.0
 10
8.7876127245
 20
23.8738786265
 30
0.0
 10
8.7286088339
 20
23.8398007191
 30
0.0
  0
SPLINE
  5
255
100
AcDbEntity
  8
0
100
AcDbSpline
 62
7
  6
BYLAYER
 70
0
 71
3
 72
15
 73
11
 74
0
 42
0.0000001
 43
0.0000001
 44
0.0000000001
 40
0.0
 40
0.0
 40
0.0
 40
0.0
 40
0.0994053017
 40
0.2027697997
 40
0.312804958
 40
0.4314624811
 40
0.5596904808
 40
0.6976234213
 40
0.8447421752
 40
1.0
 40
1.0
 40
1.0
 40
1.0
 10
5.1608442069
 20
30.0931367496
 30
0.0
 10
5.2439203546
 20
30.1377556288
 30
0.0
 10
5.4249097736
 20
30.2087231673
 30
0.0
 10
5.7205890346
 20
30.2525946532
 30
0.0
 10
6.0370047781
 20
30.2350766432
 30
0.0
 10
6.3680910078
 20
30.157542484
 30
0.0
 10
6.70829966
 20
30.0220210214
 30
0.0
 10
7.0518569716
 20
29.8312222278
 30
0.0
 10
7.3928188663
 20
29.5886753012
 30
0.0
 10
7.6093494807
 20
29.3997813513
 30
0.0
 10
7.7159763794
 20
29.2981777587
 30
0.0
  0
SPLINE
  5
256
100
AcDbEntity
  8
0
100
AcDbSpline
 62
7
  6
BYLAYER
 70
0
 71
3
 72
15
 73
11
 74
0
 42
0.0000001
 43
0.0000001
 44
0.0000000001
 40
0.0
 40
0.0
 40
0.0
 40
0.0
 40
0.1248116428
 40
0.2537888071
 40
0.3849020243
 40
0.516012366
 40
0.6449856119
 40
0.7697770347
 40
0.8886230049
 40
1.0
 40
1.0
 40
1.0
 40
1.0
 10
7.7159763794
 20
29.2981777587
 30
0.0
 10
7.8454496066
 20
29.1748041526
 30
0.0
 10
8.095452794
 20
28.9097162508
 30
0.0
 10
8.4340784521
 20
28.4734369491
 30
0.0
 10
8.7362931544
 20
28.0004095182
 30
0.0
 10
8.9947302561
 20
27.5021364252
 30
0.0
 10
9.2031219023
 20
26.9906801558
 30
0.0
 10
9.3565138418
 20
26.4783305992
 30
0.0
 10
9.4510650209
 20
25.9775408265
 30
0.0
 10
9.4742135303
 20
25.647418733
 30
0.0
 10
9.4742135303
 20
25.4878274186
 30
0.0
  0
SPLINE
  5
257
100
AcDbEntity
  8
0
100
AcDbSpline
 62
7
  6
BYLAYER
 70
0
 71
3
 72
15
 73
11
 74
0
 42
0.0000001
 43
0.0000001
 44
0.0000000001
 40
0.0
 40
0.0
 40
0.0
 40
0.0
 40
0.0993950862
 40
0.2027479223
 40
0.3127781247
 40
0.4314351323
 40
0.5596670429
 40
0.6976058275
 40
0.8447311433
 40
1.0
 40
1.0
 40
1.0
 40
1.0
 10
22.1314776104
 20
20.2953586411
 30
0.0
 10
22.2145934869
 20
20.3399988581
 30
0.0
 10
22.3956731652
 20
20.4109938279
 30
0.0
 10
22.6915085393
 20
20.454836108
 30
0.0
 10
23.0080881566
 20
20.4372371935
 30
0.0
 10
23.3393473634
 20
20.359578618
 30
0.0
 10
23.6797218427
 20
20.2238725822
 30
0.0
 10
24.0234338211
 20
20.0328510807
 30
0.0
 10
24.364542858
 20
19.7900520226
 30
0.0
 10
24.5811438663
 20
19.6009591995
 30
0.0
 10
24.6878087218
 20
19.4992562166
 30
0.0
  0
SPLINE
  5
258
100
AcDbEntity
  8
0
100
AcDbSpline
 62
7
  6
BYLAYER
 70
0
 71
3
 72
10
 73
6
 74
0
 42
0.0000001
 43
0.0000001
 44
0.0000000001
 40
0.0
 40
0.0
 40
0.0
 40
0.0
 40
0.4906329045
 40
0.7441613023
 40
1.0
 40
1.0
 40
1.0
 40
1.0
 10
24.6878087218
 20
19.4992562166
 30
0.0
 10
24.8757889263
 20
19.3200205401
 30
0.0
 10
25.1403314009
 20
19.0257322575
 30
0.0
 10
25.4532551085
 20
18.5984944816
 30
0.0
 10
25.5981086037
 20
18.3707468611
 30
0.0
 10
25.6670262362
 20
18.2541548685
 30
0.0
  0
SPLINE
  5
259
100
AcDbEntity
  8
0
100
AcDbSpline
 62
7
  6
BYLAYER
 70
0
 71
3
 72
14
 73
10
 74
0
 42
0.0000001
 43
0.0000001
 44
0.0000000001
 40
0.0
 40
0.0
 40
0.0
 40
0.0
 40
0.0967136497
 40
0.2047127897
 40
0.4495321289
 40
0.5844508497
 40
0.7258381232
 40
0.8689542385
 40
1.0
 40
1.0
 40
1.0
 40
1.0
 10
25.7007140463
 20
14.0428700284
 30
0.0
 10
25.7236765014
 20
14.0561275238
 30
0.0
 10
25.7715221617
 20
14.0855079722
 30
0.0
 10
25.874030387
 20
14.1539605824
 30
0.0
 10
25.981886407
 20
14.2330817132
 30
0.0
 10
26.095822085
 20
14.3192696735
 30
0.0
 10
26.1876470328
 20
14.3884934476
 30
0.0
 10
26.2799780225
 20
14.4552331361
 30
0.0
 10
26.3430190694
 20
14.4963330059
 30
0.0
 10
26.3741330173
 20
14.5142965449
 30
0.0
  0
SPLINE
  5
25A
100
AcDbEntity
  8
0
100
AcDbSpline
 62
7
  6
BYLAYER
 70
0
 71
3
 72
15
 73
11
 74
0
 42
0.0000001
 43
0.0000001
 44
0.0000000001
 40
0.0
 40
0.0
 40
0.0
 40
0.0
 40
0.2611138266
 40
0.4750712155
 40
0.6417256534
 40
0.7659233406
 40
0.8546287138
 40
0.9157380433
 40
0.9594469386
 40
1.0
 40
1.0
 40
1.0
 40
1.0
 10
5.1608412629
 20
30.0111577702
 30
0.0
 10
5.1485049607
 20
30.0040354452
 30
0.0
 10
5.1257619854
 20
29.9915766726
 30
0.0
 10
5.0940267274
 20
29.9767224115
 30
0.0
 10
5.0681717209
 20
29.9671342434
 30
0.0
 10
5.0480260021
 20
29.9620774084
 30
0.0
 10
5.0330614827
 20
29.9607749755
 30
0.0
 10
5.0224435823
 20
29.9623763518
 30
0.0
 10
5.0155796343
 20
29.9672564745
 30
0.0
 10
5.0143942634
 20
29.9720778397
 30
0.0
 10
5.0143941492
 20
29.9742901575
 30
0.0
  0
SPLINE
  5
25B
100
AcDbEntity
  8
0
100
AcDbSpline
 62
7
  6
BYLAYER
 70
0
 71
3
 72
16
 73
12
 74
0
 42
0.0000001
 43
0.0000001
 44
0.0000000001
 40
0.0
 40
0.0
 40
0.0
 40
0.0
 40
0.1384797049
 40
0.2775337938
 40
0.4146081817
 40
0.5473733157
 40
0.6736832214
 40
0.7918241175
 40
0.8474864691
 40
0.9007507583
 40
1.0
 40
1.0
 40
1.0
 40
1.0
 10
6.3629177862
 20
27.4555342421
 30
0.0
 10
6.4405232622
 20
27.2756355166
 30
0.0
 10
6.6137939355
 20
26.9224851599
 30
0.0
 10
6.9209608918
 20
26.4217730972
 30
0.0
 10
7.2695324588
 20
25.9589214361
 30
0.0
 10
7.6501932612
 20
25.5461671268
 30
0.0
 10
8.0530170271
 20
25.1944063907
 30
0.0
 10
8.405353428
 20
24.9550458299
 30
0.0
 10
8.6893033747
 20
24.8041035417
 30
0.0
 10
8.9593733666
 20
24.6862358184
 30
0.0
 10
9.1678457429
 20
24.624540524
 30
0.0
 10
9.3059574602
 20
24.5991854617
 30
0.0
  0
SPLINE
  5
25C
100
AcDbEntity
  8
0
100
AcDbSpline
 62
7
  6
BYLAYER
 70
0
 71
3
 72
14
 73
10
 74
0
 42
0.0000001
 43
0.0000001
 44
0.0000000001
 40
0.0
 40
0.0
 40
0.0
 40
0.0
 40
0.2892169362
 40
0.422570511
 40
0.5485265427
 40
0.6678986418
 40
0.7818616655
 40
0.8919535481
 40
1.0
 40
1.0
 40
1.0
 40
1.0
 10
7.3528714014
 20
28.5088164806
 30
0.0
 10
7.3528714014
 20
28.5898978126
 30
0.0
 10
7.3623699077
 20
28.7089409989
 30
0.0
 10
7.3989251619
 20
28.858582257
 30
0.0
 10
7.4361801855
 20
28.9582951489
 30
0.0
 10
7.4836214352
 20
29.0475119703
 30
0.0
 10
7.5409627015
 20
29.1253240574
 30
0.0
 10
7.6075819974
 20
29.1909277297
 30
0.0
 10
7.6580201419
 20
29.2261252067
 30
0.0
 10
7.6842551696
 20
29.2412659752
 30
0.0
  0
SPLINE
  5
25D
100
AcDbEntity
  8
0
100
AcDbSpline
 62
7
  6
BYLAYER
 70
0
 71
3
 72
22
 73
18
 74
0
 42
0.0000001
 43
0.0000001
 44
0.0000000001
 40
0.0
 40
0.0
 40
0.0
 40
0.0
 40
0.0428183512
 40
0.0874057326
 40
0.1351929013
 40
0.1871098283
 40
0.2435620706
 40
0.3045250454
 40
0.3696311287
 40
0.4382457047
 40
0.5095530321
 40
0.5825961319
 40
0.7296191437
 40
0.801614171
 40
0.871226449
 40
0.9376266214
 40
1.0
 40
1.0
 40
1.0
 40
1.0
 10
9.2842387536
 20
26.4699965715
 30
0.0
 10
9.2447903806
 20
26.4472301125
 30
0.0
 10
9.1578484132
 20
26.4110708508
 30
0.0
 10
9.0143129606
 20
26.3900677654
 30
0.0
 10
8.8601819066
 20
26.4013791555
 30
0.0
 10
8.6988772356
 20
26.4442551903
 30
0.0
 10
8.5335617901
 20
26.5173119408
 30
0.0
 10
8.3675191991
 20
26.618876581
 30
0.0
 10
8.2041497672
 20
26.7467969838
 30
0.0
 10
8.0468048607
 20
26.8983053944
 30
0.0
 10
7.8988175872
 20
27.0702555792
 30
0.0
 10
7.7178935908
 20
27.3222517543
 30
0.0
 10
7.5691734386
 20
27.5970798783
 30
0.0
 10
7.4590419147
 20
27.8839937343
 30
0.0
 10
7.398851482
 20
28.09728455
 30
0.0
 10
7.3619005224
 20
28.3054016402
 30
0.0
 10
7.3528714014
 20
28.4424689808
 30
0.0
 10
7.3528714014
 20
28.5088164806
 30
0.0
  0
SPLINE
  5
25E
100
AcDbEntity
  8
0
100
AcDbSpline
 62
7
  6
BYLAYER
 70
0
 71
3
 72
22
 73
18
 74
0
 42
0.0000001
 43
0.0000001
 44
0.0000000001
 40
0.0
 40
0.0
 40
0.0
 40
0.0
 40
0.0428183512
 40
0.0874057326
 40
0.1351929013
 40
0.1871098283
 40
0.2435620706
 40
0.3045250454
 40
0.3696311287
 40
0.4382457047
 40
0.5095530321
 40
0.5825961319
 40
0.7296191437
 40
0.801614171
 40
0.871226449
 40
0.9376266214
 40
1.0
 40
1.0
 40
1.0
 40
1.0
 10
26.2548721572
 20
16.672218463
 30
0.0
 10
26.2154237841
 20
16.649452004
 30
0.0
 10
26.1284818168
 20
16.6132927423
 30
0.0
 10
25.9849463641
 20
16.592289657
 30
0.0
 10
25.8308153102
 20
16.603601047
 30
0.0
 10
25.6695106391
 20
16.6464770818
 30
0.0
 10
25.5041951936
 20
16.7195338323
 30
0.0
 10
25.3381526026
 20
16.8210984725
 30
0.0
 10
25.1747831707
 20
16.9490188753
 30
0.0
 10
25.0174382642
 20
17.1005272859
 30
0.0
 10
24.8694509907
 20
17.2724774707
 30
0.0
 10
24.6885269943
 20
17.5244736458
 30
0.0
 10
24.5398068421
 20
17.7993017698
 30
0.0
 10
24.4296753183
 20
18.0862156258
 30
0.0
 10
24.3694848855
 20
18.2995064415
 30
0.0
 10
24.3325339259
 20
18.5076235317
 30
0.0
 10
24.3235048049
 20
18.6446908723
 30
0.0
 10
24.3235048049
 20
18.7110383721
 30
0.0
  0
SPLINE
  5
25F
100
AcDbEntity
  8
0
100
AcDbSpline
 62
7
  6
BYLAYER
 70
0
 71
3
 72
11
 73
7
 74
0
 42
0.0000001
 43
0.0000001
 44
0.0000000001
 40
0.0
 40
0.0
 40
0.0
 40
0.0
 40
0.2177498853
 40
0.4508926472
 40
0.710464091
 40
1.0
 40
1.0
 40
1.0
 40
1.0
 10
26.2705654211
 20
9.4598738905
 30
0.0
 10
26.2870560441
 20
9.4693947013
 30
0.0
 10
26.3179410389
 20
9.4953006897
 30
0.0
 10
26.3507923645
 20
9.5490436803
 30
0.0
 10
26.3702685924
 20
9.6152494425
 30
0.0
 10
26.3741330173
 20
9.6634275255
 30
0.0
 10
26.3741330173
 20
9.6887467444
 30
0.0
  0
SPLINE
  5
260
100
AcDbEntity
  8
0
100
AcDbSpline
 62
7
  6
BYLAYER
 70
0
 71
3
 72
20
 73
16
 74
0
 42
0.0000001
 43
0.0000001
 44
0.0000000001
 40
0.0
 40
0.0
 40
0.0
 40
0.0
 40
0.1455740367
 40
0.2912066665
 40
0.4331909258
 40
0.5017645205
 40
0.5681907432
 40
0.6321410007
 40
0.6933548238
 40
0.751638529
 40
0.8069003667
 40
0.8591488129
 40
0.9085314512
 40
0.9553328784
 40
1.0
 40
1.0
 40
1.0
 40
1.0
 10
23.3335511897
 20
17.6577561336
 30
0.0
 10
23.4265337259
 20
17.4422115532
 30
0.0
 10
23.6379285465
 20
17.0215357743
 30
0.0
 10
24.0203114505
 20
16.4353348686
 30
0.0
 10
24.3882318443
 20
15.9922604887
 30
0.0
 10
24.7049466846
 20
15.676943231
 30
0.0
 10
24.9469724718
 20
15.4659613395
 30
0.0
 10
25.1939345044
 20
15.2798672508
 30
0.0
 10
25.4434404797
 20
15.12035076
 30
0.0
 10
25.6932060475
 20
14.9890437309
 30
0.0
 10
25.9408373454
 20
14.8871164104
 30
0.0
 10
26.1840822933
 20
14.8157086468
 30
0.0
 10
26.4206697289
 20
14.775484303
 30
0.0
 10
26.6483268761
 20
14.767118315
 30
0.0
 10
26.7956269463
 20
14.7832116278
 30
0.0
 10
26.8663635929
 20
14.7967887002
 30
0.0
  0
SPLINE
  5
261
100
AcDbEntity
  8
0
100
AcDbSpline
 62
7
  6
BYLAYER
 70
0
 71
3
 72
11
 73
7
 74
0
 42
0.0000001
 43
0.0000001
 44
0.0000000001
 40
0.0
 40
0.0
 40
0.0
 40
0.0
 40
0.2308290454
 40
0.4762888422
 40
0.7337732968
 40
1.0
 40
1.0
 40
1.0
 40
1.0
 10
22.9092853546
 20
19.5275198811
 30
0.0
 10
22.9092853546
 20
19.3790688804
 30
0.0
 10
22.929314286
 20
19.0725600068
 30
0.0
 10
23.0115724058
 20
18.6070800109
 30
0.0
 10
23.145493446
 20
18.1301311835
 30
0.0
 10
23.2657325128
 20
17.8149678947
 30
0.0
 10
23.3335511897
 20
17.6577561336
 30
0.0
  0
SPLINE
  5
262
100
AcDbEntity
  8
0
100
AcDbSpline
 62
7
  6
BYLAYER
 70
0
 71
3
 72
10
 73
6
 74
0
 42
0.0000001
 43
0.0000001
 44
0.0000000001
 40
0.0
 40
0.0
 40
0.0
 40
0.0
 40
0.4762850042
 40
0.7323953045
 40
1.0
 40
1.0
 40
1.0
 40
1.0
 10
23.0512502183
 20
20.4134535753
 30
0.0
 10
23.0021117096
 20
20.2791118922
 30
0.0
 10
22.9491663279
 20
20.0637937623
 30
0.0
 10
22.9149049703
 20
19.7652947238
 30
0.0
 10
22.9092853546
 20
19.6078917084
 30
0.0
 10
22.9092853546
 20
19.5275198811
 30
0.0
  0
SPLINE
  5
263
100
AcDbEntity
  8
0
100
AcDbSpline
 62
7
  6
BYLAYER
 70
0
 71
3
 72
10
 73
6
 74
0
 42
0.0000001
 43
0.0000001
 44
0.0000000001
 40
0.0
 40
0.0
 40
0.0
 40
0.0
 40
0.5020847804
 40
0.7520835815
 40
1.0
 40
1.0
 40
1.0
 40
1.0
 10
5.1608442069
 20
25.8630552927
 30
0.0
 10
5.1138062007
 20
25.9426322409
 30
0.0
 10
5.0595227728
 20
26.0723034822
 30
0.0
 10
5.021443107
 20
26.2527018228
 30
0.0
 10
5.0143938435
 20
26.3445003286
 30
0.0
 10
5.0143941496
 20
26.3901445613
 30
0.0
  0
SPLINE
  5
264
100
AcDbEntity
  8
0
100
AcDbSpline
 62
7
  6
BYLAYER
 70
0
 71
3
 72
11
 73
7
 74
0
 42
0.0000001
 43
0.0000001
 44
0.0000000001
 40
0.0
 40
0.0
 40
0.0
 40
0.0
 40
0.2895378634
 40
0.5491098265
 40
0.7822517759
 40
1.0
 40
1.0
 40
1.0
 40
1.0
 10
5.1608442069
 20
21.5277269258
 30
0.0
 10
5.1389173536
 20
21.5403861141
 30
0.0
 10
5.0991265608
 20
21.5678208888
 30
0.0
 10
5.0515291706
 20
21.6177890294
 30
0.0
 10
5.0214121637
 20
21.6731088441
 30
0.0
 10
5.0144193553
 20
21.7128078832
 30
0.0
 10
5.0144193545
 20
21.7318490028
 30
0.0
  0
SPLINE
  5
265
100
AcDbEntity
  8
0
100
AcDbSpline
 62
7
  6
BYLAYER
 70
0
 71
3
 72
9
 73
5
 74
0
 42
0.0000001
 43
0.0000001
 44
0.0000000001
 40
0.0
 40
0.0
 40
0.0
 40
0.0
 40
0.2461774366
 40
1.0
 40
1.0
 40
1.0
 40
1.0
 10
5.2336721686
 20
21.3215963898
 30
0.0
 10
5.2315289265
 20
21.3235914829
 30
0.0
 10
5.2230280277
 20
21.3319145307
 30
0.0
 10
5.2153630722
 20
21.3410826026
 30
0.0
 10
5.2100894162
 20
21.3483339307
 30
0.0
  0
SPLINE
  5
266
100
AcDbEntity
  8
0
100
AcDbSpline
 62
7
  6
BYLAYER
 70
0
 71
3
 72
9
 73
5
 74
0
 42
0.0000001
 43
0.0000001
 44
0.0000000001
 40
0.0
 40
0.0
 40
0.0
 40
0.0
 40
0.24574303
 40
1.0
 40
1.0
 40
1.0
 40
1.0
 10
5.2100894162
 20
21.3483339307
 30
0.0
 10
5.2086043655
 20
21.3503758899
 30
0.0
 10
5.2027192996
 20
21.3587994272
 30
0.0
 10
5.1974673256
 20
21.3676619109
 30
0.0
 10
5.193861735
 20
21.3745216096
 30
0.0
  0
SPLINE
  5
267
100
AcDbEntity
  8
0
100
AcDbSpline
 62
7
  6
BYLAYER
 70
0
 71
3
 72
9
 73
5
 74
0
 42
0.0000001
 43
0.0000001
 44
0.0000000001
 40
0.0
 40
0.0
 40
0.0
 40
0.0
 40
0.2281074255
 40
1.0
 40
1.0
 40
1.0
 40
1.0
 10
5.193861735
 20
21.3745216096
 30
0.0
 10
5.1882854963
 20
21.3851305003
 30
0.0
 10
5.1675168203
 20
21.4335853108
 30
0.0
 10
5.1608442069
 20
21.4871705003
 30
0.0
 10
5.1608442069
 20
21.5277269258
 30
0.0
  0
SPLINE
  5
268
100
AcDbEntity
  8
0
100
AcDbSpline
 62
7
  6
BYLAYER
 70
0
 71
3
 72
14
 73
10
 74
0
 42
0.0000001
 43
0.0000001
 44
0.0000000001
 40
0.0
 40
0.0
 40
0.0
 40
0.0
 40
0.2892169362
 40
0.422570511
 40
0.5485265427
 40
0.6678986418
 40
0.7818616655
 40
0.8919535481
 40
1.0
 40
1.0
 40
1.0
 40
1.0
 10
24.3235048049
 20
18.7110383721
 30
0.0
 10
24.3235048049
 20
18.7921197041
 30
0.0
 10
24.3330033112
 20
18.9111628904
 30
0.0
 10
24.3695585655
 20
19.0608041485
 30
0.0
 10
24.406813589
 20
19.1605170404
 30
0.0
 10
24.4542548388
 20
19.2497338619
 30
0.0
 10
24.511596105
 20
19.327545949
 30
0.0
 10
24.5782154009
 20
19.3931496212
 30
0.0
 10
24.6286535455
 20
19.4283470982
 30
0.0
 10
24.6548885732
 20
19.4434878667
 30
0.0
  0
SPLINE
  5
269
100
AcDbEntity
  8
0
100
AcDbSpline
 62
7
  6
BYLAYER
 70
0
 71
3
 72
13
 73
9
 74
0
 42
0.0000001
 43
0.0000001
 44
0.0000000001
 40
0.0
 40
0.0
 40
0.0
 40
0.0
 40
0.056910302
 40
0.1317973172
 40
0.2264502736
 40
0.341115097
 40
0.6303387024
 40
1.0
 40
1.0
 40
1.0
 40
1.0
 10
5.0143941492
 20
29.9742901575
 30
0.0
 10
5.0143939951
 20
29.9772773633
 30
0.0
 10
5.0163699842
 20
29.9841317263
 30
0.0
 10
5.0225747928
 20
29.9943085872
 30
0.0
 10
5.0322406464
 20
30.0057401953
 30
0.0
 10
5.0512023896
 20
30.0238152506
 30
0.0
 10
5.0838273502
 20
30.0481891385
 30
0.0
 10
5.1132940294
 20
30.0663365669
 30
0.0
 10
5.1300978332
 20
30.0760383618
 30
0.0
  0
SPLINE
  5
26A
100
AcDbEntity
  8
0
100
AcDbSpline
 62
7
  6
BYLAYER
 70
0
 71
3
 72
11
 73
7
 74
0
 42
0.0000001
 43
0.0000001
 44
0.0000000001
 40
0.0
 40
0.0
 40
0.0
 40
0.0
 40
0.2177434119
 40
0.4508805377
 40
0.710457812
 40
1.0
 40
1.0
 40
1.0
 40
1.0
 10
5.014424102
 20
50.1869582399
 30
0.0
 10
5.0144241079
 20
50.1679177533
 30
0.0
 10
5.0214162065
 20
50.1282201198
 30
0.0
 10
5.0515302109
 20
50.0728998681
 30
0.0
 10
5.0991271171
 20
50.0229316172
 30
0.0
 10
5.1389172703
 20
49.9954953991
 30
0.0
 10
5.1608442069
 20
49.9828361628
 30
0.0
  0
SPLINE
  5
26B
100
AcDbEntity
  8
0
100
AcDbSpline
 62
7
  6
BYLAYER
 70
0
 71
3
 72
15
 73
11
 74
0
 42
0.0000001
 43
0.0000001
 44
0.0000000001
 40
0.0
 40
0.0
 40
0.0
 40
0.0
 40
0.1140741842
 40
0.2373581894
 40
0.3669873486
 40
0.500000688
 40
0.6330139531
 40
0.762642813
 40
0.8859263223
 40
1.0
 40
1.0
 40
1.0
 40
1.0
 10
25.6670262362
 20
38.1438542817
 30
0.0
 10
25.691212555
 20
38.1298906199
 30
0.0
 10
25.7441569899
 20
38.1052715668
 30
0.0
 10
25.8303295703
 20
38.0790315024
 30
0.0
 10
25.9236628401
 20
38.0629137843
 30
0.0
 10
26.0205803461
 20
38.0575020957
 30
0.0
 10
26.1174977533
 20
38.0629142669
 30
0.0
 10
26.2108307253
 20
38.0790324536
 30
0.0
 10
26.2970028618
 20
38.1052728895
 30
0.0
 10
26.3499469065
 20
38.1298922071
 30
0.0
 10
26.3741330173
 20
38.1438559814
 30
0.0
  0
SPLINE
  5
26C
100
AcDbEntity
  8
0
100
AcDbSpline
 62
7
  6
BYLAYER
 70
0
 71
3
 72
21
 73
17
 74
0
 42
0.0000001
 43
0.0000001
 44
0.0000000001
 40
0.0
 40
0.0
 40
0.0
 40
0.0
 40
0.0451024922
 40
0.091203383
 40
0.1389679946
 40
0.188990328
 40
0.2417267749
 40
0.297454606
 40
0.3563141283
 40
0.4183121401
 40
0.4833568467
 40
0.5512569284
 40
0.6217525711
 40
0.6945062795
 40
0.8452048708
 40
1.0
 40
1.0
 40
1.0
 40
1.0
 10
8.6963928326
 20
23.8218515201
 30
0.0
 10
8.6376230563
 20
23.7902872068
 30
0.0
 10
8.5131740036
 20
23.7363812584
 30
0.0
 10
8.3130360566
 20
23.6860773801
 30
0.0
 10
8.1003376785
 20
23.6664017948
 30
0.0
 10
7.8773040456
 20
23.6772457096
 30
0.0
 10
7.6459546206
 20
23.7183872582
 30
0.0
 10
7.4083207011
 20
23.7892003628
 30
0.0
 10
7.1665544325
 20
23.8890862968
 30
0.0
 10
6.922753634
 20
24.0169747574
 30
0.0
 10
6.6791405681
 20
24.1717730196
 30
0.0
 10
6.4378439313
 20
24.3519838357
 30
0.0
 10
6.2011044745
 20
24.5560421953
 30
0.0
 10
5.890729145
 20
24.8608646692
 30
0.0
 10
5.5288061855
 20
25.2892799378
 30
0.0
 10
5.2773472785
 20
25.6659602275
 30
0.0
 10
5.1608442069
 20
25.8630552927
 30
0.0
  0
SPLINE
  5
26D
100
AcDbEntity
  8
0
100
AcDbSpline
 62
7
  6
BYLAYER
 70
0
 71
3
 72
15
 73
11
 74
0
 42
0.0000001
 43
0.0000001
 44
0.0000000001
 40
0.0
 40
0.0
 40
0.0
 40
0.0
 40
0.1485134878
 40
0.2894868855
 40
0.4227306659
 40
0.5486288513
 40
0.6679619383
 40
0.7819118756
 40
0.8920139941
 40
1.0
 40
1.0
 40
1.0
 40
1.0
 10
21.3536569128
 20
18.6293827426
 30
0.0
 10
21.3536569128
 20
18.7230929009
 30
0.0
 10
21.3612487011
 20
18.9058787229
 30
0.0
 10
21.3971791166
 20
19.1706093161
 30
0.0
 10
21.4573199796
 20
19.4163456385
 30
0.0
 10
21.5410593248
 20
19.6406515025
 30
0.0
 10
21.6478395681
 20
19.8413751381
 30
0.0
 10
21.77677489
 20
20.0165716544
 30
0.0
 10
21.9267884301
 20
20.1641061694
 30
0.0
 10
22.0402577185
 20
20.2433315347
 30
0.0
 10
22.0992616091
 20
20.2774094421
 30
0.0
  0
SPLINE
  5
26E
100
AcDbEntity
  8
0
100
AcDbSpline
 62
7
  6
BYLAYER
 70
0
 71
3
 72
25
 73
21
 74
0
 42
0.0000001
 43
0.0000001
 44
0.0000000001
 40
0.0
 40
0.0
 40
0.0
 40
0.0
 40
0.0212992022
 40
0.0428987368
 40
0.0649862015
 40
0.0877376165
 40
0.1357786066
 40
0.1879708439
 40
0.2446691677
 40
0.305813666
 40
0.3710175158
 40
0.4396465959
 40
0.5108851346
 40
0.5837916803
 40
0.6573508863
 40
0.7305206842
 40
0.8022742857
 40
0.8716386451
 40
0.9377925166
 40
1.0
 40
1.0
 40
1.0
 40
1.0
 10
25.6670262362
 20
14.0240734116
 30
0.0
 10
25.6223334176
 20
14.0000696087
 30
0.0
 10
25.5291222278
 20
13.9574366088
 30
0.0
 10
25.3811006001
 20
13.9109409781
 30
0.0
 10
25.2251528917
 20
13.8819320541
 30
0.0
 10
25.0040498154
 20
13.8665658271
 30
0.0
 10
24.7102682418
 20
13.8941567526
 30
0.0
 10
24.3490063076
 20
13.9962876688
 30
0.0
 10
23.979378814
 20
14.1650961566
 30
0.0
 10
23.6087905444
 20
14.3967597992
 30
0.0
 10
23.2446283642
 20
14.6863660222
 30
0.0
 10
22.8943711031
 20
15.0278841556
 30
0.0
 10
22.5652942013
 20
15.414188128
 30
0.0
 10
22.2642705095
 20
15.8371732752
 30
0.0
 10
21.9976089266
 20
16.2879535776
 30
0.0
 10
21.7709176875
 20
16.75706627
 30
0.0
 10
21.5889996879
 20
17.2346428048
 30
0.0
 10
21.4555808412
 20
17.7107364154
 30
0.0
 10
21.3735997505
 20
18.1752816191
 30
0.0
 10
21.3536569128
 20
18.4812154316
 30
0.0
 10
21.3536569128
 20
18.6293827426
 30
0.0
  0
SPLINE
  5
26F
100
AcDbEntity
  8
0
100
AcDbSpline
 62
7
  6
BYLAYER
 70
0
 71
3
 72
11
 73
7
 74
0
 42
0.0000001
 43
0.0000001
 44
0.0000000001
 40
0.0
 40
0.0
 40
0.0
 40
0.0
 40
0.2895368706
 40
0.5491085983
 40
0.7822509632
 40
1.0
 40
1.0
 40
1.0
 40
1.0
 10
25.6670262362
 20
9.6887450447
 30
0.0
 10
25.6670262362
 20
9.6634257114
 30
0.0
 10
25.6708906569
 20
9.6152474615
 30
0.0
 10
25.6903669043
 20
9.5490415388
 30
0.0
 10
25.7232182795
 20
9.4952985732
 30
0.0
 10
25.7541033642
 20
9.4693927547
 30
0.0
 10
25.7705940108
 20
9.4598720878
 30
0.0
  0
SPLINE
  5
270
100
AcDbEntity
  8
0
100
AcDbSpline
 62
7
  6
BYLAYER
 70
0
 71
3
 72
15
 73
11
 74
0
 42
0.0000001
 43
0.0000001
 44
0.0000000001
 40
0.0
 40
0.0
 40
0.0
 40
0.0
 40
0.1140710501
 40
0.2373515422
 40
0.3669822897
 40
0.4999994787
 40
0.63301674
 40
0.7626476993
 40
0.8859285256
 40
1.0
 40
1.0
 40
1.0
 40
1.0
 10
26.3741330173
 20
9.6887467444
 30
0.0
 10
26.3499474117
 20
9.6747832619
 30
0.0
 10
26.2970051855
 20
9.6501630938
 30
0.0
 10
26.2108337854
 20
9.6239225997
 30
0.0
 10
26.1175002644
 20
9.6078024979
 30
0.0
 10
26.0205802229
 20
9.6023899926
 30
0.0
 10
25.9236601041
 20
9.6078020379
 30
0.0
 10
25.8303263541
 20
9.6239216966
 30
0.0
 10
25.7441545827
 20
9.6501617809
 30
0.0
 10
25.6912120324
 20
9.6747816846
 30
0.0
 10
25.6670262362
 20
9.6887450447
 30
0.0
  0
ENDSEC
  0
SECTION
  2
OBJECTS
  0
DICTIONARY
  5
C
100
AcDbDictionary
280
0
281
1
  3
ACAD_GROUP
350
D
  3
ACAD_MLINESTYLE
350
17
  3
ACAD_LAYOUT
350
1A
  3
ACAD_PLOTSETTINGS
350
19
  3
ACAD_PLOTSTYLENAME
350
E
  0
DICTIONARY
  5
D
102
{ACAD_REACTORS
330
C
102
}
100
AcDbDictionary
280
0
281
1
  0
ACDBDICTIONARYWDFLT
  5
E
102
{ACAD_REACTORS
330
C
102
}
100
AcDbDictionary
281
1
  3
Normal
350
F
100
AcDbDictionaryWithDefault
340
F
  0
DICTIONARY
  5
17
102
{ACAD_REACTORS
330
C
102
}
100
AcDbDictionary
280
0
281
1
  3
Standard
350
18
  0
DICTIONARY
  5
19
102
{ACAD_REACTORS
330
C
102
}
100
AcDbDictionary
281
1
  0
DICTIONARY
  5
1A
102
{ACAD_REACTORS
330
C
102
}
100
AcDbDictionary
281
1
  3
Model
350
271
  3
Layout1
350
272
  0
ACDBPLACEHOLDER
  5
F
102
{ACAD_REACTORS
330
E
102
}
  0
MLINESTYLE
  5
18
102
{ACAD_REACTORS
330
17
102
}
100
AcDbMlineStyle
  2
STANDARD
 70
0
  3

 62
256
 51
90.0
 52
90.0
 71
2
 49
0.5
 62
256
  6
BYLAYER
 49
-0.5
 62
256
  6
BYLAYER
  0
LAYOUT
  5
271
102
{ACAD_REACTORS
330
1A
102
}
100
AcDbPlotSettings
  1

  2
none_device
  4

  6

 40
0.0
 41
0.0
 42
0.0
 43
0.0
 44
210.0
 45
297.0
 46
0.0
 47
0.0
 48
0.0
 49
0.0
140
0.0
141
0.0
142
1.0
143
1.0
 70
1024
 72
1
 73
0
 74
0
  7

 75
0
147
1.0
148
0.0
149
0.0
100
AcDbLayout
  1
Model
 70
0
 71
0
 10
0.0
 20
0.0
 11
210.0
 21
297.0
 12
0.0
 22
0.0
 32
0.0
 14
0.0
 24
0.0
 34
0.0
 15
0.0
 25
0.0
 35
0.0
146
0.0
 13
0.0
 23
0.0
 33
0.0
 16
1.0
 26
0.0
 36
0.0
 17
0.0
 27
1.0
 37
0.0
 76
0
330
210
345
0
346
0
  0
LAYOUT
  5
272
102
{ACAD_REACTORS
330
1A
102
}
100
AcDbPlotSettings
  1

  2
none_device
  4

  6

 40
0.0
 41
0.0
 42
0.0
 43
0.0
 44
210.0
 45
297.0
 46
0.0
 47
0.0
 48
0.0
 49
0.0
140
0.0
141
0.0
142
1.0
143
1.0
 70
0
 72
1
 73
0
 74
0
  7

 75
0
147
1.0
148
0.0
149
0.0
100
AcDbLayout
  1
Layout1
 70
0
 71
1
 10
0.0
 20
0.0
 11
210.0
 21
297.0
 12
0.0
 22
0.0
 32
0.0
 14
0.0
 24
0.0
 34
0.0
 15
0.0
 25
0.0
 35
0.0
146
0.0
 13
0.0
 23
0.0
 33
0.0
 16
1.0
 26
0.0
 36
0.0
 17
0.0
 27
1.0
 37
0.0
 76
0
330
211
345
0
346
0
  0
ENDSEC
  0
EOF
