999
DXF file: C:\Users\sesa63760\Dev\_Creo\CAD\MCADID0004770_3D-CAD\drw0001_2.dxf
999
Pro/ENGINEER 2019471 by Parametric Technology Corporation
  0
SECTION
  2
HEADER
  9
$ACADVER
  1
AC1024
  9
$DWGCODEPAGE
  3
ANSI_1252
  9
$EXTMAX
 10
59.152087322
 20
83.6579520697
 30
0.0
  9
$EXTMIN
 10
0.0
 20
0.0
 30
0.0
  9
$LIMMIN
 10
0.0
 20
0.0
  9
$LIMMAX
 10
59.152087322
 20
83.6579520697
  9
$VIEWCTR
 10
29.576043661
 20
41.8289760349
  9
$VIEWSIZE
 40
83.6579520697
  9
$CLAYER
  8
0
  9
$LTSCALE
 40
5.4532590979
  9
$CELTYPE
  6
BYLAYER
  9
$DIMSCALE
 40
1.0
  9
$DIMASZ
 40
0.7041915157
  9
$DIMEXO
 40
1.0
  9
$DIMDLI
 40
3.7677062858
  9
$DIMEXE
 40
1.0
  9
$DIMCEN
 40
0.8923514887
  9
$DIMLFAC
 40
1.0
  9
$DIMBLK
  1
_FILLED
  9
$DIMALT
 70
0
  9
$DIMALTF
 40
0.0393700787
  9
$DIMTXT
 40
0.985868122
  9
$DIMTOL
 70
1
  9
$DIMLIM
 70
0
  9
$DIMTFAC
 40
1.0
  9
$DIMTP
 40
0.01
  9
$DIMTM
 40
0.01
  9
$DIMGAP
 40
0.625
  9
$DIMDSEP
 70
46
  9
$AUNITS
 70
0
  9
$PDMODE
 70
3
  9
$PDSIZE
 40
0.3125
  9
$HANDSEED
  5
2D0
  9
$TILEMODE
 70
1
  9
$MEASUREMENT
 70
1
  9
$INSUNITS
 70
4
  0
ENDSEC
  0
SECTION
  2
CLASSES
  0
CLASS
  1
ACDBDICTIONARYWDFLT
  2
AcDbDictionaryWithDefault
  3
AutoCAD 2000
 90
0
 91
1
280
0
281
0
  0
CLASS
  1
ACDBPLACEHOLDER
  2
AcDbPlaceHolder
  3
AutoCAD 2000
 90
0
 91
1
280
0
281
0
  0
CLASS
  1
LAYOUT
  2
AcDbLayout
  3
AutoCAD 2000
 90
0
 91
0
280
0
281
0
  0
ENDSEC
  0
SECTION
  2
TABLES
  0
TABLE
  2
VPORT
  5
8
100
AcDbSymbolTable
 70
2
  0
VPORT
  5
1F4
100
AcDbSymbolTableRecord
100
AcDbViewportTableRecord
  2
*ACTIVE
 70
0
 10
0.0
 20
0.0
 11
1.0
 21
1.0
 12
29.576043661
 22
41.8289760349
 13
0.0
 23
0.0
 14
1.0
 24
1.0
 15
0.0
 25
0.0
 16
0.0
 26
0.0
 36
1.0
 17
0.0
 27
0.0
 37
0.0
 40
83.6579520697
 41
0.7070707071
 42
50.0
 43
0.0
 44
0.0
 50
0.0
 51
0.0
 71
0
 72
100
 73
1
 74
1
 75
0
 76
0
 77
0
 78
0
  0
ENDTAB
  0
TABLE
  2
LTYPE
  5
5
100
AcDbSymbolTable
 70
6
  0
LTYPE
  5
14
100
AcDbSymbolTableRecord
100
AcDbLinetypeTableRecord
  2
BYBLOCK
 70
0
  3

 72
65
 73
0
 40
0.0
  0
LTYPE
  5
15
100
AcDbSymbolTableRecord
100
AcDbLinetypeTableRecord
  2
BYLAYER
 70
0
  3

 72
65
 73
0
 40
0.0
  0
LTYPE
  5
16
100
AcDbSymbolTableRecord
100
AcDbLinetypeTableRecord
  2
CONTINUOUS
 70
64
  3
Solid line
 72
65
 73
0
 40
0.0
  0
LTYPE
  5
1F5
100
AcDbSymbolTableRecord
100
AcDbLinetypeTableRecord
  2
CENTER
 70
64
  3
____ _ ____ _ ____ _ ____ _ ____ _ ____ _ ____
 72
65
 73
4
 40
0.6
 49
0.375
 74
0
 49
-0.075
 74
0
 49
0.075
 74
0
 49
-0.075
 74
0
  0
LTYPE
  5
1F6
100
AcDbSymbolTableRecord
100
AcDbLinetypeTableRecord
  2
HIDDEN
 70
64
  3
- - - - - - - - - - - - - - - - - - - -
 72
65
 73
2
 40
0.2
 49
0.1
 74
0
 49
-0.1
 74
0
  0
LTYPE
  5
1F7
100
AcDbSymbolTableRecord
100
AcDbLinetypeTableRecord
  2
PHANTOM
 70
64
  3
_____ _ _ _____ _ _ _____ _ _ _____
 72
65
 73
6
 40
0.8
 49
0.45
 74
0
 49
-0.05
 74
0
 49
0.1
 74
0
 49
-0.05
 74
0
 49
0.1
 74
0
 49
-0.05
 74
0
  0
LTYPE
  5
1F8
100
AcDbSymbolTableRecord
100
AcDbLinetypeTableRecord
  2
DOT
 70
64
  3
. . . . . . . . . . . . . . . . . . . .
 72
65
 73
2
 40
0.2
 49
0.1
 74
0
 49
-0.1
 74
0
  0
LTYPE
  5
1F9
100
AcDbSymbolTableRecord
100
AcDbLinetypeTableRecord
  2
DASHED
 70
64
  3
- - - - - - - - - - - - - - - - - - - -
 72
65
 73
2
 40
0.2
 49
0.1
 74
0
 49
-0.1
 74
0
  0
ENDTAB
  0
TABLE
  2
LAYER
  5
2
100
AcDbSymbolTable
 70
36
  0
LAYER
  5
10
100
AcDbSymbolTableRecord
100
AcDbLayerTableRecord
  2
0
 70
0
 62
7
  6
CONTINUOUS
370
-3
390
F
  0
LAYER
  5
1FA
100
AcDbSymbolTableRecord
100
AcDbLayerTableRecord
  2
DEFAULT_1
 70
0
 62
7
  6
CENTER
370
-3
390
F
  0
LAYER
  5
1FB
100
AcDbSymbolTableRecord
100
AcDbLayerTableRecord
  2
DEFAULT_2
 70
0
 62
7
  6
HIDDEN
370
-3
390
F
  0
LAYER
  5
1FC
100
AcDbSymbolTableRecord
100
AcDbLayerTableRecord
  2
DEFAULT_3
 70
0
 62
7
  6
PHANTOM
370
-3
390
F
  0
LAYER
  5
1FD
100
AcDbSymbolTableRecord
100
AcDbLayerTableRecord
  2
00_COMPONENTS
 70
0
 62
7
  6
CONTINUOUS
370
-3
390
F
  0
LAYER
  5
1FE
100
AcDbSymbolTableRecord
100
AcDbLayerTableRecord
  2
01_1_DEFAULT_DATUMS
 70
0
 62
7
  6
CONTINUOUS
370
-3
390
F
  0
LAYER
  5
1FF
100
AcDbSymbolTableRecord
100
AcDbLayerTableRecord
  2
01_PLANES
 70
0
 62
7
  6
CONTINUOUS
370
-3
390
F
  0
LAYER
  5
200
100
AcDbSymbolTableRecord
100
AcDbLayerTableRecord
  2
02_COORD_SYS
 70
0
 62
7
  6
CONTINUOUS
370
-3
390
F
  0
LAYER
  5
201
100
AcDbSymbolTableRecord
100
AcDbLayerTableRecord
  2
03_AXES
 70
0
 62
7
  6
CONTINUOUS
370
-3
390
F
  0
LAYER
  5
202
100
AcDbSymbolTableRecord
100
AcDbLayerTableRecord
  2
04_POINTS
 70
0
 62
7
  6
CONTINUOUS
370
-3
390
F
  0
LAYER
  5
203
100
AcDbSymbolTableRecord
100
AcDbLayerTableRecord
  2
05_CURVES
 70
0
 62
7
  6
CONTINUOUS
370
-3
390
F
  0
LAYER
  5
204
100
AcDbSymbolTableRecord
100
AcDbLayerTableRecord
  2
06_SURFS
 70
0
 62
7
  6
CONTINUOUS
370
-3
390
F
  0
LAYER
  5
205
100
AcDbSymbolTableRecord
100
AcDbLayerTableRecord
  2
07_COSMETICS
 70
0
 62
7
  6
CONTINUOUS
370
-3
390
F
  0
LAYER
  5
206
100
AcDbSymbolTableRecord
100
AcDbLayerTableRecord
  2
10_NOTES
 70
0
 62
7
  6
CONTINUOUS
370
-3
390
F
  0
LAYER
  5
207
100
AcDbSymbolTableRecord
100
AcDbLayerTableRecord
  2
11_NOTES_PUB
 70
0
 62
7
  6
CONTINUOUS
370
-3
390
F
  0
LAYER
  5
208
100
AcDbSymbolTableRecord
100
AcDbLayerTableRecord
  2
13_REF_GTOL
 70
0
 62
7
  6
CONTINUOUS
370
-3
390
F
  0
LAYER
  5
209
100
AcDbSymbolTableRecord
100
AcDbLayerTableRecord
  2
16_MISC
 70
0
 62
7
  6
CONTINUOUS
370
-3
390
F
  0
LAYER
  5
20A
100
AcDbSymbolTableRecord
100
AcDbLayerTableRecord
  2
17_NO_PRINT
 70
0
 62
7
  6
CONTINUOUS
370
-3
390
F
  0
LAYER
  5
20B
100
AcDbSymbolTableRecord
100
AcDbLayerTableRecord
  2
18_DATUM_CAMS_JOINTS
 70
0
 62
7
  6
CONTINUOUS
370
-3
390
F
  0
LAYER
  5
20C
100
AcDbSymbolTableRecord
100
AcDbLayerTableRecord
  2
19_DATUM_FUNCTIONAL
 70
0
 62
7
  6
CONTINUOUS
370
-3
390
F
  0
LAYER
  5
20D
100
AcDbSymbolTableRecord
100
AcDbLayerTableRecord
  2
20_DATUM_KINEMATIC_SCHEME
 70
0
 62
7
  6
CONTINUOUS
370
-3
390
F
  0
ENDTAB
  0
TABLE
  2
STYLE
  5
3
100
AcDbSymbolTable
 70
1
  0
STYLE
  5
11
100
AcDbSymbolTableRecord
100
AcDbTextStyleTableRecord
  2
STANDARD
 70
0
 40
0.0
 41
1.0
 50
0.0
 71
0
 42
0.2
  3
ARIAL.TTF
  4

  0
STYLE
  5
20E
100
AcDbSymbolTableRecord
100
AcDbTextStyleTableRecord
  2
TEXTSTYLE_1
 70
0
 40
0.0
 41
0.8
 50
0.0
 71
0
 42
0.2
  3
gdt
  4

  0
ENDTAB
  0
TABLE
  2
VIEW
  5
6
100
AcDbSymbolTable
 70
0
  0
ENDTAB
  0
TABLE
  2
UCS
  5
7
100
AcDbSymbolTable
 70
0
  0
ENDTAB
  0
TABLE
  2
APPID
  5
9
100
AcDbSymbolTable
 70
1
  0
APPID
  5
20F
100
AcDbSymbolTableRecord
100
AcDbRegAppTableRecord
  2
ACAD
 70
0
  0
ENDTAB
  0
TABLE
  2
BLOCK_RECORD
  5
1
100
AcDbSymbolTable
 70
0
  0
BLOCK_RECORD
  5
210
100
AcDbSymbolTableRecord
100
AcDbBlockTableRecord
  2
*Model_Space
  0
BLOCK_RECORD
  5
211
100
AcDbSymbolTableRecord
100
AcDbBlockTableRecord
  2
*Paper_Space
  0
BLOCK_RECORD
  5
212
100
AcDbSymbolTableRecord
100
AcDbBlockTableRecord
  2
_FILLED
  0
ENDTAB
  0
TABLE
  2
DIMSTYLE
  5
A
100
AcDbSymbolTable
 70
1
100
AcDbDimStyleTable
 71
0
  0
DIMSTYLE
105
213
100
AcDbSymbolTableRecord
100
AcDbDimStyleTableRecord
  2
STANDARD
 70
0
  3

  4

 40
1.0
 41
0.7041915157
 42
1.0
 43
0.38
 44
1.0
 45
0.0
 46
0.0
 47
0.01
 48
0.01
140
0.985868122
141
0.09
142
0.0
143
25.4
144
1.0
145
0.0
146
1.0
147
0.625
 71
1
 72
0
 73
0
 74
0
 75
0
 76
0
 77
1
 78
8
 79
2
170
0
171
1
172
0
173
0
174
0
175
0
176
0
177
0
178
0
270
2
179
2
271
2
272
2
273
2
274
2
275
0
280
0
281
0
282
0
283
1
284
8
285
0
286
0
287
3
288
0
340
11
278
46
341
212
342
212
343
212
344
212
  0
ENDTAB
  0
ENDSEC
  0
SECTION
  2
BLOCKS
  0
BLOCK
  5
20
100
AcDbEntity
  8
0
100
AcDbBlockBegin
  2
*Model_Space
 70
0
 10
0.0
 20
0.0
 30
0.0
  3
*Model_Space
  1

  0
ENDBLK
  5
21
100
AcDbEntity
  8
0
100
AcDbBlockEnd
  0
BLOCK
  5
1C
100
AcDbEntity
  8
0
100
AcDbBlockBegin
  2
*Paper_Space
 70
0
 10
0.0
 20
0.0
 30
0.0
  3
*Paper_Space
  1

  0
ENDBLK
  5
1D
100
AcDbEntity
  8
0
100
AcDbBlockEnd
  0
BLOCK
  5
214
100
AcDbEntity
  8
0
100
AcDbBlockBegin
  2
_FILLED
 70
64
 10
0.0
 20
0.0
  3
_FILLED
  1

  0
SOLID
  5
215
100
AcDbEntity
  8
0
  6
BYBLOCK
 62
0
100
AcDbTrace
 10
0.0
 20
0.0
 11
-1.0
 21
0.25
 12
-1.0
 22
-0.25
 13
-1.0
 23
-0.25
  0
ENDBLK
  5
216
100
AcDbEntity
  8
0
  6
BYBLOCK
 62
0
100
AcDbBlockEnd
  0
ENDSEC
  0
SECTION
  2
ENTITIES
  0
LINE
  5
217
100
AcDbEntity
  8
0
100
AcDbLine
 62
7
  6
BYLAYER
 10
41.1284500407
 20
9.201825372
 11
37.8428093946
 21
9.201825372
  0
LINE
  5
218
100
AcDbEntity
  8
0
100
AcDbLine
 62
7
  6
BYLAYER
 10
45.8625546263
 20
9.251825372
 11
33.1087048094
 21
9.251825372
  0
LINE
  5
219
100
AcDbEntity
  8
0
100
AcDbLine
 62
7
  6
BYLAYER
 10
46.2132774525
 20
9.6650012832
 11
44.7990638901
 21
9.6650012832
  0
LINE
  5
21A
100
AcDbEntity
  8
0
100
AcDbLine
 62
7
  6
BYLAYER
 10
42.9423544432
 20
9.6650012832
 11
36.0289049921
 21
9.6650012832
  0
LINE
  5
21B
100
AcDbEntity
  8
0
100
AcDbLine
 62
7
  6
BYLAYER
 10
34.1721955452
 20
9.6650012832
 11
32.7579819828
 21
9.6650012832
  0
LINE
  5
21C
100
AcDbEntity
  8
0
100
AcDbLine
 62
7
  6
BYLAYER
 10
35.7100650149
 20
12.1886494609
 11
43.2611944204
 21
12.1886494609
  0
LINE
  5
21D
100
AcDbEntity
  8
0
100
AcDbLine
 62
7
  6
BYLAYER
 10
48.6308118988
 20
12.601825372
 11
30.3404462267
 21
12.601825372
  0
LINE
  5
21E
100
AcDbEntity
  8
0
100
AcDbLine
 62
7
  6
BYLAYER
 10
49.0639418812
 20
12.851825372
 11
46.6028383294
 21
12.851825372
  0
LINE
  5
21F
100
AcDbEntity
  8
0
100
AcDbLine
 62
7
  6
BYLAYER
 10
45.8957315482
 20
12.851825372
 11
29.9073175541
 21
12.851825372
  0
LINE
  5
220
100
AcDbEntity
  8
0
100
AcDbLine
 62
7
  6
BYLAYER
 10
29.3402802984
 20
13.8339627088
 11
46.2972041989
 21
13.8339627088
  0
LINE
  5
221
100
AcDbEntity
  8
0
100
AcDbLine
 62
7
  6
BYLAYER
 10
47.0043109801
 20
13.8339627088
 11
49.6309791369
 21
13.8339627088
  0
LINE
  5
222
100
AcDbEntity
  8
0
100
AcDbLine
 62
7
  6
BYLAYER
 10
49.6978902826
 20
14.0752365056
 11
47.0510422028
 21
14.0752365056
  0
LINE
  5
223
100
AcDbEntity
  8
0
100
AcDbLine
 62
7
  6
BYLAYER
 10
46.3452798382
 20
14.0752365056
 11
29.2733691527
 21
14.0752365056
  0
LINE
  5
224
100
AcDbEntity
  8
0
100
AcDbLine
 62
7
  6
BYLAYER
 10
50.7855706297
 20
15.801825372
 11
48.1856888056
 21
15.801825372
  0
LINE
  5
225
100
AcDbEntity
  8
0
100
AcDbLine
 62
7
  6
BYLAYER
 10
30.7855706297
 20
15.801825372
 11
28.1856888056
 21
15.801825372
  0
LINE
  5
226
100
AcDbEntity
  8
0
100
AcDbLine
 62
7
  6
BYLAYER
 10
50.9856297177
 20
16.001825372
 11
47.9856297177
 21
16.001825372
  0
LINE
  5
227
100
AcDbEntity
  8
0
100
AcDbLine
 62
7
  6
BYLAYER
 10
30.9856297177
 20
16.001825372
 11
27.9856297177
 21
16.001825372
  0
LINE
  5
228
100
AcDbEntity
  8
0
100
AcDbLine
 62
7
  6
BYLAYER
 10
6.4856297177
 20
37.801825372
 11
6.4856297177
 21
34.801825372
  0
LINE
  5
229
100
AcDbEntity
  8
0
100
AcDbLine
 62
7
  6
BYLAYER
 10
6.9856297177
 20
34.801825372
 11
6.9856297177
 21
45.7501877027
  0
LINE
  5
22A
100
AcDbEntity
  8
0
100
AcDbLine
 62
7
  6
BYLAYER
 10
47.9856297177
 20
19.101825372
 11
47.1141166163
 21
19.101825372
  0
LINE
  5
22B
100
AcDbEntity
  8
0
100
AcDbLine
 62
7
  6
BYLAYER
 10
46.4060723854
 20
19.101825372
 11
30.9856297177
 21
19.101825372
  0
LINE
  5
22C
100
AcDbEntity
  8
0
100
AcDbLine
 62
7
  6
BYLAYER
 10
51.4856297177
 20
19.501825372
 11
50.9856297177
 21
19.501825372
  0
LINE
  5
22D
100
AcDbEntity
  8
0
100
AcDbLine
 62
7
  6
BYLAYER
 10
50.266310692
 20
19.501825372
 11
45.0180511742
 21
19.501825372
  0
LINE
  5
22E
100
AcDbEntity
  8
0
100
AcDbLine
 62
7
  6
BYLAYER
 10
33.9532082611
 20
19.501825372
 11
28.7049487433
 21
19.501825372
  0
LINE
  5
22F
100
AcDbEntity
  8
0
100
AcDbLine
 62
7
  6
BYLAYER
 10
27.9856297177
 20
19.501825372
 11
27.4856297177
 21
19.501825372
  0
LINE
  5
230
100
AcDbEntity
  8
0
100
AcDbLine
 62
7
  6
BYLAYER
 10
25.9856307688
 20
20.101825372
 11
52.985628662
 21
20.101825372
  0
LINE
  5
231
100
AcDbEntity
  8
0
100
AcDbLine
 62
7
  6
BYLAYER
 10
28.1856297177
 20
15.801825372
 11
27.9856297177
 21
16.001825372
  0
LINE
  5
232
100
AcDbEntity
  8
0
100
AcDbLine
 62
7
  6
BYLAYER
 10
19.6555204261
 20
56.801825372
 11
11.0807009696
 21
52.4327366341
  0
LINE
  5
233
100
AcDbEntity
  8
0
100
AcDbLine
 62
7
  6
BYLAYER
 10
30.2994626438
 20
60.7865048037
 11
21.1788917833
 21
56.801825372
  0
LINE
  5
234
100
AcDbEntity
  8
0
100
AcDbLine
 62
7
  6
BYLAYER
 10
25.9856307687
 20
26.601825372
 11
52.9856286621
 21
26.601825372
  0
LINE
  5
235
100
AcDbEntity
  8
0
100
AcDbLine
 62
7
  6
BYLAYER
 10
29.9073175541
 20
12.851825372
 11
29.3402802984
 21
13.8339627088
  0
LINE
  5
236
100
AcDbEntity
  8
0
100
AcDbLine
 62
7
  6
BYLAYER
 10
20.4856297177
 20
50.4908297561
 11
25.0602272945
 21
52.8217036427
  0
LINE
  5
237
100
AcDbEntity
  8
0
100
AcDbLine
 62
7
  6
BYLAYER
 10
25.4561775342
 20
52.1229000411
 11
20.4161825216
 21
49.9209803621
  0
LINE
  5
238
100
AcDbEntity
  8
0
100
AcDbLine
 62
7
  6
BYLAYER
 10
19.9856297177
 20
34.801825372
 11
19.9856297177
 21
50.2908297561
  0
LINE
  5
239
100
AcDbEntity
  8
0
100
AcDbLine
 62
7
  6
BYLAYER
 10
33.8360925587
 20
67.7816637614
 11
30.2994626438
 21
60.7865048037
  0
LINE
  5
23A
100
AcDbEntity
  8
0
100
AcDbLine
 62
7
  6
BYLAYER
 10
29.3402802984
 20
13.8339627088
 11
29.2733691527
 21
14.0752365056
  0
LINE
  5
23B
100
AcDbEntity
  8
0
100
AcDbLine
 62
7
  6
BYLAYER
 10
23.9856297177
 20
37.801825372
 11
23.9856297177
 21
34.801825372
  0
LINE
  5
23C
100
AcDbEntity
  8
0
100
AcDbLine
 62
7
  6
BYLAYER
 10
22.0175786518
 20
46.2555294438
 11
33.3869066088
 21
51.2226666937
  0
LINE
  5
23D
100
AcDbEntity
  8
0
100
AcDbLine
 62
7
  6
BYLAYER
 10
6.4856297177
 20
34.801825372
 11
53.4856297177
 21
34.801825372
  0
LINE
  5
23E
100
AcDbEntity
  8
0
100
AcDbLine
 62
7
  6
BYLAYER
 10
48.1856297177
 20
15.801825372
 11
47.9856297177
 21
16.001825372
  0
LINE
  5
23F
100
AcDbEntity
  8
0
100
AcDbLine
 62
7
  6
BYLAYER
 10
24.8429932632
 20
39.7884109176
 11
22.8182767169
 21
44.4228039847
  0
LINE
  5
240
100
AcDbEntity
  8
0
100
AcDbLine
 62
7
  6
BYLAYER
 10
22.0175786518
 20
46.2555294438
 11
20.4161825216
 21
49.9209803621
  0
LINE
  5
241
100
AcDbEntity
  8
0
100
AcDbLine
 62
7
  6
BYLAYER
 10
25.9856297177
 20
37.801825372
 11
25.9856297177
 21
34.801825372
  0
LINE
  5
242
100
AcDbEntity
  8
0
100
AcDbLine
 62
7
  6
BYLAYER
 10
25.9856297177
 20
26.601825372
 11
25.9856297177
 21
20.101825372
  0
LINE
  5
243
100
AcDbEntity
  8
0
100
AcDbLine
 62
7
  6
BYLAYER
 10
26.0356297177
 20
34.801825372
 11
26.0356297177
 21
26.601825372
  0
LINE
  5
244
100
AcDbEntity
  8
0
100
AcDbLine
 62
7
  6
BYLAYER
 10
26.6855328678
 20
20.101825372
 11
26.6855310373
 21
26.601825372
  0
LINE
  5
245
100
AcDbEntity
  8
0
100
AcDbLine
 62
7
  6
BYLAYER
 10
26.7356297177
 20
26.601825372
 11
26.7356297177
 21
34.801825372
  0
LINE
  5
246
100
AcDbEntity
  8
0
100
AcDbLine
 62
7
  6
BYLAYER
 10
26.9856297177
 20
34.801825372
 11
26.9856297177
 21
37.801825372
  0
LINE
  5
247
100
AcDbEntity
  8
0
100
AcDbLine
 62
7
  6
BYLAYER
 10
27.4856297177
 20
20.101825372
 11
27.4856297177
 21
19.501825372
  0
LINE
  5
248
100
AcDbEntity
  8
0
100
AcDbLine
 62
7
  6
BYLAYER
 10
27.6442885716
 20
19.501825372
 11
27.6442885716
 21
20.101825372
  0
LINE
  5
249
100
AcDbEntity
  8
0
100
AcDbLine
 62
7
  6
BYLAYER
 10
25.8565265667
 20
51.2065373116
 11
25.595857546
 21
47.8188410532
  0
LINE
  5
24A
100
AcDbEntity
  8
0
100
AcDbLine
 62
7
  6
BYLAYER
 10
26.6366479875
 20
39.5279720949
 11
26.4856297177
 21
37.801825372
  0
LINE
  5
24B
100
AcDbEntity
  8
0
100
AcDbLine
 62
7
  6
BYLAYER
 10
41.0976500019
 20
50.5146900512
 11
44.0719609587
 21
51.6326600413
  0
LINE
  5
24C
100
AcDbEntity
  8
0
100
AcDbLine
 62
7
  6
BYLAYER
 10
6.4856297177
 20
37.801825372
 11
6.9856297177
 21
37.801825372
  0
LINE
  5
24D
100
AcDbEntity
  8
0
100
AcDbLine
 62
7
  6
BYLAYER
 10
19.9856297177
 20
37.801825372
 11
53.4856297177
 21
37.801825372
  0
LINE
  5
24E
100
AcDbEntity
  8
0
100
AcDbLine
 62
7
  6
BYLAYER
 10
19.9856297177
 20
38.801825372
 11
6.9856297177
 21
38.801825372
  0
LINE
  5
24F
100
AcDbEntity
  8
0
100
AcDbLine
 62
7
  6
BYLAYER
 10
27.1594906107
 20
39.001825372
 11
27.762208521
 21
39.001825372
  0
LINE
  5
250
100
AcDbEntity
  8
0
100
AcDbLine
 62
7
  6
BYLAYER
 10
47.1594906107
 20
39.001825372
 11
47.762208521
 21
39.001825372
  0
LINE
  5
251
100
AcDbEntity
  8
0
100
AcDbLine
 62
7
  6
BYLAYER
 10
29.2733691527
 20
14.0752365056
 11
29.2432314319
 21
15.801825372
  0
LINE
  5
252
100
AcDbEntity
  8
0
100
AcDbLine
 62
7
  6
BYLAYER
 10
27.9856297177
 20
20.101825372
 11
27.9856297177
 21
16.001825372
  0
LINE
  5
253
100
AcDbEntity
  8
0
100
AcDbLine
 62
7
  6
BYLAYER
 10
28.7049487433
 20
20.101825372
 11
28.7049487433
 21
19.501825372
  0
LINE
  5
254
100
AcDbEntity
  8
0
100
AcDbLine
 62
7
  6
BYLAYER
 10
30.0032678079
 20
19.501825372
 11
30.0032678079
 21
20.101825372
  0
LINE
  5
255
100
AcDbEntity
  8
0
100
AcDbLine
 62
7
  6
BYLAYER
 10
27.8390280827
 20
19.501825372
 11
27.8472324963
 21
20.101825372
  0
LINE
  5
256
100
AcDbEntity
  8
0
100
AcDbLine
 62
7
  6
BYLAYER
 10
24.8429932632
 20
39.7884109176
 11
19.9856297177
 21
38.8793800384
  0
LINE
  5
257
100
AcDbEntity
  8
0
100
AcDbLine
 62
7
  6
BYLAYER
 10
26.6366479875
 20
39.5279720949
 11
27.1841605755
 21
39.5279720949
  0
LINE
  5
258
100
AcDbEntity
  8
0
100
AcDbLine
 62
7
  6
BYLAYER
 10
27.8063630067
 20
39.5279720949
 11
32.3346114478
 21
39.5279720949
  0
LINE
  5
259
100
AcDbEntity
  8
0
100
AcDbLine
 62
7
  6
BYLAYER
 10
46.6366479875
 20
39.5279720949
 11
47.1841605755
 21
39.5279720949
  0
LINE
  5
25A
100
AcDbEntity
  8
0
100
AcDbLine
 62
7
  6
BYLAYER
 10
47.8063630067
 20
39.5279720949
 11
52.3346114478
 21
39.5279720949
  0
LINE
  5
25B
100
AcDbEntity
  8
0
100
AcDbLine
 62
7
  6
BYLAYER
 10
26.9355595087
 20
39.801825372
 11
32.0356999266
 21
39.801825372
  0
LINE
  5
25C
100
AcDbEntity
  8
0
100
AcDbLine
 62
7
  6
BYLAYER
 10
46.9355595087
 20
39.801825372
 11
52.0356999266
 21
39.801825372
  0
LINE
  5
25D
100
AcDbEntity
  8
0
100
AcDbLine
 62
7
  6
BYLAYER
 10
47.5211566728
 20
41.7923662287
 11
31.4501027625
 21
41.7923662287
  0
LINE
  5
25E
100
AcDbEntity
  8
0
100
AcDbLine
 62
7
  6
BYLAYER
 10
25.4561775342
 20
52.1229000411
 11
25.8565265668
 21
51.2065373116
  0
LINE
  5
25F
100
AcDbEntity
  8
0
100
AcDbLine
 62
7
  6
BYLAYER
 10
37.829411935
 20
9.251825372
 11
37.8428093946
 21
9.201825372
  0
LINE
  5
260
100
AcDbEntity
  8
0
100
AcDbLine
 62
7
  6
BYLAYER
 10
32.3346114478
 20
39.5279720949
 11
32.4856297177
 21
37.801825372
  0
LINE
  5
261
100
AcDbEntity
  8
0
100
AcDbLine
 62
7
  6
BYLAYER
 10
30.9856297177
 20
19.501825372
 11
30.9856297177
 21
16.001825372
  0
LINE
  5
262
100
AcDbEntity
  8
0
100
AcDbLine
 62
7
  6
BYLAYER
 10
33.2145619058
 20
43.556825372
 11
31.4501027625
 21
41.7923662287
  0
LINE
  5
263
100
AcDbEntity
  8
0
100
AcDbLine
 62
7
  6
BYLAYER
 10
33.2145619058
 20
43.556825372
 11
45.7566975295
 21
43.556825372
  0
LINE
  5
264
100
AcDbEntity
  8
0
100
AcDbLine
 62
7
  6
BYLAYER
 10
45.2569781908
 20
43.9436013516
 11
33.7145237382
 21
43.9436013516
  0
LINE
  5
265
100
AcDbEntity
  8
0
100
AcDbLine
 62
7
  6
BYLAYER
 10
34.2215003807
 20
44.0817840508
 11
44.7497590546
 21
44.0817840508
  0
LINE
  5
266
100
AcDbEntity
  8
0
100
AcDbLine
 62
7
  6
BYLAYER
 10
44.9856297177
 20
44.5817840508
 11
33.9856297177
 21
44.5817840508
  0
LINE
  5
267
100
AcDbEntity
  8
0
100
AcDbLine
 62
7
  6
BYLAYER
 10
25.0602272945
 20
52.8217036427
 11
23.5886654533
 21
55.7098063716
  0
LINE
  5
268
100
AcDbEntity
  8
0
100
AcDbLine
 62
7
  6
BYLAYER
 10
33.9532082611
 20
20.101825372
 11
33.9532082611
 21
19.501825372
  0
LINE
  5
269
100
AcDbEntity
  8
0
100
AcDbLine
 62
7
  6
BYLAYER
 10
33.9856297177
 20
45.156825372
 11
33.9856297177
 21
44.5817840508
  0
LINE
  5
26A
100
AcDbEntity
  8
0
100
AcDbLine
 62
7
  6
BYLAYER
 10
34.4856297177
 20
45.156825372
 11
34.4856297177
 21
48.0170794099
  0
LINE
  5
26B
100
AcDbEntity
  8
0
100
AcDbLine
 62
7
  6
BYLAYER
 10
33.9856297177
 20
45.156825372
 11
44.9856297177
 21
45.156825372
  0
LINE
  5
26C
100
AcDbEntity
  8
0
100
AcDbLine
 62
7
  6
BYLAYER
 10
34.4856297177
 20
48.0170794099
 11
44.4856297177
 21
48.0170794099
  0
LINE
  5
26D
100
AcDbEntity
  8
0
100
AcDbLine
 62
7
  6
BYLAYER
 10
44.0719609587
 20
51.6326600413
 11
48.2609660603
 21
60.867270531
  0
LINE
  5
26E
100
AcDbEntity
  8
0
100
AcDbLine
 62
7
  6
BYLAYER
 10
20.1856297177
 20
50.4908297561
 11
20.4856297177
 21
50.4908297561
  0
LINE
  5
26F
100
AcDbEntity
  8
0
100
AcDbLine
 62
7
  6
BYLAYER
 10
36.3169472666
 20
51.3301064072
 11
38.7036402709
 21
50.4896191235
  0
LINE
  5
270
100
AcDbEntity
  8
0
100
AcDbLine
 62
7
  6
BYLAYER
 10
45.7566975295
 20
43.556825372
 11
47.5211566728
 21
41.7923662287
  0
LINE
  5
271
100
AcDbEntity
  8
0
100
AcDbLine
 62
7
  6
BYLAYER
 10
44.4856297177
 20
45.156825372
 11
44.4856297177
 21
48.0170794099
  0
LINE
  5
272
100
AcDbEntity
  8
0
100
AcDbLine
 62
7
  6
BYLAYER
 10
44.9856297177
 20
45.156825372
 11
44.9856297177
 21
44.5817840508
  0
LINE
  5
273
100
AcDbEntity
  8
0
100
AcDbLine
 62
7
  6
BYLAYER
 10
45.0180511742
 20
19.501825372
 11
45.0180511742
 21
20.101825372
  0
LINE
  5
274
100
AcDbEntity
  8
0
100
AcDbLine
 62
7
  6
BYLAYER
 10
21.806652405
 20
56.801825372
 11
19.6555204261
 21
56.801825372
  0
LINE
  5
275
100
AcDbEntity
  8
0
100
AcDbLine
 62
7
  6
BYLAYER
 10
46.4066549271
 20
19.1018253721
 11
46.4066655715
 21
19.501825372
  0
LINE
  5
276
100
AcDbEntity
  8
0
100
AcDbLine
 62
7
  6
BYLAYER
 10
46.5481110751
 20
19.501825372
 11
46.5481110751
 21
12.7504552865
  0
LINE
  5
277
100
AcDbEntity
  8
0
100
AcDbLine
 62
7
  6
BYLAYER
 10
47.1137723527
 20
19.501825372
 11
47.1137617082
 21
19.101825372
  0
LINE
  5
278
100
AcDbEntity
  8
0
100
AcDbLine
 62
7
  6
BYLAYER
 10
47.9856297177
 20
19.501825372
 11
47.9856297177
 21
16.001825372
  0
LINE
  5
279
100
AcDbEntity
  8
0
100
AcDbLine
 62
7
  6
BYLAYER
 10
48.9679916274
 20
20.101825372
 11
48.9679916274
 21
19.501825372
  0
LINE
  5
27A
100
AcDbEntity
  8
0
100
AcDbLine
 62
7
  6
BYLAYER
 10
46.4066549271
 20
19.1018253721
 11
46.3446157982
 21
14.0752365056
  0
LINE
  5
27B
100
AcDbEntity
  8
0
100
AcDbLine
 62
7
  6
BYLAYER
 10
47.0517225794
 20
14.0752365056
 11
47.1137617082
 21
19.101825372
  0
LINE
  5
27C
100
AcDbEntity
  8
0
100
AcDbLine
 62
7
  6
BYLAYER
 10
46.6366479875
 20
39.5279720949
 11
46.4856297177
 21
37.801825372
  0
LINE
  5
27D
100
AcDbEntity
  8
0
100
AcDbLine
 62
7
  6
BYLAYER
 10
30.7856297177
 20
15.801825372
 11
30.9856297177
 21
16.001825372
  0
LINE
  5
27E
100
AcDbEntity
  8
0
100
AcDbLine
 62
7
  6
BYLAYER
 10
51.1240269391
 20
20.101825372
 11
51.1322313526
 21
19.501825372
  0
LINE
  5
27F
100
AcDbEntity
  8
0
100
AcDbLine
 62
7
  6
BYLAYER
 10
50.266310692
 20
19.501825372
 11
50.266310692
 21
20.101825372
  0
LINE
  5
280
100
AcDbEntity
  8
0
100
AcDbLine
 62
7
  6
BYLAYER
 10
50.9856297177
 20
20.101825372
 11
50.9856297177
 21
16.001825372
  0
LINE
  5
281
100
AcDbEntity
  8
0
100
AcDbLine
 62
7
  6
BYLAYER
 10
51.3269708638
 20
20.101825372
 11
51.3269708638
 21
19.501825372
  0
LINE
  5
282
100
AcDbEntity
  8
0
100
AcDbLine
 62
7
  6
BYLAYER
 10
51.4856297177
 20
19.501825372
 11
51.4856297177
 21
20.101825372
  0
LINE
  5
283
100
AcDbEntity
  8
0
100
AcDbLine
 62
7
  6
BYLAYER
 10
49.6978902826
 20
14.0752365056
 11
49.7280280034
 21
15.801825372
  0
LINE
  5
284
100
AcDbEntity
  8
0
100
AcDbLine
 62
7
  6
BYLAYER
 10
41.1418475003
 20
9.251825372
 11
41.1284500407
 21
9.201825372
  0
LINE
  5
285
100
AcDbEntity
  8
0
100
AcDbLine
 62
7
  6
BYLAYER
 10
52.3346114478
 20
39.5279720949
 11
52.4856297177
 21
37.801825372
  0
LINE
  5
286
100
AcDbEntity
  8
0
100
AcDbLine
 62
7
  6
BYLAYER
 10
51.9856297177
 20
37.801825372
 11
51.9856297177
 21
34.801825372
  0
LINE
  5
287
100
AcDbEntity
  8
0
100
AcDbLine
 62
7
  6
BYLAYER
 10
52.2356297177
 20
34.801825372
 11
52.2356297177
 21
26.601825372
  0
LINE
  5
288
100
AcDbEntity
  8
0
100
AcDbLine
 62
7
  6
BYLAYER
 10
52.2857299746
 20
26.601825372
 11
52.2857280197
 21
20.101825372
  0
LINE
  5
289
100
AcDbEntity
  8
0
100
AcDbLine
 62
7
  6
BYLAYER
 10
52.9356297177
 20
26.601825372
 11
52.9356297177
 21
34.801825372
  0
LINE
  5
28A
100
AcDbEntity
  8
0
100
AcDbLine
 62
7
  6
BYLAYER
 10
52.9856297177
 20
20.101825372
 11
52.9856297177
 21
26.601825372
  0
LINE
  5
28B
100
AcDbEntity
  8
0
100
AcDbLine
 62
7
  6
BYLAYER
 10
52.9856297177
 20
34.801825372
 11
52.9856297177
 21
37.801825372
  0
LINE
  5
28C
100
AcDbEntity
  8
0
100
AcDbLine
 62
7
  6
BYLAYER
 10
53.4856297177
 20
37.801825372
 11
53.4856297177
 21
34.801825372
  0
LINE
  5
28D
100
AcDbEntity
  8
0
100
AcDbLine
 62
7
  6
BYLAYER
 10
49.6309791369
 20
13.8339627088
 11
49.6978902826
 21
14.0752365056
  0
LINE
  5
28E
100
AcDbEntity
  8
0
100
AcDbLine
 62
7
  6
BYLAYER
 10
49.0639418812
 20
12.851825372
 11
49.6309791369
 21
13.8339627088
  0
LINE
  5
28F
100
AcDbEntity
  8
0
100
AcDbLine
 62
7
  6
BYLAYER
 10
50.7856297177
 20
15.801825372
 11
50.9856297177
 21
16.001825372
  0
ARC
  5
290
100
AcDbEntity
  8
0
100
AcDbCircle
 62
7
  6
BYLAYER
 10
30.340330256
 20
13.101825372
 40
0.5
100
AcDbArc
 50
210.0
 51
270.0
  0
ARC
  5
291
100
AcDbEntity
  8
0
100
AcDbCircle
 62
7
  6
BYLAYER
 10
14.4856297177
 20
45.7501877027
 40
7.5
100
AcDbArc
 50
117.0000000002
 51
180.0
  0
ARC
  5
292
100
AcDbEntity
  8
0
100
AcDbCircle
 62
7
  6
BYLAYER
 10
13.4856297177
 20
45.801825372
 40
7.0
100
AcDbArc
 50
340.1284284572
 51
19.4923899901
  0
ARC
  5
293
100
AcDbEntity
  8
0
100
AcDbCircle
 62
7
  6
BYLAYER
 10
13.4856297177
 20
45.801825372
 40
7.0
100
AcDbArc
 50
110.6342949001
 51
198.3745050912
  0
CIRCLE
  5
294
100
AcDbEntity
  8
0
100
AcDbCircle
 62
7
  6
BYLAYER
 10
13.4856297177
 20
45.801825372
 40
2.05
  0
ARC
  5
295
100
AcDbEntity
  8
0
100
AcDbCircle
 62
7
  6
BYLAYER
 10
21.806652405
 20
54.801825372
 40
2.0
100
AcDbArc
 50
27.0000000034
 51
90.0000000005
  0
ARC
  5
296
100
AcDbEntity
  8
0
100
AcDbCircle
 62
7
  6
BYLAYER
 10
24.6510021761
 20
45.2235020498
 40
2.0
100
AcDbArc
 50
113.5999999997
 51
203.5999999996
  0
CIRCLE
  5
297
100
AcDbEntity
  8
0
100
AcDbCircle
 62
7
  6
BYLAYER
 10
13.4856297177
 20
45.801825372
 40
1.97
  0
CIRCLE
  5
298
100
AcDbEntity
  8
0
100
AcDbCircle
 62
7
  6
BYLAYER
 10
13.4856297177
 20
45.801825372
 40
1.47
  0
CIRCLE
  5
299
100
AcDbEntity
  8
0
100
AcDbCircle
 62
7
  6
BYLAYER
 10
13.4856297177
 20
45.801825372
 40
1.25
  0
ARC
  5
29A
100
AcDbEntity
  8
0
100
AcDbCircle
 62
7
  6
BYLAYER
 10
26.9355063969
 20
39.501825372
 40
0.3
100
AcDbArc
 50
90.0
 51
175.0
  0
ARC
  5
29B
100
AcDbEntity
  8
0
100
AcDbCircle
 62
7
  6
BYLAYER
 10
32.0357530384
 20
39.501825372
 40
0.3
100
AcDbArc
 50
5.0
 51
90.0
  0
ARC
  5
29C
100
AcDbEntity
  8
0
100
AcDbCircle
 62
7
  6
BYLAYER
 10
20.1856297177
 20
50.2908297561
 40
0.2
100
AcDbArc
 50
89.9999999972
 51
180.0
  0
ARC
  5
29D
100
AcDbEntity
  8
0
100
AcDbCircle
 62
7
  6
BYLAYER
 10
43.9856297176
 20
38.256825372
 40
5.0
100
AcDbArc
 50
19.53400518
 51
45.0000532915
  0
ARC
  5
29E
100
AcDbEntity
  8
0
100
AcDbCircle
 62
7
  6
BYLAYER
 10
34.9856297182
 20
38.256825372
 40
5.0
100
AcDbArc
 50
135.0000787968
 51
160.4659948276
  0
ARC
  5
29F
100
AcDbEntity
  8
0
100
AcDbCircle
 62
7
  6
BYLAYER
 10
48.6309291793
 20
13.101825372
 40
0.5
100
AcDbArc
 50
270.0
 51
330.0
  0
ARC
  5
2A0
100
AcDbEntity
  8
0
100
AcDbCircle
 62
7
  6
BYLAYER
 10
39.4856297177
 20
39.356825372
 40
10.0
100
AcDbArc
 50
60.0
 51
120.0
  0
ARC
  5
2A1
100
AcDbEntity
  8
0
100
AcDbCircle
 62
7
  6
BYLAYER
 10
40.9754967738
 20
64.1721059696
 40
10.0
100
AcDbArc
 50
299.461292312
 51
195.5600866633
  0
CIRCLE
  5
2A2
100
AcDbEntity
  8
0
100
AcDbCircle
 62
7
  6
BYLAYER
 10
40.9754967738
 20
64.1721059696
 40
8.0
  0
ARC
  5
2A3
100
AcDbEntity
  8
0
100
AcDbCircle
 62
7
  6
BYLAYER
 10
34.9883027391
 20
47.5572157754
 40
4.0
100
AcDbArc
 50
70.6000000001
 51
113.6000000001
  0
ARC
  5
2A4
100
AcDbEntity
  8
0
100
AcDbCircle
 62
7
  6
BYLAYER
 10
39.8662042325
 20
53.7908984263
 40
3.5
100
AcDbArc
 50
250.6
 51
290.6000000001
  0
CIRCLE
  5
2A5
100
AcDbEntity
  8
0
100
AcDbCircle
 62
7
  6
BYLAYER
 10
40.9754967738
 20
64.1721059696
 40
3.3
  0
CIRCLE
  5
2A6
100
AcDbEntity
  8
0
100
AcDbCircle
 62
7
  6
BYLAYER
 10
40.9754967738
 20
64.1721059696
 40
2.5
  0
ARC
  5
2A7
100
AcDbEntity
  8
0
100
AcDbCircle
 62
7
  6
BYLAYER
 10
43.9889305766
 20
41.7890584191
 40
2.5
100
AcDbArc
 50
45.0000000001
 51
59.5212313329
  0
ARC
  5
2A8
100
AcDbEntity
  8
0
100
AcDbCircle
 62
7
  6
BYLAYER
 10
34.9823288588
 20
41.7890584191
 40
2.5
100
AcDbArc
 50
120.4787686671
 51
134.9999999999
  0
CIRCLE
  5
2A9
100
AcDbEntity
  8
0
100
AcDbCircle
 62
7
  6
BYLAYER
 10
40.9754967738
 20
64.1721059696
 40
2.1
  0
CIRCLE
  5
2AA
100
AcDbEntity
  8
0
100
AcDbCircle
 62
7
  6
BYLAYER
 10
40.9754967738
 20
64.1721059696
 40
1.7
  0
ARC
  5
2AB
100
AcDbEntity
  8
0
100
AcDbCircle
 62
7
  6
BYLAYER
 10
44.7497593623
 20
43.0817840508
 40
1.0
100
AcDbArc
 50
59.5212457728
 51
90.0000138802
  0
ARC
  5
2AC
100
AcDbEntity
  8
0
100
AcDbCircle
 62
7
  6
BYLAYER
 10
34.221500073
 20
43.0817840508
 40
1.0
100
AcDbArc
 50
89.9999861198
 51
120.4787542272
  0
ARC
  5
2AD
100
AcDbEntity
  8
0
100
AcDbCircle
 62
7
  6
BYLAYER
 10
46.9355063969
 20
39.501825372
 40
0.3
100
AcDbArc
 50
90.0
 51
175.0
  0
ARC
  5
2AE
100
AcDbEntity
  8
0
100
AcDbCircle
 62
7
  6
BYLAYER
 10
52.0357530384
 20
39.501825372
 40
0.3
100
AcDbArc
 50
5.0
 51
90.0
  0
ARC
  5
2AF
100
AcDbEntity
  8
0
100
AcDbCircle
 62
7
  6
BYLAYER
 10
34.3856297181
 20
44.3317840508
 40
0.25
100
AcDbArc
 50
270.0000276397
 51
89.9999723484
  0
ARC
  5
2B0
100
AcDbEntity
  8
0
100
AcDbCircle
 62
7
  6
BYLAYER
 10
44.5856297172
 20
44.3317840508
 40
0.25
100
AcDbArc
 50
90.0000276516
 51
269.9999723603
  0
SPLINE
  5
2B1
100
AcDbEntity
  8
0
100
AcDbSpline
 62
7
  6
BYLAYER
 70
0
 71
3
 72
13
 73
9
 74
0
 42
0.0000001
 43
0.0000001
 44
0.0000000001
 40
0.0
 40
0.0
 40
0.0
 40
0.0
 40
0.1041528073
 40
0.2121617149
 40
0.326229733
 40
0.4478670385
 40
0.7130322492
 40
1.0
 40
1.0
 40
1.0
 40
1.0
 10
48.026527104
 20
39.801825372
 30
0.0
 10
48.0132379851
 20
39.801825372
 30
0.0
 10
47.9860562171
 20
39.7982498269
 30
0.0
 10
47.947034217
 20
39.7827238557
 30
0.0
 10
47.910690964
 20
39.7575709664
 30
0.0
 10
47.8661893006
 20
39.7112132773
 30
0.0
 10
47.8244610764
 20
39.6342545541
 30
0.0
 10
47.8094287861
 20
39.5644584577
 30
0.0
 10
47.8063630067
 20
39.5279720949
 30
0.0
  0
LINE
  5
2B2
100
AcDbEntity
  8
0
100
AcDbLine
 62
7
  6
BYLAYER
 10
47.8063630067
 20
39.5279720949
 11
47.762208521
 21
39.001825372
  0
LINE
  5
2B3
100
AcDbEntity
  8
0
100
AcDbLine
 62
7
  6
BYLAYER
 10
47.1594906107
 20
39.001825372
 11
47.1841605755
 21
39.5279720949
  0
SPLINE
  5
2B4
100
AcDbEntity
  8
0
100
AcDbSpline
 62
7
  6
BYLAYER
 70
0
 71
3
 72
13
 73
9
 74
0
 42
0.0000001
 43
0.0000001
 44
0.0000000001
 40
0.0
 40
0.0
 40
0.0
 40
0.0
 40
0.288421717
 40
0.5527165709
 40
0.6735938789
 40
0.7870847351
 40
0.8950541412
 40
1.0
 40
1.0
 40
1.0
 40
1.0
 10
47.1841605755
 20
39.5279720949
 30
0.0
 10
47.1858669631
 20
39.5642837274
 30
0.0
 10
47.1981686276
 20
39.6338252236
 30
0.0
 10
47.2371216763
 20
39.711126164
 30
0.0
 10
47.2800025594
 20
39.7575895888
 30
0.0
 10
47.3154815437
 20
39.7827751579
 30
0.0
 10
47.3540024782
 20
39.7982942826
 30
0.0
 10
47.3809561818
 20
39.801825372
 30
0.0
 10
47.3941832053
 20
39.801825372
 30
0.0
  0
SPLINE
  5
2B5
100
AcDbEntity
  8
0
100
AcDbSpline
 62
7
  6
BYLAYER
 70
0
 71
3
 72
13
 73
9
 74
0
 42
0.0000001
 43
0.0000001
 44
0.0000000001
 40
0.0
 40
0.0
 40
0.0
 40
0.0
 40
0.1041528073
 40
0.2121617149
 40
0.326229733
 40
0.4478670385
 40
0.7130322492
 40
1.0
 40
1.0
 40
1.0
 40
1.0
 10
28.026527104
 20
39.801825372
 30
0.0
 10
28.0132379851
 20
39.801825372
 30
0.0
 10
27.9860562171
 20
39.7982498269
 30
0.0
 10
27.947034217
 20
39.7827238557
 30
0.0
 10
27.910690964
 20
39.7575709664
 30
0.0
 10
27.8661893006
 20
39.7112132773
 30
0.0
 10
27.8244610764
 20
39.6342545541
 30
0.0
 10
27.8094287861
 20
39.5644584577
 30
0.0
 10
27.8063630067
 20
39.5279720949
 30
0.0
  0
LINE
  5
2B6
100
AcDbEntity
  8
0
100
AcDbLine
 62
7
  6
BYLAYER
 10
27.8063630067
 20
39.5279720949
 11
27.762208521
 21
39.001825372
  0
LINE
  5
2B7
100
AcDbEntity
  8
0
100
AcDbLine
 62
7
  6
BYLAYER
 10
27.1594906107
 20
39.001825372
 11
27.1841605755
 21
39.5279720949
  0
SPLINE
  5
2B8
100
AcDbEntity
  8
0
100
AcDbSpline
 62
7
  6
BYLAYER
 70
0
 71
3
 72
13
 73
9
 74
0
 42
0.0000001
 43
0.0000001
 44
0.0000000001
 40
0.0
 40
0.0
 40
0.0
 40
0.0
 40
0.288421717
 40
0.5527165709
 40
0.6735938789
 40
0.7870847351
 40
0.8950541412
 40
1.0
 40
1.0
 40
1.0
 40
1.0
 10
27.1841605755
 20
39.5279720949
 30
0.0
 10
27.1858669631
 20
39.5642837274
 30
0.0
 10
27.1981686276
 20
39.6338252236
 30
0.0
 10
27.2371216763
 20
39.711126164
 30
0.0
 10
27.2800025594
 20
39.7575895888
 30
0.0
 10
27.3154815437
 20
39.7827751579
 30
0.0
 10
27.3540024782
 20
39.7982942826
 30
0.0
 10
27.3809561818
 20
39.801825372
 30
0.0
 10
27.3941832053
 20
39.801825372
 30
0.0
  0
SPLINE
  5
2B9
100
AcDbEntity
  8
0
100
AcDbSpline
 62
7
  6
BYLAYER
 70
0
 71
3
 72
9
 73
5
 74
0
 42
0.0000001
 43
0.0000001
 44
0.0000000001
 40
0.0
 40
0.0
 40
0.0
 40
0.0
 40
0.2429925142
 40
1.0
 40
1.0
 40
1.0
 40
1.0
 10
45.8410042939
 20
12.7504549875
 30
0.0
 10
45.8463583858
 20
12.7581099935
 30
0.0
 10
45.8674352088
 20
12.7902776127
 30
0.0
 10
45.8847176788
 20
12.8248837945
 30
0.0
 10
45.8957302093
 20
12.8518220968
 30
0.0
  0
SPLINE
  5
2BA
100
AcDbEntity
  8
0
100
AcDbSpline
 62
7
  6
BYLAYER
 70
0
 71
3
 72
9
 73
5
 74
0
 42
0.0000001
 43
0.0000001
 44
0.0000000001
 40
0.0
 40
0.0
 40
0.0
 40
0.0
 40
0.2432903293
 40
1.0
 40
1.0
 40
1.0
 40
1.0
 10
46.2972041989
 20
13.8339627088
 30
0.0
 10
46.3047739566
 20
13.8524822209
 30
0.0
 10
46.3319288418
 20
13.9301867833
 30
0.0
 10
46.3438468884
 20
14.0130136794
 30
0.0
 10
46.3446157982
 20
14.0752365056
 30
0.0
  0
LINE
  5
2BB
100
AcDbEntity
  8
0
100
AcDbLine
 62
7
  6
BYLAYER
 10
45.8957302093
 20
12.8518220968
 11
46.2972041989
 21
13.8339627088
  0
LINE
  5
2BC
100
AcDbEntity
  8
0
100
AcDbLine
 62
7
  6
BYLAYER
 10
46.2132774525
 20
9.6650012832
 11
46.5818186939
 21
12.601825372
  0
SPLINE
  5
2BD
100
AcDbEntity
  8
0
100
AcDbSpline
 62
7
  6
BYLAYER
 70
0
 71
3
 72
13
 73
9
 74
0
 42
0.0000001
 43
0.0000001
 44
0.0000000001
 40
0.0
 40
0.0
 40
0.0
 40
0.0
 40
0.1054791018
 40
0.2141153206
 40
0.3281177535
 40
0.4491367898
 40
0.7126322928
 40
1.0
 40
1.0
 40
1.0
 40
1.0
 10
45.8625546256
 20
9.251825372
 30
0.0
 10
45.8832452958
 20
9.251825372
 30
0.0
 10
45.9254103993
 20
9.257080641
 30
0.0
 10
45.9860919464
 20
9.2801157367
 30
0.0
 10
46.0427520552
 20
9.3175659889
 30
0.0
 10
46.1125500998
 20
9.3868086467
 30
0.0
 10
46.1796814762
 20
9.5029518695
 30
0.0
 10
46.2062559634
 20
9.6090705468
 30
0.0
 10
46.2132774525
 20
9.6650012832
 30
0.0
  0
LINE
  5
2BE
100
AcDbEntity
  8
0
100
AcDbLine
 62
7
  6
BYLAYER
 10
32.3894407414
 20
12.601825372
 11
32.7579819828
 21
9.6650012832
  0
SPLINE
  5
2BF
100
AcDbEntity
  8
0
100
AcDbSpline
 62
7
  6
BYLAYER
 70
0
 71
3
 72
13
 73
9
 74
0
 42
0.0000001
 43
0.0000001
 44
0.0000000001
 40
0.0
 40
0.0
 40
0.0
 40
0.0
 40
0.2873719025
 40
0.5508652922
 40
0.6718822544
 40
0.7858834551
 40
0.8945201858
 40
1.0
 40
1.0
 40
1.0
 40
1.0
 10
32.7579819828
 20
9.6650012832
 30
0.0
 10
32.7650035747
 20
9.609069728
 30
0.0
 10
32.7915783576
 20
9.50295067
 30
0.0
 10
32.8587100105
 20
9.3868075537
 30
0.0
 10
32.928507594
 20
9.3175660131
 30
0.0
 10
32.985167052
 20
9.28011574
 30
0.0
 10
33.0458487344
 20
9.2570810227
 30
0.0
 10
33.0880140194
 20
9.251825372
 30
0.0
 10
33.1087048303
 20
9.251825372
 30
0.0
  0
SPLINE
  5
2C0
100
AcDbEntity
  8
0
100
AcDbSpline
 62
7
  6
BYLAYER
 70
0
 71
3
 72
9
 73
5
 74
0
 42
0.0000001
 43
0.0000001
 44
0.0000000001
 40
0.0
 40
0.0
 40
0.0
 40
0.0
 40
0.2558873972
 40
1.0
 40
1.0
 40
1.0
 40
1.0
 10
47.0517225794
 20
14.0752365056
 30
0.0
 10
47.0514625969
 20
14.0541978284
 30
0.0
 10
47.0467144067
 20
13.9720984141
 30
0.0
 10
47.0274606541
 20
13.8905986914
 30
0.0
 10
47.0043109801
 20
13.8339627088
 30
0.0
  0
LINE
  5
2C1
100
AcDbEntity
  8
0
100
AcDbLine
 62
7
  6
BYLAYER
 10
42.9423544432
 20
9.6650012832
 11
43.2611944204
 21
12.1886494609
  0
LINE
  5
2C2
100
AcDbEntity
  8
0
100
AcDbLine
 62
7
  6
BYLAYER
 10
35.7100650149
 20
12.1886494609
 11
36.0289049921
 21
9.6650012832
  0
SPLINE
  5
2C3
100
AcDbEntity
  8
0
100
AcDbSpline
 62
7
  6
BYLAYER
 70
0
 71
3
 72
13
 73
9
 74
0
 42
0.0000001
 43
0.0000001
 44
0.0000000001
 40
0.0
 40
0.0
 40
0.0
 40
0.0
 40
0.1055883009
 40
0.2142679349
 40
0.3282255356
 40
0.4491441461
 40
0.7124887462
 40
1.0
 40
1.0
 40
1.0
 40
1.0
 10
42.5887285849
 20
9.251825372
 30
0.0
 10
42.6095155808
 20
9.251825372
 30
0.0
 10
42.6518598801
 20
9.2570280837
 30
0.0
 10
42.7128741821
 20
9.2798792704
 30
0.0
 10
42.769938436
 20
9.3171180522
 30
0.0
 10
42.8403692729
 20
9.3861435921
 30
0.0
 10
42.9083319268
 20
9.5023735337
 30
0.0
 10
42.9352527362
 20
9.6088466984
 30
0.0
 10
42.9423544432
 20
9.6650012832
 30
0.0
  0
LINE
  5
2C4
100
AcDbEntity
  8
0
100
AcDbLine
 62
7
  6
BYLAYER
 10
47.0043109801
 20
13.8339627088
 11
46.6028386593
 21
12.8518261789
  0
SPLINE
  5
2C5
100
AcDbEntity
  8
0
100
AcDbSpline
 62
7
  6
BYLAYER
 70
0
 71
3
 72
9
 73
5
 74
0
 42
0.0000001
 43
0.0000001
 44
0.0000000001
 40
0.0
 40
0.0
 40
0.0
 40
0.0
 40
0.4999999911
 40
1.0
 40
1.0
 40
1.0
 40
1.0
 10
46.5481110751
 20
12.7504550466
 30
0.0
 10
46.4305153853
 20
12.7415946532
 30
0.0
 10
46.1945576866
 20
12.7336031884
 30
0.0
 10
45.9585999879
 20
12.7415946531
 30
0.0
 10
45.8410042939
 20
12.7504550466
 30
0.0
  0
SPLINE
  5
2C6
100
AcDbEntity
  8
0
100
AcDbSpline
 62
7
  6
BYLAYER
 70
0
 71
3
 72
13
 73
9
 74
0
 42
0.0000001
 43
0.0000001
 44
0.0000000001
 40
0.0
 40
0.0
 40
0.0
 40
0.0
 40
0.2875189039
 40
0.5508579604
 40
0.6717723907
 40
0.7857283269
 40
0.8944098677
 40
1.0
 40
1.0
 40
1.0
 40
1.0
 10
36.0289049921
 20
9.6650012832
 30
0.0
 10
36.0360069136
 20
9.6088450026
 30
0.0
 10
36.0629283827
 20
9.5023711244
 30
0.0
 10
36.130891546
 20
9.3861413032
 30
0.0
 10
36.2013216737
 20
9.3171179079
 30
0.0
 10
36.2583851094
 20
9.2798787404
 30
0.0
 10
36.3194005234
 20
9.2570286466
 30
0.0
 10
36.3617455843
 20
9.251825372
 30
0.0
 10
36.3825330153
 20
9.251825372
 30
0.0
  0
SPLINE
  5
2C7
100
AcDbEntity
  8
0
100
AcDbSpline
 62
7
  6
BYLAYER
 70
0
 71
3
 72
9
 73
5
 74
0
 42
0.0000001
 43
0.0000001
 44
0.0000000001
 40
0.0
 40
0.0
 40
0.0
 40
0.0
 40
0.2571257864
 40
1.0
 40
1.0
 40
1.0
 40
1.0
 10
46.6028386593
 20
12.8518261789
 30
0.0
 10
46.5990981615
 20
12.8426763599
 30
0.0
 10
46.5836442902
 20
12.8074742982
 30
0.0
 10
46.5644794299
 20
12.7738579207
 30
0.0
 10
46.5481110751
 20
12.7504552865
 30
0.0
  0
LINE
  5
2C8
100
AcDbEntity
  8
0
100
AcDbLine
 62
7
  6
BYLAYER
 10
45.1676051315
 20
12.601825372
 11
44.7990638901
 21
9.6650012832
  0
SPLINE
  5
2C9
100
AcDbEntity
  8
0
100
AcDbSpline
 62
7
  6
BYLAYER
 70
0
 71
3
 72
13
 73
9
 74
0
 42
0.0000001
 43
0.0000001
 44
0.0000000001
 40
0.0
 40
0.0
 40
0.0
 40
0.0
 40
0.2873719025
 40
0.5508652922
 40
0.6718822544
 40
0.7858834551
 40
0.8945201858
 40
1.0
 40
1.0
 40
1.0
 40
1.0
 10
44.7990638901
 20
9.6650012832
 30
0.0
 10
44.7920422982
 20
9.609069728
 30
0.0
 10
44.7654675153
 20
9.50295067
 30
0.0
 10
44.6983358625
 20
9.3868075537
 30
0.0
 10
44.6285382789
 20
9.3175660131
 30
0.0
 10
44.5718788209
 20
9.28011574
 30
0.0
 10
44.5111971385
 20
9.2570810227
 30
0.0
 10
44.4690318535
 20
9.251825372
 30
0.0
 10
44.4483410426
 20
9.251825372
 30
0.0
  0
SPLINE
  5
2CA
100
AcDbEntity
  8
0
100
AcDbSpline
 62
7
  6
BYLAYER
 70
0
 71
3
 72
13
 73
9
 74
0
 42
0.0000001
 43
0.0000001
 44
0.0000000001
 40
0.0
 40
0.0
 40
0.0
 40
0.0
 40
0.1055355276
 40
0.214205892
 40
0.3282020339
 40
0.4491783414
 40
0.7125810202
 40
1.0
 40
1.0
 40
1.0
 40
1.0
 10
35.3578916085
 20
12.601825372
 30
0.0
 10
35.3786278437
 20
12.601825372
 30
0.0
 10
35.4208794635
 20
12.596578345
 30
0.0
 10
35.4817080028
 20
12.5735925488
 30
0.0
 10
35.5385461669
 20
12.5362180053
 30
0.0
 10
35.6086372163
 20
12.4670810981
 30
0.0
 10
35.6762067301
 20
12.350944145
 30
0.0
 10
35.7029928057
 20
12.2446786398
 30
0.0
 10
35.7100650149
 20
12.1886494609
 30
0.0
  0
SPLINE
  5
2CB
100
AcDbEntity
  8
0
100
AcDbSpline
 62
7
  6
BYLAYER
 70
0
 71
3
 72
13
 73
9
 74
0
 42
0.0000001
 43
0.0000001
 44
0.0000000001
 40
0.0
 40
0.0
 40
0.0
 40
0.0
 40
0.2874240077
 40
0.5508230587
 40
0.6717964288
 40
0.7857913526
 40
0.8944631449
 40
1.0
 40
1.0
 40
1.0
 40
1.0
 10
43.2611944204
 20
12.1886494609
 30
0.0
 10
43.2682667664
 20
12.2446797241
 30
0.0
 10
43.2950532663
 20
12.350945642
 30
0.0
 10
43.3626230186
 20
12.4670824535
 30
0.0
 10
43.4327134856
 20
12.5362179115
 30
0.0
 10
43.4895510059
 20
12.5735927647
 30
0.0
 10
43.5503802708
 20
12.5965778484
 30
0.0
 10
43.5926324139
 20
12.601825372
 30
0.0
 10
43.6133689484
 20
12.601825372
 30
0.0
  0
LINE
  5
2CC
100
AcDbEntity
  8
0
100
AcDbLine
 62
7
  6
BYLAYER
 10
34.1721955452
 20
9.6650012832
 11
33.8036543038
 21
12.601825372
  0
SPLINE
  5
2CD
100
AcDbEntity
  8
0
100
AcDbSpline
 62
7
  6
BYLAYER
 70
0
 71
3
 72
13
 73
9
 74
0
 42
0.0000001
 43
0.0000001
 44
0.0000000001
 40
0.0
 40
0.0
 40
0.0
 40
0.0
 40
0.1054791018
 40
0.2141153206
 40
0.3281177535
 40
0.4491367898
 40
0.7126322928
 40
1.0
 40
1.0
 40
1.0
 40
1.0
 10
34.5229183721
 20
9.251825372
 30
0.0
 10
34.5022277018
 20
9.251825372
 30
0.0
 10
34.4600625983
 20
9.257080641
 30
0.0
 10
34.3993810512
 20
9.2801157367
 30
0.0
 10
34.3427209425
 20
9.3175659889
 30
0.0
 10
34.2729228979
 20
9.3868086467
 30
0.0
 10
34.2057915215
 20
9.5029518695
 30
0.0
 10
34.1792170343
 20
9.6090705468
 30
0.0
 10
34.1721955452
 20
9.6650012832
 30
0.0
  0
ENDSEC
  0
SECTION
  2
OBJECTS
  0
DICTIONARY
  5
C
100
AcDbDictionary
280
0
281
1
  3
ACAD_GROUP
350
D
  3
ACAD_MLINESTYLE
350
17
  3
ACAD_LAYOUT
350
1A
  3
ACAD_PLOTSETTINGS
350
19
  3
ACAD_PLOTSTYLENAME
350
E
  0
DICTIONARY
  5
D
102
{ACAD_REACTORS
330
C
102
}
100
AcDbDictionary
280
0
281
1
  0
ACDBDICTIONARYWDFLT
  5
E
102
{ACAD_REACTORS
330
C
102
}
100
AcDbDictionary
281
1
  3
Normal
350
F
100
AcDbDictionaryWithDefault
340
F
  0
DICTIONARY
  5
17
102
{ACAD_REACTORS
330
C
102
}
100
AcDbDictionary
280
0
281
1
  3
Standard
350
18
  0
DICTIONARY
  5
19
102
{ACAD_REACTORS
330
C
102
}
100
AcDbDictionary
281
1
  0
DICTIONARY
  5
1A
102
{ACAD_REACTORS
330
C
102
}
100
AcDbDictionary
281
1
  3
Model
350
2CE
  3
Layout1
350
2CF
  0
ACDBPLACEHOLDER
  5
F
102
{ACAD_REACTORS
330
E
102
}
  0
MLINESTYLE
  5
18
102
{ACAD_REACTORS
330
17
102
}
100
AcDbMlineStyle
  2
STANDARD
 70
0
  3

 62
256
 51
90.0
 52
90.0
 71
2
 49
0.5
 62
256
  6
BYLAYER
 49
-0.5
 62
256
  6
BYLAYER
  0
LAYOUT
  5
2CE
102
{ACAD_REACTORS
330
1A
102
}
100
AcDbPlotSettings
  1

  2
none_device
  4

  6

 40
0.0
 41
0.0
 42
0.0
 43
0.0
 44
210.0
 45
297.0
 46
0.0
 47
0.0
 48
0.0
 49
0.0
140
0.0
141
0.0
142
1.0
143
1.0
 70
1024
 72
1
 73
0
 74
0
  7

 75
0
147
1.0
148
0.0
149
0.0
100
AcDbLayout
  1
Model
 70
0
 71
0
 10
0.0
 20
0.0
 11
210.0
 21
297.0
 12
0.0
 22
0.0
 32
0.0
 14
0.0
 24
0.0
 34
0.0
 15
0.0
 25
0.0
 35
0.0
146
0.0
 13
0.0
 23
0.0
 33
0.0
 16
1.0
 26
0.0
 36
0.0
 17
0.0
 27
1.0
 37
0.0
 76
0
330
210
345
0
346
0
  0
LAYOUT
  5
2CF
102
{ACAD_REACTORS
330
1A
102
}
100
AcDbPlotSettings
  1

  2
none_device
  4

  6

 40
0.0
 41
0.0
 42
0.0
 43
0.0
 44
210.0
 45
297.0
 46
0.0
 47
0.0
 48
0.0
 49
0.0
140
0.0
141
0.0
142
1.0
143
1.0
 70
0
 72
1
 73
0
 74
0
  7

 75
0
147
1.0
148
0.0
149
0.0
100
AcDbLayout
  1
Layout1
 70
0
 71
1
 10
0.0
 20
0.0
 11
210.0
 21
297.0
 12
0.0
 22
0.0
 32
0.0
 14
0.0
 24
0.0
 34
0.0
 15
0.0
 25
0.0
 35
0.0
146
0.0
 13
0.0
 23
0.0
 33
0.0
 16
1.0
 26
0.0
 36
0.0
 17
0.0
 27
1.0
 37
0.0
 76
0
330
211
345
0
346
0
  0
ENDSEC
  0
EOF
