999
DXF file: C:\Users\sesa63760\Dev\_Creo\CAD\MCADID0004513_3D-CAD\drw0001_1.dxf
999
Pro/ENGINEER 2019471 by Parametric Technology Corporation
  0
SECTION
  2
HEADER
  9
$ACADVER
  1
AC1024
  9
$DWGCODEPAGE
  3
ANSI_1252
  9
$EXTMAX
 10
26.1011094241
 20
36.9144261855
 30
0.0
  9
$EXTMIN
 10
0.0
 20
0.0
 30
0.0
  9
$LIMMIN
 10
0.0
 20
0.0
  9
$LIMMAX
 10
26.1011094241
 20
36.9144261855
  9
$VIEWCTR
 10
13.050554712
 20
18.4572130927
  9
$VIEWSIZE
 40
36.9144261855
  9
$CLAYER
  8
0
  9
$LTSCALE
 40
2.4062737069
  9
$CELTYPE
  6
BYLAYER
  9
$DIMSCALE
 40
1.0
  9
$DIMASZ
 40
0.3107274931
  9
$DIMEXO
 40
1.0
  9
$DIMDLI
 40
1.6625163793
  9
$DIMEXE
 40
1.0
  9
$DIMCEN
 40
0.3937538793
  9
$DIMLFAC
 40
1.0
  9
$DIMBLK
  1
_FILLED
  9
$DIMALT
 70
0
  9
$DIMALTF
 40
0.0393700787
  9
$DIMTXT
 40
0.4350184904
  9
$DIMTOL
 70
1
  9
$DIMLIM
 70
0
  9
$DIMTFAC
 40
1.0
  9
$DIMTP
 40
0.01
  9
$DIMTM
 40
0.01
  9
$DIMGAP
 40
0.625
  9
$DIMDSEP
 70
46
  9
$AUNITS
 70
0
  9
$PDMODE
 70
3
  9
$PDSIZE
 40
0.3125
  9
$HANDSEED
  5
272
  9
$TILEMODE
 70
1
  9
$MEASUREMENT
 70
1
  9
$INSUNITS
 70
4
  0
ENDSEC
  0
SECTION
  2
CLASSES
  0
CLASS
  1
ACDBDICTIONARYWDFLT
  2
AcDbDictionaryWithDefault
  3
AutoCAD 2000
 90
0
 91
1
280
0
281
0
  0
CLASS
  1
ACDBPLACEHOLDER
  2
AcDbPlaceHolder
  3
AutoCAD 2000
 90
0
 91
1
280
0
281
0
  0
CLASS
  1
LAYOUT
  2
AcDbLayout
  3
AutoCAD 2000
 90
0
 91
0
280
0
281
0
  0
ENDSEC
  0
SECTION
  2
TABLES
  0
TABLE
  2
VPORT
  5
8
100
AcDbSymbolTable
 70
2
  0
VPORT
  5
1F4
100
AcDbSymbolTableRecord
100
AcDbViewportTableRecord
  2
*ACTIVE
 70
0
 10
0.0
 20
0.0
 11
1.0
 21
1.0
 12
13.050554712
 22
18.4572130927
 13
0.0
 23
0.0
 14
1.0
 24
1.0
 15
0.0
 25
0.0
 16
0.0
 26
0.0
 36
1.0
 17
0.0
 27
0.0
 37
0.0
 40
36.9144261855
 41
0.7070707071
 42
50.0
 43
0.0
 44
0.0
 50
0.0
 51
0.0
 71
0
 72
100
 73
1
 74
1
 75
0
 76
0
 77
0
 78
0
  0
ENDTAB
  0
TABLE
  2
LTYPE
  5
5
100
AcDbSymbolTable
 70
6
  0
LTYPE
  5
14
100
AcDbSymbolTableRecord
100
AcDbLinetypeTableRecord
  2
BYBLOCK
 70
0
  3

 72
65
 73
0
 40
0.0
  0
LTYPE
  5
15
100
AcDbSymbolTableRecord
100
AcDbLinetypeTableRecord
  2
BYLAYER
 70
0
  3

 72
65
 73
0
 40
0.0
  0
LTYPE
  5
16
100
AcDbSymbolTableRecord
100
AcDbLinetypeTableRecord
  2
CONTINUOUS
 70
64
  3
Solid line
 72
65
 73
0
 40
0.0
  0
LTYPE
  5
1F5
100
AcDbSymbolTableRecord
100
AcDbLinetypeTableRecord
  2
CENTER
 70
64
  3
____ _ ____ _ ____ _ ____ _ ____ _ ____ _ ____
 72
65
 73
4
 40
0.6
 49
0.375
 74
0
 49
-0.075
 74
0
 49
0.075
 74
0
 49
-0.075
 74
0
  0
LTYPE
  5
1F6
100
AcDbSymbolTableRecord
100
AcDbLinetypeTableRecord
  2
HIDDEN
 70
64
  3
- - - - - - - - - - - - - - - - - - - -
 72
65
 73
2
 40
0.2
 49
0.1
 74
0
 49
-0.1
 74
0
  0
LTYPE
  5
1F7
100
AcDbSymbolTableRecord
100
AcDbLinetypeTableRecord
  2
PHANTOM
 70
64
  3
_____ _ _ _____ _ _ _____ _ _ _____
 72
65
 73
6
 40
0.8
 49
0.45
 74
0
 49
-0.05
 74
0
 49
0.1
 74
0
 49
-0.05
 74
0
 49
0.1
 74
0
 49
-0.05
 74
0
  0
LTYPE
  5
1F8
100
AcDbSymbolTableRecord
100
AcDbLinetypeTableRecord
  2
DOT
 70
64
  3
. . . . . . . . . . . . . . . . . . . .
 72
65
 73
2
 40
0.2
 49
0.1
 74
0
 49
-0.1
 74
0
  0
LTYPE
  5
1F9
100
AcDbSymbolTableRecord
100
AcDbLinetypeTableRecord
  2
DASHED
 70
64
  3
- - - - - - - - - - - - - - - - - - - -
 72
65
 73
2
 40
0.2
 49
0.1
 74
0
 49
-0.1
 74
0
  0
ENDTAB
  0
TABLE
  2
LAYER
  5
2
100
AcDbSymbolTable
 70
36
  0
LAYER
  5
10
100
AcDbSymbolTableRecord
100
AcDbLayerTableRecord
  2
0
 70
0
 62
7
  6
CONTINUOUS
370
-3
390
F
  0
LAYER
  5
1FA
100
AcDbSymbolTableRecord
100
AcDbLayerTableRecord
  2
DEFAULT_1
 70
0
 62
7
  6
CENTER
370
-3
390
F
  0
LAYER
  5
1FB
100
AcDbSymbolTableRecord
100
AcDbLayerTableRecord
  2
DEFAULT_2
 70
0
 62
7
  6
HIDDEN
370
-3
390
F
  0
LAYER
  5
1FC
100
AcDbSymbolTableRecord
100
AcDbLayerTableRecord
  2
DEFAULT_3
 70
0
 62
7
  6
PHANTOM
370
-3
390
F
  0
LAYER
  5
1FD
100
AcDbSymbolTableRecord
100
AcDbLayerTableRecord
  2
00_COMPONENTS
 70
0
 62
7
  6
CONTINUOUS
370
-3
390
F
  0
LAYER
  5
1FE
100
AcDbSymbolTableRecord
100
AcDbLayerTableRecord
  2
01_1_DEFAULT_DATUMS
 70
0
 62
7
  6
CONTINUOUS
370
-3
390
F
  0
LAYER
  5
1FF
100
AcDbSymbolTableRecord
100
AcDbLayerTableRecord
  2
01_PLANES
 70
0
 62
7
  6
CONTINUOUS
370
-3
390
F
  0
LAYER
  5
200
100
AcDbSymbolTableRecord
100
AcDbLayerTableRecord
  2
02_COORD_SYS
 70
0
 62
7
  6
CONTINUOUS
370
-3
390
F
  0
LAYER
  5
201
100
AcDbSymbolTableRecord
100
AcDbLayerTableRecord
  2
03_AXES
 70
0
 62
7
  6
CONTINUOUS
370
-3
390
F
  0
LAYER
  5
202
100
AcDbSymbolTableRecord
100
AcDbLayerTableRecord
  2
04_POINTS
 70
0
 62
7
  6
CONTINUOUS
370
-3
390
F
  0
LAYER
  5
203
100
AcDbSymbolTableRecord
100
AcDbLayerTableRecord
  2
05_CURVES
 70
0
 62
7
  6
CONTINUOUS
370
-3
390
F
  0
LAYER
  5
204
100
AcDbSymbolTableRecord
100
AcDbLayerTableRecord
  2
06_SURFS
 70
0
 62
7
  6
CONTINUOUS
370
-3
390
F
  0
LAYER
  5
205
100
AcDbSymbolTableRecord
100
AcDbLayerTableRecord
  2
07_COSMETICS
 70
0
 62
7
  6
CONTINUOUS
370
-3
390
F
  0
LAYER
  5
206
100
AcDbSymbolTableRecord
100
AcDbLayerTableRecord
  2
10_NOTES
 70
0
 62
7
  6
CONTINUOUS
370
-3
390
F
  0
LAYER
  5
207
100
AcDbSymbolTableRecord
100
AcDbLayerTableRecord
  2
11_NOTES_PUB
 70
0
 62
7
  6
CONTINUOUS
370
-3
390
F
  0
LAYER
  5
208
100
AcDbSymbolTableRecord
100
AcDbLayerTableRecord
  2
13_REF_GTOL
 70
0
 62
7
  6
CONTINUOUS
370
-3
390
F
  0
LAYER
  5
209
100
AcDbSymbolTableRecord
100
AcDbLayerTableRecord
  2
16_MISC
 70
0
 62
7
  6
CONTINUOUS
370
-3
390
F
  0
LAYER
  5
20A
100
AcDbSymbolTableRecord
100
AcDbLayerTableRecord
  2
17_NO_PRINT
 70
0
 62
7
  6
CONTINUOUS
370
-3
390
F
  0
LAYER
  5
20B
100
AcDbSymbolTableRecord
100
AcDbLayerTableRecord
  2
18_DATUM_CAMS_JOINTS
 70
0
 62
7
  6
CONTINUOUS
370
-3
390
F
  0
LAYER
  5
20C
100
AcDbSymbolTableRecord
100
AcDbLayerTableRecord
  2
19_DATUM_FUNCTIONAL
 70
0
 62
7
  6
CONTINUOUS
370
-3
390
F
  0
LAYER
  5
20D
100
AcDbSymbolTableRecord
100
AcDbLayerTableRecord
  2
20_DATUM_KINEMATIC_SCHEME
 70
0
 62
7
  6
CONTINUOUS
370
-3
390
F
  0
ENDTAB
  0
TABLE
  2
STYLE
  5
3
100
AcDbSymbolTable
 70
1
  0
STYLE
  5
11
100
AcDbSymbolTableRecord
100
AcDbTextStyleTableRecord
  2
STANDARD
 70
0
 40
0.0
 41
1.0
 50
0.0
 71
0
 42
0.2
  3
ARIAL.TTF
  4

  0
STYLE
  5
20E
100
AcDbSymbolTableRecord
100
AcDbTextStyleTableRecord
  2
TEXTSTYLE_1
 70
0
 40
0.0
 41
0.8
 50
0.0
 71
0
 42
0.2
  3
gdt
  4

  0
ENDTAB
  0
TABLE
  2
VIEW
  5
6
100
AcDbSymbolTable
 70
0
  0
ENDTAB
  0
TABLE
  2
UCS
  5
7
100
AcDbSymbolTable
 70
0
  0
ENDTAB
  0
TABLE
  2
APPID
  5
9
100
AcDbSymbolTable
 70
1
  0
APPID
  5
20F
100
AcDbSymbolTableRecord
100
AcDbRegAppTableRecord
  2
ACAD
 70
0
  0
ENDTAB
  0
TABLE
  2
BLOCK_RECORD
  5
1
100
AcDbSymbolTable
 70
0
  0
BLOCK_RECORD
  5
210
100
AcDbSymbolTableRecord
100
AcDbBlockTableRecord
  2
*Model_Space
  0
BLOCK_RECORD
  5
211
100
AcDbSymbolTableRecord
100
AcDbBlockTableRecord
  2
*Paper_Space
  0
BLOCK_RECORD
  5
212
100
AcDbSymbolTableRecord
100
AcDbBlockTableRecord
  2
_FILLED
  0
ENDTAB
  0
TABLE
  2
DIMSTYLE
  5
A
100
AcDbSymbolTable
 70
1
100
AcDbDimStyleTable
 71
0
  0
DIMSTYLE
105
213
100
AcDbSymbolTableRecord
100
AcDbDimStyleTableRecord
  2
STANDARD
 70
0
  3

  4

 40
1.0
 41
0.3107274931
 42
1.0
 43
0.38
 44
1.0
 45
0.0
 46
0.0
 47
0.01
 48
0.01
140
0.4350184904
141
0.09
142
0.0
143
25.4
144
1.0
145
0.0
146
1.0
147
0.625
 71
1
 72
0
 73
0
 74
0
 75
0
 76
0
 77
1
 78
8
 79
2
170
0
171
1
172
0
173
0
174
0
175
0
176
0
177
0
178
0
270
2
179
2
271
2
272
2
273
2
274
2
275
0
280
0
281
0
282
0
283
1
284
8
285
0
286
0
287
3
288
0
340
11
278
46
341
212
342
212
343
212
344
212
  0
ENDTAB
  0
ENDSEC
  0
SECTION
  2
BLOCKS
  0
BLOCK
  5
20
100
AcDbEntity
  8
0
100
AcDbBlockBegin
  2
*Model_Space
 70
0
 10
0.0
 20
0.0
 30
0.0
  3
*Model_Space
  1

  0
ENDBLK
  5
21
100
AcDbEntity
  8
0
100
AcDbBlockEnd
  0
BLOCK
  5
1C
100
AcDbEntity
  8
0
100
AcDbBlockBegin
  2
*Paper_Space
 70
0
 10
0.0
 20
0.0
 30
0.0
  3
*Paper_Space
  1

  0
ENDBLK
  5
1D
100
AcDbEntity
  8
0
100
AcDbBlockEnd
  0
BLOCK
  5
214
100
AcDbEntity
  8
0
100
AcDbBlockBegin
  2
_FILLED
 70
64
 10
0.0
 20
0.0
  3
_FILLED
  1

  0
SOLID
  5
215
100
AcDbEntity
  8
0
  6
BYBLOCK
 62
0
100
AcDbTrace
 10
0.0
 20
0.0
 11
-1.0
 21
0.25
 12
-1.0
 22
-0.25
 13
-1.0
 23
-0.25
  0
ENDBLK
  5
216
100
AcDbEntity
  8
0
  6
BYBLOCK
 62
0
100
AcDbBlockEnd
  0
ENDSEC
  0
SECTION
  2
ENTITIES
  0
LINE
  5
217
100
AcDbEntity
  8
0
100
AcDbLine
 62
7
  6
BYLAYER
 10
6.423405884
 20
29.0573300853
 11
8.1087204611
 21
30.030341102
  0
LINE
  5
218
100
AcDbEntity
  8
0
100
AcDbLine
 62
7
  6
BYLAYER
 10
5.4615957602
 20
27.3473332509
 11
6.9234036455
 21
28.1913033891
  0
LINE
  5
219
100
AcDbEntity
  8
0
100
AcDbLine
 62
7
  6
BYLAYER
 10
15.5262604874
 20
6.4678401817
 11
15.5386700273
 21
6.4690600811
  0
LINE
  5
21A
100
AcDbEntity
  8
0
100
AcDbLine
 62
7
  6
BYLAYER
 10
3.0310551582
 20
22.0012333859
 11
3.028033197
 21
21.9765117238
  0
LINE
  5
21B
100
AcDbEntity
  8
0
100
AcDbLine
 62
7
  6
BYLAYER
 10
7.1761775779
 20
27.8779471499
 11
7.2120431567
 21
27.8986540278
  0
LINE
  5
21C
100
AcDbEntity
  8
0
100
AcDbLine
 62
7
  6
BYLAYER
 10
7.2242906564
 20
27.8997481147
 11
7.1884250776
 21
27.8790412368
  0
LINE
  5
21D
100
AcDbEntity
  8
0
100
AcDbLine
 62
7
  6
BYLAYER
 10
7.1761775779
 20
27.8779471499
 11
5.4615957602
 21
27.3473332509
  0
LWPOLYLINE
  5
21E
100
AcDbEntity
  8
0
100
AcDbPolyline
 62
7
  6
BYLAYER
 90
4
 70
0
 10
15.7722135767
 20
6.5502746658
 10
16.3917477654
 20
6.3931281157
 10
18.4873303858
 20
6.6549079822
 10
19.1733110502
 20
6.9737147423
  0
LINE
  5
21F
100
AcDbEntity
  8
0
100
AcDbLine
 62
7
  6
BYLAYER
 10
3.0280844065
 20
22.0029608807
 11
3.028033197
 21
21.9765117238
  0
LINE
  5
220
100
AcDbEntity
  8
0
100
AcDbLine
 62
7
  6
BYLAYER
 10
7.1884250776
 20
11.2537540967
 11
7.1950657016
 21
11.2467505303
  0
LINE
  5
221
100
AcDbEntity
  8
0
100
AcDbLine
 62
7
  6
BYLAYER
 10
7.1884250776
 20
11.2537540967
 11
7.1946001222
 21
11.2460844748
  0
LINE
  5
222
100
AcDbEntity
  8
0
100
AcDbLine
 62
7
  6
BYLAYER
 10
3.028033197
 20
21.9601816754
 11
3.0400601649
 21
21.9671254071
  0
LINE
  5
223
100
AcDbEntity
  8
0
100
AcDbLine
 62
7
  6
BYLAYER
 10
19.6390833524
 20
12.3689436977
 11
19.64510572
 21
12.3665274186
  0
LINE
  5
224
100
AcDbEntity
  8
0
100
AcDbLine
 62
7
  6
BYLAYER
 10
19.6392072346
 20
12.3690466046
 11
19.64510572
 21
12.3665274186
  0
LINE
  5
225
100
AcDbEntity
  8
0
100
AcDbLine
 62
7
  6
BYLAYER
 10
3.028033197
 20
21.9601816754
 11
3.04027936
 21
21.9506242904
  0
LINE
  5
226
100
AcDbEntity
  8
0
100
AcDbLine
 62
7
  6
BYLAYER
 10
3.0481997663
 20
21.9607729435
 11
3.028033197
 21
21.9765117238
  0
LINE
  5
227
100
AcDbEntity
  8
0
100
AcDbLine
 62
7
  6
BYLAYER
 10
3.028033197
 20
21.9601816754
 11
3.039780881
 21
21.9504241793
  0
LINE
  5
228
100
AcDbEntity
  8
0
100
AcDbLine
 62
7
  6
BYLAYER
 10
3.047381797
 20
21.9604444346
 11
3.028033197
 21
21.9765117238
  0
LINE
  5
229
100
AcDbEntity
  8
0
100
AcDbLine
 62
7
  6
BYLAYER
 10
15.4969613391
 20
6.4650919924
 11
15.4939773915
 21
6.4702910061
  0
LINE
  5
22A
100
AcDbEntity
  8
0
100
AcDbLine
 62
7
  6
BYLAYER
 10
15.4969613391
 20
6.4650919924
 11
15.4940956195
 21
6.4703961384
  0
LINE
  5
22B
100
AcDbEntity
  8
0
100
AcDbLine
 62
7
  6
BYLAYER
 10
10.5946229489
 20
16.7594891594
 11
10.5927294433
 21
16.7643729787
  0
LINE
  5
22C
100
AcDbEntity
  8
0
100
AcDbLine
 62
7
  6
BYLAYER
 10
10.5946229489
 20
16.7594891594
 11
10.5928416728
 21
16.7644377135
  0
LINE
  5
22D
100
AcDbEntity
  8
0
100
AcDbLine
 62
7
  6
BYLAYER
 10
7.1920210482
 20
11.2990296868
 11
7.1761775779
 21
11.2689900581
  0
LINE
  5
22E
100
AcDbEntity
  8
0
100
AcDbLine
 62
7
  6
BYLAYER
 10
7.1884250776
 20
11.2537540967
 11
7.2075243082
 21
11.2899578231
  0
LINE
  5
22F
100
AcDbEntity
  8
0
100
AcDbLine
 62
7
  6
BYLAYER
 10
15.4847138394
 20
23.0892850457
 11
15.5205794182
 21
23.1099919236
  0
LINE
  5
230
100
AcDbEntity
  8
0
100
AcDbLine
 62
7
  6
BYLAYER
 10
15.5328269179
 20
23.0947559621
 11
15.4969613391
 21
23.0740490842
  0
LINE
  5
231
100
AcDbEntity
  8
0
100
AcDbLine
 62
7
  6
BYLAYER
 10
10.6214359494
 20
16.7363324953
 11
10.6068704486
 21
16.744253198
  0
LINE
  5
232
100
AcDbEntity
  8
0
100
AcDbLine
 62
7
  6
BYLAYER
 10
10.6210189566
 20
16.7360914743
 11
10.6068704486
 21
16.744253198
  0
LINE
  5
233
100
AcDbEntity
  8
0
100
AcDbLine
 62
7
  6
BYLAYER
 10
19.6668288599
 20
12.3953992527
 11
19.6809712988
 21
12.3872342965
  0
LINE
  5
234
100
AcDbEntity
  8
0
100
AcDbLine
 62
7
  6
BYLAYER
 10
10.5748776923
 20
16.7463967171
 11
10.5823754492
 21
16.7420650242
  0
LINE
  5
235
100
AcDbEntity
  8
0
100
AcDbLine
 62
7
  6
BYLAYER
 10
10.5750995878
 20
16.7465247197
 11
10.5823754492
 21
16.7420650242
  0
LINE
  5
236
100
AcDbEntity
  8
0
100
AcDbLine
 62
7
  6
BYLAYER
 10
7.2120431567
 20
27.8986540278
 11
7.213937786
 21
27.8937709179
  0
LINE
  5
237
100
AcDbEntity
  8
0
100
AcDbLine
 62
7
  6
BYLAYER
 10
7.1935891961
 20
11.3000439081
 11
7.1761775779
 21
11.2689900581
  0
LINE
  5
238
100
AcDbEntity
  8
0
100
AcDbLine
 62
7
  6
BYLAYER
 10
7.1884250776
 20
11.2537540967
 11
7.2094067332
 21
11.2911751553
  0
LINE
  5
239
100
AcDbEntity
  8
0
100
AcDbLine
 62
7
  6
BYLAYER
 10
10.5823754492
 20
16.7420650242
 11
10.5791528047
 21
16.7373069132
  0
LINE
  5
23A
100
AcDbEntity
  8
0
100
AcDbLine
 62
7
  6
BYLAYER
 10
10.5823754492
 20
16.7420650242
 11
10.5789499851
 21
16.7371897809
  0
LINE
  5
23B
100
AcDbEntity
  8
0
100
AcDbLine
 62
7
  6
BYLAYER
 10
10.601699535
 20
16.7695518713
 11
10.5946229489
 21
16.7594891594
  0
LINE
  5
23C
100
AcDbEntity
  8
0
100
AcDbLine
 62
7
  6
BYLAYER
 10
10.6068704486
 20
16.744253198
 11
10.6333038483
 21
16.7818223546
  0
LINE
  5
23D
100
AcDbEntity
  8
0
100
AcDbLine
 62
7
  6
BYLAYER
 10
10.6021166175
 20
16.7697925733
 11
10.5946229489
 21
16.7594891594
  0
LINE
  5
23E
100
AcDbEntity
  8
0
100
AcDbLine
 62
7
  6
BYLAYER
 10
10.6068704486
 20
16.744253198
 11
10.6348380376
 21
16.7827072131
  0
LINE
  5
23F
100
AcDbEntity
  8
0
100
AcDbLine
 62
7
  6
BYLAYER
 10
15.4847138394
 20
23.0892850457
 11
15.4821371223
 21
23.0861208068
  0
LINE
  5
240
100
AcDbEntity
  8
0
100
AcDbLine
 62
7
  6
BYLAYER
 10
15.4847138394
 20
23.0892850457
 11
15.482030801
 21
23.0860683086
  0
LINE
  5
241
100
AcDbEntity
  8
0
100
AcDbLine
 62
7
  6
BYLAYER
 10
15.5205794182
 20
23.1099919236
 11
15.4958594546
 21
23.0748236036
  0
LINE
  5
242
100
AcDbEntity
  8
0
100
AcDbLine
 62
7
  6
BYLAYER
 10
10.5920348535
 20
16.7639718989
 11
10.5823754492
 21
16.7583950725
  0
LINE
  5
243
100
AcDbEntity
  8
0
100
AcDbLine
 62
7
  6
BYLAYER
 10
10.6348380376
 20
16.7827072131
 11
10.5946229489
 21
16.7594891594
  0
LINE
  5
244
100
AcDbEntity
  8
0
100
AcDbLine
 62
7
  6
BYLAYER
 10
10.6218577858
 20
16.7648600258
 11
10.5823754492
 21
16.7420650242
  0
LINE
  5
245
100
AcDbEntity
  8
0
100
AcDbLine
 62
7
  6
BYLAYER
 10
10.6161048241
 20
16.7392315551
 11
10.5946229489
 21
16.7268290627
  0
LINE
  5
246
100
AcDbEntity
  8
0
100
AcDbLine
 62
7
  6
BYLAYER
 10
10.6068704486
 20
16.7279231496
 11
10.6214359494
 21
16.7363324953
  0
LINE
  5
247
100
AcDbEntity
  8
0
100
AcDbLine
 62
7
  6
BYLAYER
 10
7.2069192239
 20
11.2867386498
 11
7.1761775779
 21
11.2689900581
  0
LINE
  5
248
100
AcDbEntity
  8
0
100
AcDbLine
 62
7
  6
BYLAYER
 10
15.5246632552
 20
23.1049151726
 11
15.5205794182
 21
23.1099919236
  0
LINE
  5
249
100
AcDbEntity
  8
0
100
AcDbLine
 62
7
  6
BYLAYER
 10
19.6809739734
 20
12.3981194515
 11
19.6809712988
 21
12.4035643449
  0
LINE
  5
24A
100
AcDbEntity
  8
0
100
AcDbLine
 62
7
  6
BYLAYER
 10
19.64510572
 20
12.3828574669
 11
19.6809712988
 21
12.4035643449
  0
LINE
  5
24B
100
AcDbEntity
  8
0
100
AcDbLine
 62
7
  6
BYLAYER
 10
19.6809712988
 20
12.3872342965
 11
19.64510572
 21
12.3665274186
  0
LINE
  5
24C
100
AcDbEntity
  8
0
100
AcDbLine
 62
7
  6
BYLAYER
 10
15.4943732437
 20
6.4695747319
 11
15.4847138394
 21
6.4639979055
  0
LINE
  5
24D
100
AcDbEntity
  8
0
100
AcDbLine
 62
7
  6
BYLAYER
 10
17.2115431569
 20
6.9957058915
 11
18.6733510422
 21
7.8396760297
  0
LINE
  5
24E
100
AcDbEntity
  8
0
100
AcDbLine
 62
7
  6
BYLAYER
 10
15.524054258
 20
6.4734764738
 11
15.5355402993
 21
6.4770310742
  0
LINE
  5
24F
100
AcDbEntity
  8
0
100
AcDbLine
 62
7
  6
BYLAYER
 10
19.1733488038
 20
6.9736493336
 11
20.8586633809
 21
7.9466603503
  0
ARC
  5
250
100
AcDbEntity
  8
0
100
AcDbCircle
 62
7
  6
BYLAYER
 10
7.6389925619
 20
23.1883667151
 40
4.7295974842
100
AcDbArc
 50
95.0302844803
 51
95.1792452788
  0
ARC
  5
251
100
AcDbEntity
  8
0
100
AcDbCircle
 62
7
  6
BYLAYER
 10
15.0727614263
 20
11.1451525844
 40
4.6992459726
100
AcDbArc
 50
275.1791276766
 51
275.5379275351
  0
SPLINE
  5
252
100
AcDbEntity
  8
0
100
AcDbSpline
 62
7
  6
BYLAYER
 70
0
 71
3
 72
18
 73
14
 74
0
 42
0.0000001
 43
0.0000001
 44
0.0000000001
 40
0.0
 40
0.0
 40
0.0
 40
0.0
 40
0.0539637034
 40
0.108185445
 40
0.1629136943
 40
0.2183868425
 40
0.2748264579
 40
0.3324355931
 40
0.4517841708
 40
0.5776537727
 40
0.7107761869
 40
0.8515581582
 40
1.0
 40
1.0
 40
1.0
 40
1.0
 10
5.4615956642
 20
27.3473334171
 30
0.0
 10
5.3658615149
 20
27.2920590482
 30
0.0
 10
5.1785452295
 20
27.1730357746
 30
0.0
 10
4.9126466637
 20
26.970743382
 30
0.0
 10
4.662165394
 20
26.7449784477
 30
0.0
 10
4.4277672364
 20
26.4963116285
 30
0.0
 10
4.2099516049
 20
26.2253893854
 30
0.0
 10
3.9392540363
 20
25.8308135474
 30
0.0
 10
3.6456110454
 20
25.2818706057
 30
0.0
 10
3.3719692137
 20
24.5547130762
 30
0.0
 10
3.1746701677
 20
23.7581385493
 30
0.0
 10
3.0553797594
 20
22.8998533322
 30
0.0
 10
3.0290386012
 20
22.3070445413
 30
0.0
 10
3.0280844065
 20
22.0029608807
 30
0.0
  0
SPLINE
  5
253
100
AcDbEntity
  8
0
100
AcDbSpline
 62
7
  6
BYLAYER
 70
0
 71
3
 72
9
 73
5
 74
0
 42
0.0000001
 43
0.0000001
 44
0.0000000001
 40
0.0
 40
0.0
 40
0.0
 40
0.0
 40
0.497848102
 40
1.0
 40
1.0
 40
1.0
 40
1.0
 10
10.5927294433
 20
16.7643729787
 30
0.0
 10
9.8950029946
 20
18.5641602905
 30
0.0
 10
8.6263626906
 20
22.2321000957
 30
0.0
 10
7.6244029168
 20
25.9814953602
 30
0.0
 10
7.1884250776
 20
27.8790412368
 30
0.0
  0
SPLINE
  5
254
100
AcDbEntity
  8
0
100
AcDbSpline
 62
7
  6
BYLAYER
 70
0
 71
3
 72
20
 73
16
 74
0
 42
0.0000001
 43
0.0000001
 44
0.0000000001
 40
0.0
 40
0.0
 40
0.0
 40
0.0
 40
0.0539039803
 40
0.1080661133
 40
0.1627391264
 40
0.2181628748
 40
0.2745606162
 40
0.3321367163
 40
0.3910704992
 40
0.4515185905
 40
0.5136113905
 40
0.5774497022
 40
0.7106109701
 40
0.8514711848
 40
1.0
 40
1.0
 40
1.0
 40
1.0
 10
8.1087254791
 20
30.0303323984
 30
0.0
 10
8.2130903769
 20
30.0905825545
 30
0.0
 10
8.4275753945
 20
30.2025168553
 30
0.0
 10
8.7635789997
 20
30.3431037741
 30
0.0
 10
9.1134033432
 20
30.4561677425
 30
0.0
 10
9.4761176456
 20
30.5414873064
 30
0.0
 10
9.850835735
 20
30.5988734905
 30
0.0
 10
10.2366353306
 20
30.6281583458
 30
0.0
 10
10.6325734837
 20
30.6293639577
 30
0.0
 10
11.0376936323
 20
30.602471314
 30
0.0
 10
11.451022048
 20
30.5475529713
 30
0.0
 10
12.0196621551
 20
30.4356872673
 30
0.0
 10
12.7464823605
 20
30.2238148983
 30
0.0
 10
13.6220540065
 20
29.8654474288
 30
0.0
 10
14.1961256945
 20
29.5649292269
 30
0.0
 10
14.483691921
 20
29.3989065445
 30
0.0
  0
SPLINE
  5
255
100
AcDbEntity
  8
0
100
AcDbSpline
 62
7
  6
BYLAYER
 70
0
 71
3
 72
14
 73
10
 74
0
 42
0.0000001
 43
0.0000001
 44
0.0000000001
 40
0.0
 40
0.0
 40
0.0
 40
0.0
 40
0.1175641171
 40
0.2359067304
 40
0.355779201
 40
0.4778880138
 40
0.6028687485
 40
0.7312818962
 40
1.0
 40
1.0
 40
1.0
 40
1.0
 10
6.423410739
 20
29.0573216603
 30
0.0
 10
6.3006064487
 20
28.986426452
 30
0.0
 10
6.061156349
 20
28.8316831324
 30
0.0
 10
5.7251993741
 20
28.5636410905
 30
0.0
 10
5.4129987763
 20
28.2603196575
 30
0.0
 10
5.1257333341
 20
27.9227783662
 30
0.0
 10
4.8642317159
 20
27.5522284863
 30
0.0
 10
4.5464659067
 20
27.0078721159
 30
0.0
 10
4.356872368
 20
26.5652701003
 30
0.0
 10
4.2501566866
 20
26.2592295771
 30
0.0
  0
SPLINE
  5
256
100
AcDbEntity
  8
0
100
AcDbSpline
 62
7
  6
BYLAYER
 70
0
 71
3
 72
11
 73
7
 74
0
 42
0.0000001
 43
0.0000001
 44
0.0000000001
 40
0.0
 40
0.0
 40
0.0
 40
0.0
 40
0.2265782313
 40
0.4689232324
 40
0.7268280362
 40
1.0
 40
1.0
 40
1.0
 40
1.0
 10
7.2075243082
 20
11.2899578231
 30
0.0
 10
7.4336543213
 20
11.7179824561
 30
0.0
 10
7.9202504375
 20
12.5940657119
 30
0.0
 10
8.7216552831
 20
13.9244707411
 30
0.0
 10
9.6177938899
 20
15.3130678469
 30
0.0
 10
10.2590701601
 20
16.2493003433
 30
0.0
 10
10.5946229489
 20
16.7268290627
 30
0.0
  0
SPLINE
  5
257
100
AcDbEntity
  8
0
100
AcDbSpline
 62
7
  6
BYLAYER
 70
0
 71
3
 72
15
 73
11
 74
0
 42
0.0000001
 43
0.0000001
 44
0.0000000001
 40
0.0
 40
0.0
 40
0.0
 40
0.0
 40
0.1413487844
 40
0.277951402
 40
0.4096714894
 40
0.5365516939
 40
0.6587385564
 40
0.7764788452
 40
0.8901043248
 40
1.0
 40
1.0
 40
1.0
 40
1.0
 10
11.3365694585
 20
7.5776161699
 30
0.0
 10
11.5144863787
 20
7.4748981119
 30
0.0
 10
11.8700692787
 20
7.282599453
 30
0.0
 10
12.4102702208
 20
7.0312841268
 30
0.0
 10
12.9461056234
 20
6.8231617881
 30
0.0
 10
13.47518504
 20
6.6591106132
 30
0.0
 10
13.9953630326
 20
6.5398864307
 30
0.0
 10
14.5045112276
 20
6.4659944021
 30
0.0
 10
15.0003526252
 20
6.4379279991
 30
0.0
 10
15.3256041049
 20
6.4499927821
 30
0.0
 10
15.4847138394
 20
6.4639979055
 30
0.0
  0
SPLINE
  5
258
100
AcDbEntity
  8
0
100
AcDbSpline
 62
7
  6
BYLAYER
 70
0
 71
3
 72
15
 73
11
 74
0
 42
0.0000001
 43
0.0000001
 44
0.0000000001
 40
0.0
 40
0.0
 40
0.0
 40
0.0
 40
0.1337634755
 40
0.2656904985
 40
0.3953599931
 40
0.522458372
 40
0.6467124314
 40
0.7678785752
 40
0.8857258033
 40
1.0
 40
1.0
 40
1.0
 40
1.0
 10
7.1946001222
 20
11.2460844748
 30
0.0
 10
7.3502099679
 20
11.0529144147
 30
0.0
 10
7.6668610162
 20
10.675246895
 30
0.0
 10
8.1603132691
 20
10.1327449808
 30
0.0
 10
8.6673143559
 20
9.6200942416
 30
0.0
 10
9.1855791975
 20
9.1395099154
 30
0.0
 10
9.7129958557
 20
8.6930007145
 30
0.0
 10
10.2473666345
 20
8.2823840983
 30
0.0
 10
10.7863841726
 20
7.9095337127
 30
0.0
 10
11.1530492099
 20
7.6835692379
 30
0.0
 10
11.3365694585
 20
7.5776161699
 30
0.0
  0
SPLINE
  5
259
100
AcDbEntity
  8
0
100
AcDbSpline
 62
7
  6
BYLAYER
 70
0
 71
3
 72
23
 73
19
 74
0
 42
0.0000001
 43
0.0000001
 44
0.0000000001
 40
0.0
 40
0.0
 40
0.0
 40
0.0
 40
0.0545881498
 40
0.1108832933
 40
0.1687632452
 40
0.228120049
 40
0.2888374468
 40
0.3507737787
 40
0.4137754858
 40
0.4776795713
 40
0.5423165632
 40
0.6075095045
 40
0.6730767085
 40
0.7388298525
 40
0.8045814867
 40
0.8701554192
 40
0.9353687834
 40
1.0
 40
1.0
 40
1.0
 40
1.0
 10
3.028033197
 20
21.9601816754
 30
0.0
 10
3.0281893348
 20
21.7478286826
 30
0.0
 10
3.0409061401
 20
21.3164131103
 30
0.0
 10
3.0949356425
 20
20.6618626402
 30
0.0
 10
3.1841000322
 20
19.9924478228
 30
0.0
 10
3.3079396763
 20
19.3111070512
 30
0.0
 10
3.4659710794
 20
18.6206933644
 30
0.0
 10
3.6574654259
 20
17.9241007304
 30
0.0
 10
3.8816772186
 20
17.2243222069
 30
0.0
 10
4.1375867156
 20
16.5243162855
 30
0.0
 10
4.4241624761
 20
15.8270778768
 30
0.0
 10
4.7401332374
 20
15.1355445921
 30
0.0
 10
5.0842096509
 20
14.4526950697
 30
0.0
 10
5.454856607
 20
13.7814134511
 30
0.0
 10
5.8505627504
 20
13.1245619764
 30
0.0
 10
6.2696410011
 20
12.4848726059
 30
0.0
 10
6.710289073
 20
11.8651982035
 30
0.0
 10
7.018756433
 20
11.4650292564
 30
0.0
 10
7.1761775779
 20
11.2689900581
 30
0.0
  0
SPLINE
  5
25A
100
AcDbEntity
  8
0
100
AcDbSpline
 62
7
  6
BYLAYER
 70
0
 71
3
 72
11
 73
7
 74
0
 42
0.0000001
 43
0.0000001
 44
0.0000000001
 40
0.0
 40
0.0
 40
0.0
 40
0.0
 40
0.2589255431
 40
0.5119447947
 40
0.7589797736
 40
1.0
 40
1.0
 40
1.0
 40
1.0
 10
10.5823754492
 20
16.7583950725
 30
0.0
 10
9.8973111252
 20
17.1541151996
 30
0.0
 10
8.5574987432
 20
17.9623345657
 30
0.0
 10
6.6209144179
 20
19.2392813808
 30
0.0
 10
4.7841297605
 20
20.5646093784
 30
0.0
 10
3.6140654435
 20
21.4901207957
 30
0.0
 10
3.047381797
 20
21.9604444346
 30
0.0
  0
SPLINE
  5
25B
100
AcDbEntity
  8
0
100
AcDbSpline
 62
7
  6
BYLAYER
 70
0
 71
3
 72
38
 73
34
 74
0
 42
0.0000001
 43
0.0000001
 44
0.0000000001
 40
0.0
 40
0.0
 40
0.0
 40
0.0
 40
0.0306593428
 40
0.0623900586
 40
0.0951054433
 40
0.1287272738
 40
0.1631662858
 40
0.1983159022
 40
0.2340621355
 40
0.2702850054
 40
0.343636814
 40
0.41734288
 40
0.4903419369
 40
0.5262609921
 40
0.5616223737
 40
0.5963103618
 40
0.6302170112
 40
0.663244504
 40
0.6953068342
 40
0.7263316815
 40
0.7562634122
 40
0.7850642485
 40
0.8127189368
 40
0.8392352914
 40
0.8520800616
 40
0.8646563081
 40
0.8890347401
 40
0.912476381
 40
0.9351133233
 40
0.9571112299
 40
0.9786643921
 40
0.9893466031
 40
1.0
 40
1.0
 40
1.0
 40
1.0
 10
14.483691921
 20
29.3989065445
 30
0.0
 10
14.7089054529
 20
29.2688823928
 30
0.0
 10
15.1587131883
 20
28.9893493551
 30
0.0
 10
15.8178344382
 20
28.5235511525
 30
0.0
 10
16.4697109693
 20
28.0061978459
 30
0.0
 10
17.1107775097
 20
27.4402292238
 30
0.0
 10
17.7376305496
 20
26.8286379693
 30
0.0
 10
18.3469183417
 20
26.1747286358
 30
0.0
 10
18.9353415821
 20
25.4820056521
 30
0.0
 10
19.690888072
 20
24.507685308
 30
0.0
 10
20.5623542246
 20
23.2177861755
 30
0.0
 10
21.473803589
 20
21.5865284566
 30
0.0
 10
22.1126487055
 20
20.1730311732
 30
0.0
 10
22.5416310252
 20
19.0265365124
 30
0.0
 10
22.8181354963
 20
18.1709496554
 30
0.0
 10
23.0496617481
 20
17.3197863431
 30
0.0
 10
23.2349190826
 20
16.4775986613
 30
0.0
 10
23.3729340849
 20
15.6489334093
 30
0.0
 10
23.4629440091
 20
14.8382415016
 30
0.0
 10
23.5044445795
 20
14.0498737101
 30
0.0
 10
23.4972221071
 20
13.288060509
 30
0.0
 10
23.4412313464
 20
12.5568673174
 30
0.0
 10
23.3368044579
 20
11.8602385087
 30
0.0
 10
23.2083993624
 20
11.3057770908
 30
0.0
 10
23.081333361
 20
10.8838292466
 30
0.0
 10
22.9415268392
 20
10.4851153525
 30
0.0
 10
22.7385844225
 20
10.0138048442
 30
0.0
 10
22.4474594978
 20
9.4906522301
 30
0.0
 10
22.1125704692
 20
9.0187335854
 30
0.0
 10
21.7357694188
 20
8.6008018712
 30
0.0
 10
21.3872050561
 20
8.2986078924
 30
0.0
 10
21.0908041708
 20
8.087361937
 30
0.0
 10
20.9369159052
 20
7.9918473584
 30
0.0
 10
20.8586583629
 20
7.9466690539
 30
0.0
  0
SPLINE
  5
25C
100
AcDbEntity
  8
0
100
AcDbSpline
 62
7
  6
BYLAYER
 70
0
 71
3
 72
11
 73
7
 74
0
 42
0.0000001
 43
0.0000001
 44
0.0000000001
 40
0.0
 40
0.0
 40
0.0
 40
0.0
 40
0.2328026006
 40
0.4773242576
 40
0.733194763
 40
1.0
 40
1.0
 40
1.0
 40
1.0
 10
10.6333038483
 20
16.7818223546
 30
0.0
 10
10.9886794797
 20
17.2865723871
 30
0.0
 10
11.7303712241
 20
18.3123377474
 30
0.0
 10
12.9042119845
 20
19.8622926493
 30
0.0
 10
14.164937983
 20
21.4590136245
 30
0.0
 10
15.0438018842
 20
22.5307673762
 30
0.0
 10
15.4969613391
 20
23.0740490842
 30
0.0
  0
SPLINE
  5
25D
100
AcDbEntity
  8
0
100
AcDbSpline
 62
7
  6
BYLAYER
 70
0
 71
3
 72
11
 73
7
 74
0
 42
0.0000001
 43
0.0000001
 44
0.0000000001
 40
0.0
 40
0.0
 40
0.0
 40
0.0
 40
0.2574154319
 40
0.5100176679
 40
0.7576031588
 40
1.0
 40
1.0
 40
1.0
 40
1.0
 10
19.64510572
 20
12.3828574669
 30
0.0
 10
18.8465931112
 20
12.703196856
 30
0.0
 10
17.2746558765
 20
13.3635946099
 30
0.0
 10
14.9742962182
 20
14.4231858815
 30
0.0
 10
12.7575542583
 20
15.5406824636
 30
0.0
 10
11.3228521279
 20
16.3313533975
 30
0.0
 10
10.6210189566
 20
16.7360914743
 30
0.0
  0
SPLINE
  5
25E
100
AcDbEntity
  8
0
100
AcDbSpline
 62
7
  6
BYLAYER
 70
0
 71
3
 72
9
 73
5
 74
0
 42
0.0000001
 43
0.0000001
 44
0.0000000001
 40
0.0
 40
0.0
 40
0.0
 40
0.0
 40
0.4965272945
 40
1.0
 40
1.0
 40
1.0
 40
1.0
 10
15.4939773915
 20
6.4702910061
 30
0.0
 10
14.5572647878
 20
8.1025079979
 30
0.0
 10
12.7985377527
 20
11.4646025876
 30
0.0
 10
11.2975061288
 20
14.9490592707
 30
0.0
 10
10.6068704486
 20
16.7279231496
 30
0.0
  0
SPLINE
  5
25F
100
AcDbEntity
  8
0
100
AcDbSpline
 62
7
  6
BYLAYER
 70
0
 71
3
 72
11
 73
7
 74
0
 42
0.0000001
 43
0.0000001
 44
0.0000000001
 40
0.0
 40
0.0
 40
0.0
 40
0.0
 40
0.2566019102
 40
0.5076831605
 40
0.7548437222
 40
1.0
 40
1.0
 40
1.0
 40
1.0
 10
15.5386700273
 20
6.4690600811
 30
0.0
 10
15.6890079816
 20
6.4840409899
 30
0.0
 10
15.9852480642
 20
6.5281375283
 30
0.0
 10
16.4165539221
 20
6.6386489138
 30
0.0
 10
16.8272432735
 20
6.7924137654
 30
0.0
 10
17.0865393409
 20
6.9235317687
 30
0.0
 10
17.2115432528
 20
6.9957057253
 30
0.0
  0
LINE
  5
260
100
AcDbEntity
  8
0
100
AcDbLine
 62
7
  6
BYLAYER
 10
15.5328269179
 20
23.0947559621
 11
15.5246632552
 21
23.1049151726
  0
SPLINE
  5
261
100
AcDbEntity
  8
0
100
AcDbSpline
 62
7
  6
BYLAYER
 70
0
 71
3
 72
38
 73
34
 74
0
 42
0.0000001
 43
0.0000001
 44
0.0000000001
 40
0.0
 40
0.0
 40
0.0
 40
0.0
 40
0.0106534188
 40
0.0213356526
 40
0.042888858
 40
0.0648868136
 40
0.0875238084
 40
0.1109655193
 40
0.135344032
 40
0.1479203245
 40
0.1607651436
 40
0.1872815907
 40
0.2149363655
 40
0.2437372546
 40
0.2736690065
 40
0.3046938213
 40
0.3367560829
 40
0.3697834685
 40
0.4036899951
 40
0.4383778534
 40
0.4737391095
 40
0.5096580496
 40
0.5826568869
 40
0.6563627316
 40
0.7297143959
 40
0.7659372509
 40
0.8016835313
 40
0.8368332257
 40
0.8712723266
 40
0.9048942482
 40
0.9376097803
 40
0.9693406244
 40
1.0
 40
1.0
 40
1.0
 40
1.0
 10
19.1733439487
 20
6.9736577586
 30
0.0
 10
19.2516016687
 20
7.0188361261
 30
0.0
 10
19.40549013
 20
7.1143511255
 30
0.0
 10
19.7018913958
 20
7.3255978011
 30
0.0
 10
20.0504568055
 20
7.6277920898
 30
0.0
 10
20.4272579336
 20
8.0457254124
 30
0.0
 10
20.7621477857
 20
8.5176452434
 30
0.0
 10
21.053272663
 20
9.0407998833
 30
0.0
 10
21.2562153689
 20
9.5121120722
 30
0.0
 10
21.3960218145
 20
9.9108275801
 30
0.0
 10
21.523087512
 20
10.332777171
 30
0.0
 10
21.6514925772
 20
10.8872405899
 30
0.0
 10
21.7559182034
 20
11.5838715761
 30
0.0
 10
21.8119085331
 20
12.3150661651
 30
0.0
 10
21.819129326
 20
13.0768797357
 30
0.0
 10
21.7776283802
 20
13.8652468188
 30
0.0
 10
21.6876172779
 20
14.6759368209
 30
0.0
 10
21.5496023814
 20
15.5045995107
 30
0.0
 10
21.3643449111
 20
16.3467840398
 30
0.0
 10
21.1328192957
 20
17.197944192
 30
0.0
 10
20.8563155261
 20
18.0535279741
 30
0.0
 10
20.4273345072
 20
19.2000189466
 30
0.0
 10
19.7884915639
 20
20.6135120253
 30
0.0
 10
18.8770451924
 20
22.2447656814
 30
0.0
 10
18.0055819677
 20
23.5346629217
 30
0.0
 10
17.2500361416
 20
24.5089825572
 30
0.0
 10
16.661613394
 20
25.2017071944
 30
0.0
 10
16.0523242136
 20
25.8556177142
 30
0.0
 10
15.4254705771
 20
26.4672114864
 30
0.0
 10
14.7844019709
 20
27.0331819819
 30
0.0
 10
14.1325233479
 20
27.5505376594
 30
0.0
 10
13.473399861
 20
28.0163372362
 30
0.0
 10
13.0235911172
 20
28.2958712367
 30
0.0
 10
12.7983773439
 20
28.4258955278
 30
0.0
  0
LINE
  5
262
100
AcDbEntity
  8
0
100
AcDbLine
 62
7
  6
BYLAYER
 10
19.6809712988
 20
12.3872342965
 11
19.6809739734
 21
12.3981194515
  0
SPLINE
  5
263
100
AcDbEntity
  8
0
100
AcDbSpline
 62
7
  6
BYLAYER
 70
0
 71
3
 72
19
 73
15
 74
0
 42
0.0000001
 43
0.0000001
 44
0.0000000001
 40
0.0
 40
0.0
 40
0.0
 40
0.0
 40
0.0539193753
 40
0.1080983774
 40
0.1627869859
 40
0.2182249528
 40
0.2746350044
 40
0.3322211413
 40
0.451545347
 40
0.5136415038
 40
0.5774821244
 40
0.7106401353
 40
0.851483474
 40
1.0
 40
1.0
 40
1.0
 40
1.0
 10
17.2115432528
 20
6.9957057253
 30
0.0
 10
17.3076159495
 20
7.0511755624
 30
0.0
 10
17.4955816812
 20
7.1706512167
 30
0.0
 10
17.7623436574
 20
7.3737883898
 30
0.0
 10
18.0135736816
 20
7.6005617177
 30
0.0
 10
18.2485993393
 20
7.8503912536
 30
0.0
 10
18.4669192106
 20
8.1226289487
 30
0.0
 10
18.738124377
 20
8.5191723306
 30
0.0
 10
18.9702081274
 20
8.9548402146
 30
0.0
 10
19.163101143
 20
9.4213738826
 30
0.0
 10
19.3359214957
 20
9.9259947975
 30
0.0
 10
19.5019409634
 20
10.602610635
 30
0.0
 10
19.6198160823
 20
11.4652139969
 30
0.0
 10
19.6448799663
 20
12.0609624626
 30
0.0
 10
19.64510572
 20
12.3665274186
 30
0.0
  0
SPLINE
  5
264
100
AcDbEntity
  8
0
100
AcDbSpline
 62
7
  6
BYLAYER
 70
0
 71
3
 72
15
 73
11
 74
0
 42
0.0000001
 43
0.0000001
 44
0.0000000001
 40
0.0
 40
0.0
 40
0.0
 40
0.0
 40
0.1413487844
 40
0.277951402
 40
0.4096714894
 40
0.5365516939
 40
0.6587385564
 40
0.7764788452
 40
0.8901043248
 40
1.0
 40
1.0
 40
1.0
 40
1.0
 10
11.3365694585
 20
26.7654229724
 30
0.0
 10
11.1586525384
 20
26.8681410304
 30
0.0
 10
10.8030696384
 20
27.0604396893
 30
0.0
 10
10.2628686963
 20
27.3117550155
 30
0.0
 10
9.7270332937
 20
27.5198773543
 30
0.0
 10
9.1979538771
 20
27.6839285292
 30
0.0
 10
8.6777758845
 20
27.8031527116
 30
0.0
 10
8.1686276894
 20
27.8770447402
 30
0.0
 10
7.6727862918
 20
27.9051111432
 30
0.0
 10
7.3475348122
 20
27.8930463603
 30
0.0
 10
7.1884250776
 20
27.8790412368
 30
0.0
  0
SPLINE
  5
265
100
AcDbEntity
  8
0
100
AcDbSpline
 62
7
  6
BYLAYER
 70
0
 71
3
 72
9
 73
5
 74
0
 42
0.0000001
 43
0.0000001
 44
0.0000000001
 40
0.0
 40
0.0
 40
0.0
 40
0.0
 40
0.5034749191
 40
1.0
 40
1.0
 40
1.0
 40
1.0
 10
10.5946229489
 20
16.7268290627
 30
0.0
 10
11.2856242368
 20
14.9470197363
 30
0.0
 10
12.7875177512
 20
11.4607534103
 30
0.0
 10
14.5473763436
 20
8.0969896659
 30
0.0
 10
15.4847138394
 20
6.4639979055
 30
0.0
  0
SPLINE
  5
266
100
AcDbEntity
  8
0
100
AcDbSpline
 62
7
  6
BYLAYER
 70
0
 71
3
 72
15
 73
11
 74
0
 42
0.0000001
 43
0.0000001
 44
0.0000000001
 40
0.0
 40
0.0
 40
0.0
 40
0.0
 40
0.1337664853
 40
0.2656989314
 40
0.3953740915
 40
0.5224765712
 40
0.646732123
 40
0.7678962117
 40
0.8857371253
 40
1.0
 40
1.0
 40
1.0
 40
1.0
 10
15.4847138394
 20
23.0892850457
 30
0.0
 10
15.328925759
 20
23.282882302
 30
0.0
 10
15.0118900484
 20
23.6613863208
 30
0.0
 10
14.5177854607
 20
24.2050850848
 30
0.0
 10
14.0100649519
 20
24.7188591885
 30
0.0
 10
13.4910252341
 20
25.2004789039
 30
0.0
 10
12.9627895107
 20
25.6479242993
 30
0.0
 10
12.4275657648
 20
26.0593683215
 30
0.0
 10
11.8876721003
 20
26.4329278661
 30
0.0
 10
11.520396238
 20
26.6592929328
 30
0.0
 10
11.3365694585
 20
26.7654229724
 30
0.0
  0
SPLINE
  5
267
100
AcDbEntity
  8
0
100
AcDbSpline
 62
7
  6
BYLAYER
 70
0
 71
3
 72
11
 73
7
 74
0
 42
0.0000001
 43
0.0000001
 44
0.0000000001
 40
0.0
 40
0.0
 40
0.0
 40
0.0
 40
0.2731893085
 40
0.5310998116
 40
0.7734390855
 40
1.0
 40
1.0
 40
1.0
 40
1.0
 10
10.5789499851
 20
16.7371897809
 30
0.0
 10
10.2433622236
 20
16.2595276931
 30
0.0
 10
9.6020414777
 20
15.3230484838
 30
0.0
 10
8.705898901
 20
13.9340987885
 30
0.0
 10
7.9045760298
 20
12.6034007681
 30
0.0
 10
7.4180827367
 20
11.7271350155
 30
0.0
 10
7.1920210482
 20
11.2990296868
 30
0.0
  0
SPLINE
  5
268
100
AcDbEntity
  8
0
100
AcDbSpline
 62
7
  6
BYLAYER
 70
0
 71
3
 72
11
 73
7
 74
0
 42
0.0000001
 43
0.0000001
 44
0.0000000001
 40
0.0
 40
0.0
 40
0.0
 40
0.0
 40
0.2410169003
 40
0.4880507979
 40
0.741070985
 40
1.0
 40
1.0
 40
1.0
 40
1.0
 10
3.039780881
 20
21.9504241793
 30
0.0
 10
3.6064329806
 20
21.4799251416
 30
0.0
 10
4.7764580587
 20
20.554065237
 30
0.0
 10
6.6132399599
 20
19.2282359248
 30
0.0
 10
8.5498834448
 20
17.9507991124
 30
0.0
 10
9.8897679704
 20
17.1422697674
 30
0.0
 10
10.5748776923
 20
16.7463967171
 30
0.0
  0
SPLINE
  5
269
100
AcDbEntity
  8
0
100
AcDbSpline
 62
7
  6
BYLAYER
 70
0
 71
3
 72
11
 73
7
 74
0
 42
0.0000001
 43
0.0000001
 44
0.0000000001
 40
0.0
 40
0.0
 40
0.0
 40
0.0
 40
0.2668889929
 40
0.5227893878
 40
0.7672845073
 40
1.0
 40
1.0
 40
1.0
 40
1.0
 10
15.482030801
 20
23.0860683086
 30
0.0
 10
15.0270693198
 20
22.5405894639
 30
0.0
 10
14.1448336714
 20
21.4645739801
 30
0.0
 10
12.8795448954
 20
19.8615641771
 30
0.0
 10
11.7018933335
 20
18.3057458352
 30
0.0
 10
10.958023921
 20
17.276144688
 30
0.0
 10
10.601699535
 20
16.7695518713
 30
0.0
  0
SPLINE
  5
26A
100
AcDbEntity
  8
0
100
AcDbSpline
 62
7
  6
BYLAYER
 70
0
 71
3
 72
20
 73
16
 74
0
 42
0.0000001
 43
0.0000001
 44
0.0000000001
 40
0.0
 40
0.0
 40
0.0
 40
0.0
 40
0.1485287587
 40
0.2893884731
 40
0.422549523
 40
0.4863878074
 40
0.5484805604
 40
0.6089285894
 40
0.6678623966
 40
0.7254385524
 40
0.7818363956
 40
0.8372603019
 40
0.8919334801
 40
0.9460958089
 40
1.0
 40
1.0
 40
1.0
 40
1.0
 10
12.7983773439
 20
28.4258955278
 30
0.0
 10
12.5108112187
 20
28.5919181517
 30
0.0
 10
11.93674077
 20
28.8924360694
 30
0.0
 10
11.0611706706
 20
29.2508028533
 30
0.0
 10
10.3343521049
 20
29.4626748249
 30
0.0
 10
9.7657128249
 20
29.5745413454
 30
0.0
 10
9.3523847698
 20
29.6294603581
 30
0.0
 10
8.9472647777
 20
29.6563525201
 30
0.0
 10
8.5513265923
 20
29.65514802
 30
0.0
 10
8.1655265123
 20
29.6258635302
 30
0.0
 10
7.7908077849
 20
29.5684769565
 30
0.0
 10
7.4280922604
 20
29.4831584005
 30
0.0
 10
7.0782668428
 20
29.3700938343
 30
0.0
 10
6.742262107
 20
29.2295063495
 30
0.0
 10
6.5277760707
 20
29.1175720141
 30
0.0
 10
6.423410739
 20
29.0573216603
 30
0.0
  0
SPLINE
  5
26B
100
AcDbEntity
  8
0
100
AcDbSpline
 62
7
  6
BYLAYER
 70
0
 71
3
 72
9
 73
5
 74
0
 42
0.0000001
 43
0.0000001
 44
0.0000000001
 40
0.0
 40
0.0
 40
0.0
 40
0.0
 40
0.5021532253
 40
1.0
 40
1.0
 40
1.0
 40
1.0
 10
7.1761775779
 20
27.8779471499
 30
0.0
 10
7.6123527695
 20
25.9795423185
 30
0.0
 10
8.6148233068
 20
22.2284721906
 30
0.0
 10
9.8842179628
 20
18.5589414255
 30
0.0
 10
10.5823754492
 20
16.7583950725
 30
0.0
  0
SPLINE
  5
26C
100
AcDbEntity
  8
0
100
AcDbSpline
 62
7
  6
BYLAYER
 70
0
 71
3
 72
38
 73
34
 74
0
 42
0.0000001
 43
0.0000001
 44
0.0000000001
 40
0.0
 40
0.0
 40
0.0
 40
0.0
 40
0.0306593346
 40
0.0623900347
 40
0.0951054201
 40
0.1287272738
 40
0.1631663203
 40
0.1983159633
 40
0.2340622071
 40
0.2702850727
 40
0.3436368636
 40
0.4173429052
 40
0.4903419347
 40
0.5262609664
 40
0.5616223036
 40
0.5963102529
 40
0.6302168917
 40
0.6632443856
 40
0.6953067282
 40
0.7263315915
 40
0.7562633458
 40
0.7850642035
 40
0.8127189132
 40
0.8392352843
 40
0.8520800601
 40
0.8646563083
 40
0.889034735
 40
0.9124763719
 40
0.9351133236
 40
0.9571112372
 40
0.9786643968
 40
0.9893466051
 40
1.0
 40
1.0
 40
1.0
 40
1.0
 10
12.7983773439
 20
27.6093931107
 30
0.0
 10
13.0059270139
 20
27.4895669637
 30
0.0
 10
13.4204555812
 20
27.2319582302
 30
0.0
 10
14.0278808782
 20
26.8026932944
 30
0.0
 10
14.6286299151
 20
26.3259167145
 30
0.0
 10
15.2194170706
 20
25.8043374852
 30
0.0
 10
15.7971055915
 20
25.2407136659
 30
0.0
 10
16.3586065064
 20
24.6380909465
 30
0.0
 10
16.9008789648
 20
23.999698892
 30
0.0
 10
17.5971668391
 20
23.1017958931
 30
0.0
 10
18.4002823609
 20
21.9130655245
 30
0.0
 10
19.2402452375
 20
20.4097500687
 30
0.0
 10
19.8289845481
 20
19.1071158231
 30
0.0
 10
20.2243209428
 20
18.0505430185
 30
0.0
 10
20.4791387221
 20
17.2620618653
 30
0.0
 10
20.692505743
 20
16.4776571395
 30
0.0
 10
20.8632333319
 20
15.7015238325
 30
0.0
 10
20.9904235836
 20
14.9378519039
 30
0.0
 10
21.073374281
 20
14.1907434831
 30
0.0
 10
21.111619848
 20
13.4642080507
 30
0.0
 10
21.1049641367
 20
12.7621444255
 30
0.0
 10
21.0533647171
 20
12.088299205
 30
0.0
 10
20.9571282808
 20
11.446307464
 30
0.0
 10
20.8387940179
 20
10.9353329014
 30
0.0
 10
20.7216939861
 20
10.5464788094
 30
0.0
 10
20.5928526595
 20
10.179036585
 30
0.0
 10
20.4058274168
 20
9.7446916168
 30
0.0
 10
20.1375356991
 20
9.2625706443
 30
0.0
 10
19.8289124629
 20
8.8276651222
 30
0.0
 10
19.4816643651
 20
8.4425122853
 30
0.0
 10
19.1604384087
 20
8.1640197439
 30
0.0
 10
18.88728466
 20
7.9693421819
 30
0.0
 10
18.7454660748
 20
7.8813189941
 30
0.0
 10
18.6733463935
 20
7.8396840926
 30
0.0
  0
SPLINE
  5
26D
100
AcDbEntity
  8
0
100
AcDbSpline
 62
7
  6
BYLAYER
 70
0
 71
3
 72
23
 73
19
 74
0
 42
0.0000001
 43
0.0000001
 44
0.0000000001
 40
0.0
 40
0.0
 40
0.0
 40
0.0
 40
0.054588123
 40
0.110883291
 40
0.1687632487
 40
0.2281200474
 40
0.2888374442
 40
0.3507737773
 40
0.4137754847
 40
0.4776795702
 40
0.5423165622
 40
0.6075095037
 40
0.6730767078
 40
0.7388298519
 40
0.8045814862
 40
0.8701554189
 40
0.9353687833
 40
1.0
 40
1.0
 40
1.0
 40
1.0
 10
19.64510572
 20
12.3828574669
 30
0.0
 10
19.6449489653
 20
12.5952103545
 30
0.0
 10
19.6322320003
 20
13.0266258769
 30
0.0
 10
19.5782034435
 20
13.681176443
 30
0.0
 10
19.4890390958
 20
14.350591378
 30
0.0
 10
19.3651991931
 20
15.0319320981
 30
0.0
 10
19.2071677809
 20
15.7223457582
 30
0.0
 10
19.0156735041
 20
16.4189384122
 30
0.0
 10
18.7914617136
 20
17.1187169417
 30
0.0
 10
18.5355521981
 20
17.8187228562
 30
0.0
 10
18.248976437
 20
18.5159612636
 30
0.0
 10
17.9330056805
 20
19.2074945505
 30
0.0
 10
17.5889292672
 20
19.8903440732
 30
0.0
 10
17.2182823099
 20
20.5616256912
 30
0.0
 10
16.8225761664
 20
21.2184771658
 30
0.0
 10
16.403497916
 20
21.8581665365
 30
0.0
 10
15.9628498442
 20
22.4778409389
 30
0.0
 10
15.6543824841
 20
22.8780098859
 30
0.0
 10
15.4969613391
 20
23.0740490842
 30
0.0
  0
SPLINE
  5
26E
100
AcDbEntity
  8
0
100
AcDbSpline
 62
7
  6
BYLAYER
 70
0
 71
3
 72
11
 73
7
 74
0
 42
0.0000001
 43
0.0000001
 44
0.0000000001
 40
0.0
 40
0.0
 40
0.0
 40
0.0
 40
0.2423864323
 40
0.4899688229
 40
0.7425745146
 40
1.0
 40
1.0
 40
1.0
 40
1.0
 10
10.6068704486
 20
16.7279231496
 30
0.0
 10
11.3092565407
 20
16.3226216502
 30
0.0
 10
12.7451433334
 20
15.5308598324
 30
0.0
 10
14.9638246049
 20
14.4118685903
 30
0.0
 10
17.2663252709
 20
13.3508967849
 30
0.0
 10
18.8397818452
 20
12.6896753008
 30
0.0
 10
19.6390833524
 20
12.3689436977
 30
0.0
  0
SPLINE
  5
26F
100
AcDbEntity
  8
0
100
AcDbSpline
 62
7
  6
BYLAYER
 70
0
 71
3
 72
19
 73
15
 74
0
 42
0.0000001
 43
0.0000001
 44
0.0000000001
 40
0.0
 40
0.0
 40
0.0
 40
0.0
 40
0.0539078212
 40
0.1080738119
 40
0.1627507161
 40
0.2181784077
 40
0.2745801726
 40
0.3321603945
 40
0.451479219
 40
0.5135765243
 40
0.5774194664
 40
0.7105903508
 40
0.8514606114
 40
1.0
 40
1.0
 40
1.0
 40
1.0
 10
6.9234082942
 20
28.1912953263
 30
0.0
 10
7.0195876697
 20
28.2468199591
 30
0.0
 10
7.2172502842
 20
28.3499750907
 30
0.0
 10
7.5269002695
 20
28.4795355655
 30
0.0
 10
7.8492882261
 20
28.5837315737
 30
0.0
 10
8.1835504715
 20
28.6623600308
 30
0.0
 10
8.5288929818
 20
28.7152432883
 30
0.0
 10
9.008509101
 20
28.7516654482
 30
0.0
 10
9.5024618059
 20
28.7345480656
 30
0.0
 10
10.0035428922
 20
28.6679488909
 30
0.0
 10
10.5276179233
 20
28.5648580708
 30
0.0
 10
11.1974152731
 20
28.3696024254
 30
0.0
 10
12.0043207
 20
28.0393424815
 30
0.0
 10
12.5333654565
 20
27.7623943339
 30
0.0
 10
12.7983773439
 20
27.6093931107
 30
0.0
  0
ENDSEC
  0
SECTION
  2
OBJECTS
  0
DICTIONARY
  5
C
100
AcDbDictionary
280
0
281
1
  3
ACAD_GROUP
350
D
  3
ACAD_MLINESTYLE
350
17
  3
ACAD_LAYOUT
350
1A
  3
ACAD_PLOTSETTINGS
350
19
  3
ACAD_PLOTSTYLENAME
350
E
  0
DICTIONARY
  5
D
102
{ACAD_REACTORS
330
C
102
}
100
AcDbDictionary
280
0
281
1
  0
ACDBDICTIONARYWDFLT
  5
E
102
{ACAD_REACTORS
330
C
102
}
100
AcDbDictionary
281
1
  3
Normal
350
F
100
AcDbDictionaryWithDefault
340
F
  0
DICTIONARY
  5
17
102
{ACAD_REACTORS
330
C
102
}
100
AcDbDictionary
280
0
281
1
  3
Standard
350
18
  0
DICTIONARY
  5
19
102
{ACAD_REACTORS
330
C
102
}
100
AcDbDictionary
281
1
  0
DICTIONARY
  5
1A
102
{ACAD_REACTORS
330
C
102
}
100
AcDbDictionary
281
1
  3
Model
350
270
  3
Layout1
350
271
  0
ACDBPLACEHOLDER
  5
F
102
{ACAD_REACTORS
330
E
102
}
  0
MLINESTYLE
  5
18
102
{ACAD_REACTORS
330
17
102
}
100
AcDbMlineStyle
  2
STANDARD
 70
0
  3

 62
256
 51
90.0
 52
90.0
 71
2
 49
0.5
 62
256
  6
BYLAYER
 49
-0.5
 62
256
  6
BYLAYER
  0
LAYOUT
  5
270
102
{ACAD_REACTORS
330
1A
102
}
100
AcDbPlotSettings
  1

  2
none_device
  4

  6

 40
0.0
 41
0.0
 42
0.0
 43
0.0
 44
210.0
 45
297.0
 46
0.0
 47
0.0
 48
0.0
 49
0.0
140
0.0
141
0.0
142
1.0
143
1.0
 70
1024
 72
1
 73
0
 74
0
  7

 75
0
147
1.0
148
0.0
149
0.0
100
AcDbLayout
  1
Model
 70
0
 71
0
 10
0.0
 20
0.0
 11
210.0
 21
297.0
 12
0.0
 22
0.0
 32
0.0
 14
0.0
 24
0.0
 34
0.0
 15
0.0
 25
0.0
 35
0.0
146
0.0
 13
0.0
 23
0.0
 33
0.0
 16
1.0
 26
0.0
 36
0.0
 17
0.0
 27
1.0
 37
0.0
 76
0
330
210
345
0
346
0
  0
LAYOUT
  5
271
102
{ACAD_REACTORS
330
1A
102
}
100
AcDbPlotSettings
  1

  2
none_device
  4

  6

 40
0.0
 41
0.0
 42
0.0
 43
0.0
 44
210.0
 45
297.0
 46
0.0
 47
0.0
 48
0.0
 49
0.0
140
0.0
141
0.0
142
1.0
143
1.0
 70
0
 72
1
 73
0
 74
0
  7

 75
0
147
1.0
148
0.0
149
0.0
100
AcDbLayout
  1
Layout1
 70
0
 71
1
 10
0.0
 20
0.0
 11
210.0
 21
297.0
 12
0.0
 22
0.0
 32
0.0
 14
0.0
 24
0.0
 34
0.0
 15
0.0
 25
0.0
 35
0.0
146
0.0
 13
0.0
 23
0.0
 33
0.0
 16
1.0
 26
0.0
 36
0.0
 17
0.0
 27
1.0
 37
0.0
 76
0
330
211
345
0
346
0
  0
ENDSEC
  0
EOF
