999
DXF file: C:\Users\sesa63760\Dev\_Creo\CAD\MCADID0004747_3D-CAD\drw0001_3.dxf
999
Pro/ENGINEER 2019471 by Parametric Technology Corporation
  0
SECTION
  2
HEADER
  9
$ACADVER
  1
AC1024
  9
$DWGCODEPAGE
  3
ANSI_1252
  9
$EXTMAX
 10
44.6080245686
 20
63.0884918899
 30
0.0
  9
$EXTMIN
 10
0.0
 20
0.0
 30
0.0
  9
$LIMMIN
 10
0.0
 20
0.0
  9
$LIMMAX
 10
44.6080245686
 20
63.0884918899
  9
$VIEWCTR
 10
22.3040122843
 20
31.544245945
  9
$VIEWSIZE
 40
63.0884918899
  9
$CLAYER
  8
0
  9
$LTSCALE
 40
4.1124350269
  9
$CELTYPE
  6
BYLAYER
  9
$DIMSCALE
 40
1.0
  9
$DIMASZ
 40
0.5310479115
  9
$DIMEXO
 40
1.0
  9
$DIMDLI
 40
2.8413187459
  9
$DIMEXE
 40
1.0
  9
$DIMCEN
 40
0.6729439135
  9
$DIMLFAC
 40
1.0
  9
$DIMBLK
  1
_FILLED
  9
$DIMALT
 70
0
  9
$DIMALTF
 40
0.0393700787
  9
$DIMTXT
 40
0.7434670761
  9
$DIMTOL
 70
1
  9
$DIMLIM
 70
0
  9
$DIMTFAC
 40
1.0
  9
$DIMTP
 40
0.01
  9
$DIMTM
 40
0.01
  9
$DIMGAP
 40
0.625
  9
$DIMDSEP
 70
46
  9
$AUNITS
 70
0
  9
$PDMODE
 70
3
  9
$PDSIZE
 40
0.3125
  9
$HANDSEED
  5
2DD
  9
$TILEMODE
 70
1
  9
$MEASUREMENT
 70
1
  9
$INSUNITS
 70
4
  0
ENDSEC
  0
SECTION
  2
CLASSES
  0
CLASS
  1
ACDBDICTIONARYWDFLT
  2
AcDbDictionaryWithDefault
  3
AutoCAD 2000
 90
0
 91
1
280
0
281
0
  0
CLASS
  1
ACDBPLACEHOLDER
  2
AcDbPlaceHolder
  3
AutoCAD 2000
 90
0
 91
1
280
0
281
0
  0
CLASS
  1
LAYOUT
  2
AcDbLayout
  3
AutoCAD 2000
 90
0
 91
0
280
0
281
0
  0
ENDSEC
  0
SECTION
  2
TABLES
  0
TABLE
  2
VPORT
  5
8
100
AcDbSymbolTable
 70
2
  0
VPORT
  5
1F4
100
AcDbSymbolTableRecord
100
AcDbViewportTableRecord
  2
*ACTIVE
 70
0
 10
0.0
 20
0.0
 11
1.0
 21
1.0
 12
22.3040122843
 22
31.544245945
 13
0.0
 23
0.0
 14
1.0
 24
1.0
 15
0.0
 25
0.0
 16
0.0
 26
0.0
 36
1.0
 17
0.0
 27
0.0
 37
0.0
 40
63.0884918899
 41
0.7070707071
 42
50.0
 43
0.0
 44
0.0
 50
0.0
 51
0.0
 71
0
 72
100
 73
1
 74
1
 75
0
 76
0
 77
0
 78
0
  0
ENDTAB
  0
TABLE
  2
LTYPE
  5
5
100
AcDbSymbolTable
 70
6
  0
LTYPE
  5
14
100
AcDbSymbolTableRecord
100
AcDbLinetypeTableRecord
  2
BYBLOCK
 70
0
  3

 72
65
 73
0
 40
0.0
  0
LTYPE
  5
15
100
AcDbSymbolTableRecord
100
AcDbLinetypeTableRecord
  2
BYLAYER
 70
0
  3

 72
65
 73
0
 40
0.0
  0
LTYPE
  5
16
100
AcDbSymbolTableRecord
100
AcDbLinetypeTableRecord
  2
CONTINUOUS
 70
64
  3
Solid line
 72
65
 73
0
 40
0.0
  0
LTYPE
  5
1F5
100
AcDbSymbolTableRecord
100
AcDbLinetypeTableRecord
  2
CENTER
 70
64
  3
____ _ ____ _ ____ _ ____ _ ____ _ ____ _ ____
 72
65
 73
4
 40
0.6
 49
0.375
 74
0
 49
-0.075
 74
0
 49
0.075
 74
0
 49
-0.075
 74
0
  0
LTYPE
  5
1F6
100
AcDbSymbolTableRecord
100
AcDbLinetypeTableRecord
  2
HIDDEN
 70
64
  3
- - - - - - - - - - - - - - - - - - - -
 72
65
 73
2
 40
0.2
 49
0.1
 74
0
 49
-0.1
 74
0
  0
LTYPE
  5
1F7
100
AcDbSymbolTableRecord
100
AcDbLinetypeTableRecord
  2
PHANTOM
 70
64
  3
_____ _ _ _____ _ _ _____ _ _ _____
 72
65
 73
6
 40
0.8
 49
0.45
 74
0
 49
-0.05
 74
0
 49
0.1
 74
0
 49
-0.05
 74
0
 49
0.1
 74
0
 49
-0.05
 74
0
  0
LTYPE
  5
1F8
100
AcDbSymbolTableRecord
100
AcDbLinetypeTableRecord
  2
DOT
 70
64
  3
. . . . . . . . . . . . . . . . . . . .
 72
65
 73
2
 40
0.2
 49
0.1
 74
0
 49
-0.1
 74
0
  0
LTYPE
  5
1F9
100
AcDbSymbolTableRecord
100
AcDbLinetypeTableRecord
  2
DASHED
 70
64
  3
- - - - - - - - - - - - - - - - - - - -
 72
65
 73
2
 40
0.2
 49
0.1
 74
0
 49
-0.1
 74
0
  0
ENDTAB
  0
TABLE
  2
LAYER
  5
2
100
AcDbSymbolTable
 70
36
  0
LAYER
  5
10
100
AcDbSymbolTableRecord
100
AcDbLayerTableRecord
  2
0
 70
0
 62
7
  6
CONTINUOUS
370
-3
390
F
  0
LAYER
  5
1FA
100
AcDbSymbolTableRecord
100
AcDbLayerTableRecord
  2
DEFAULT_1
 70
0
 62
7
  6
CENTER
370
-3
390
F
  0
LAYER
  5
1FB
100
AcDbSymbolTableRecord
100
AcDbLayerTableRecord
  2
DEFAULT_2
 70
0
 62
7
  6
HIDDEN
370
-3
390
F
  0
LAYER
  5
1FC
100
AcDbSymbolTableRecord
100
AcDbLayerTableRecord
  2
DEFAULT_3
 70
0
 62
7
  6
PHANTOM
370
-3
390
F
  0
LAYER
  5
1FD
100
AcDbSymbolTableRecord
100
AcDbLayerTableRecord
  2
00_COMPONENTS
 70
0
 62
7
  6
CONTINUOUS
370
-3
390
F
  0
LAYER
  5
1FE
100
AcDbSymbolTableRecord
100
AcDbLayerTableRecord
  2
01_1_DEFAULT_DATUMS
 70
0
 62
7
  6
CONTINUOUS
370
-3
390
F
  0
LAYER
  5
1FF
100
AcDbSymbolTableRecord
100
AcDbLayerTableRecord
  2
01_PLANES
 70
0
 62
7
  6
CONTINUOUS
370
-3
390
F
  0
LAYER
  5
200
100
AcDbSymbolTableRecord
100
AcDbLayerTableRecord
  2
02_COORD_SYS
 70
0
 62
7
  6
CONTINUOUS
370
-3
390
F
  0
LAYER
  5
201
100
AcDbSymbolTableRecord
100
AcDbLayerTableRecord
  2
03_AXES
 70
0
 62
7
  6
CONTINUOUS
370
-3
390
F
  0
LAYER
  5
202
100
AcDbSymbolTableRecord
100
AcDbLayerTableRecord
  2
04_POINTS
 70
0
 62
7
  6
CONTINUOUS
370
-3
390
F
  0
LAYER
  5
203
100
AcDbSymbolTableRecord
100
AcDbLayerTableRecord
  2
05_CURVES
 70
0
 62
7
  6
CONTINUOUS
370
-3
390
F
  0
LAYER
  5
204
100
AcDbSymbolTableRecord
100
AcDbLayerTableRecord
  2
06_SURFS
 70
0
 62
7
  6
CONTINUOUS
370
-3
390
F
  0
LAYER
  5
205
100
AcDbSymbolTableRecord
100
AcDbLayerTableRecord
  2
07_COSMETICS
 70
0
 62
7
  6
CONTINUOUS
370
-3
390
F
  0
LAYER
  5
206
100
AcDbSymbolTableRecord
100
AcDbLayerTableRecord
  2
10_NOTES
 70
0
 62
7
  6
CONTINUOUS
370
-3
390
F
  0
LAYER
  5
207
100
AcDbSymbolTableRecord
100
AcDbLayerTableRecord
  2
11_NOTES_PUB
 70
0
 62
7
  6
CONTINUOUS
370
-3
390
F
  0
LAYER
  5
208
100
AcDbSymbolTableRecord
100
AcDbLayerTableRecord
  2
13_REF_GTOL
 70
0
 62
7
  6
CONTINUOUS
370
-3
390
F
  0
LAYER
  5
209
100
AcDbSymbolTableRecord
100
AcDbLayerTableRecord
  2
16_MISC
 70
0
 62
7
  6
CONTINUOUS
370
-3
390
F
  0
LAYER
  5
20A
100
AcDbSymbolTableRecord
100
AcDbLayerTableRecord
  2
17_NO_PRINT
 70
0
 62
7
  6
CONTINUOUS
370
-3
390
F
  0
LAYER
  5
20B
100
AcDbSymbolTableRecord
100
AcDbLayerTableRecord
  2
18_DATUM_CAMS_JOINTS
 70
0
 62
7
  6
CONTINUOUS
370
-3
390
F
  0
LAYER
  5
20C
100
AcDbSymbolTableRecord
100
AcDbLayerTableRecord
  2
19_DATUM_FUNCTIONAL
 70
0
 62
7
  6
CONTINUOUS
370
-3
390
F
  0
LAYER
  5
20D
100
AcDbSymbolTableRecord
100
AcDbLayerTableRecord
  2
20_DATUM_KINEMATIC_SCHEME
 70
0
 62
7
  6
CONTINUOUS
370
-3
390
F
  0
ENDTAB
  0
TABLE
  2
STYLE
  5
3
100
AcDbSymbolTable
 70
1
  0
STYLE
  5
11
100
AcDbSymbolTableRecord
100
AcDbTextStyleTableRecord
  2
STANDARD
 70
0
 40
0.0
 41
1.0
 50
0.0
 71
0
 42
0.2
  3
ARIAL.TTF
  4

  0
STYLE
  5
20E
100
AcDbSymbolTableRecord
100
AcDbTextStyleTableRecord
  2
TEXTSTYLE_1
 70
0
 40
0.0
 41
0.8
 50
0.0
 71
0
 42
0.2
  3
gdt
  4

  0
ENDTAB
  0
TABLE
  2
VIEW
  5
6
100
AcDbSymbolTable
 70
0
  0
ENDTAB
  0
TABLE
  2
UCS
  5
7
100
AcDbSymbolTable
 70
0
  0
ENDTAB
  0
TABLE
  2
APPID
  5
9
100
AcDbSymbolTable
 70
1
  0
APPID
  5
20F
100
AcDbSymbolTableRecord
100
AcDbRegAppTableRecord
  2
ACAD
 70
0
  0
ENDTAB
  0
TABLE
  2
BLOCK_RECORD
  5
1
100
AcDbSymbolTable
 70
0
  0
BLOCK_RECORD
  5
210
100
AcDbSymbolTableRecord
100
AcDbBlockTableRecord
  2
*Model_Space
  0
BLOCK_RECORD
  5
211
100
AcDbSymbolTableRecord
100
AcDbBlockTableRecord
  2
*Paper_Space
  0
BLOCK_RECORD
  5
212
100
AcDbSymbolTableRecord
100
AcDbBlockTableRecord
  2
_FILLED
  0
ENDTAB
  0
TABLE
  2
DIMSTYLE
  5
A
100
AcDbSymbolTable
 70
1
100
AcDbDimStyleTable
 71
0
  0
DIMSTYLE
105
213
100
AcDbSymbolTableRecord
100
AcDbDimStyleTableRecord
  2
STANDARD
 70
0
  3

  4

 40
1.0
 41
0.5310479115
 42
1.0
 43
0.38
 44
1.0
 45
0.0
 46
0.0
 47
0.01
 48
0.01
140
0.7434670761
141
0.09
142
0.0
143
25.4
144
1.0
145
0.0
146
1.0
147
0.625
 71
1
 72
0
 73
0
 74
0
 75
0
 76
0
 77
1
 78
8
 79
2
170
0
171
1
172
0
173
0
174
0
175
0
176
0
177
0
178
0
270
2
179
2
271
2
272
2
273
2
274
2
275
0
280
0
281
0
282
0
283
1
284
8
285
0
286
0
287
3
288
0
340
11
278
46
341
212
342
212
343
212
344
212
  0
ENDTAB
  0
ENDSEC
  0
SECTION
  2
BLOCKS
  0
BLOCK
  5
20
100
AcDbEntity
  8
0
100
AcDbBlockBegin
  2
*Model_Space
 70
0
 10
0.0
 20
0.0
 30
0.0
  3
*Model_Space
  1

  0
ENDBLK
  5
21
100
AcDbEntity
  8
0
100
AcDbBlockEnd
  0
BLOCK
  5
1C
100
AcDbEntity
  8
0
100
AcDbBlockBegin
  2
*Paper_Space
 70
0
 10
0.0
 20
0.0
 30
0.0
  3
*Paper_Space
  1

  0
ENDBLK
  5
1D
100
AcDbEntity
  8
0
100
AcDbBlockEnd
  0
BLOCK
  5
214
100
AcDbEntity
  8
0
100
AcDbBlockBegin
  2
_FILLED
 70
64
 10
0.0
 20
0.0
  3
_FILLED
  1

  0
SOLID
  5
215
100
AcDbEntity
  8
0
  6
BYBLOCK
 62
0
100
AcDbTrace
 10
0.0
 20
0.0
 11
-1.0
 21
0.25
 12
-1.0
 22
-0.25
 13
-1.0
 23
-0.25
  0
ENDBLK
  5
216
100
AcDbEntity
  8
0
  6
BYBLOCK
 62
0
100
AcDbBlockEnd
  0
ENDSEC
  0
SECTION
  2
ENTITIES
  0
LINE
  5
217
100
AcDbEntity
  8
0
100
AcDbLine
 62
7
  6
BYLAYER
 10
5.2763185142
 20
38.2986853376
 11
5.2763185142
 21
36.7986853376
  0
LINE
  5
218
100
AcDbEntity
  8
0
100
AcDbLine
 62
7
  6
BYLAYER
 10
5.2763185142
 20
26.8986853376
 11
5.2763185142
 21
25.3986853376
  0
LINE
  5
219
100
AcDbEntity
  8
0
100
AcDbLine
 62
7
  6
BYLAYER
 10
5.5955095849
 20
25.3986853376
 11
5.5955095849
 21
26.8986853376
  0
LINE
  5
21A
100
AcDbEntity
  8
0
100
AcDbLine
 62
7
  6
BYLAYER
 10
5.5955095849
 20
36.7986853376
 11
5.5955095849
 21
38.2986853376
  0
LINE
  5
21B
100
AcDbEntity
  8
0
100
AcDbLine
 62
7
  6
BYLAYER
 10
6.3653616223
 20
26.8986853376
 11
6.3653616223
 21
36.7986853376
  0
LINE
  5
21C
100
AcDbEntity
  8
0
100
AcDbLine
 62
7
  6
BYLAYER
 10
7.2976880267
 20
36.7986853376
 11
7.2976880267
 21
26.8986853376
  0
LINE
  5
21D
100
AcDbEntity
  8
0
100
AcDbLine
 62
7
  6
BYLAYER
 10
7.4601623937
 20
38.2986853376
 11
7.4601623937
 21
36.7986853376
  0
LINE
  5
21E
100
AcDbEntity
  8
0
100
AcDbLine
 62
7
  6
BYLAYER
 10
7.4601623937
 20
25.3986853376
 11
7.4601623937
 21
26.8986853376
  0
LINE
  5
21F
100
AcDbEntity
  8
0
100
AcDbLine
 62
7
  6
BYLAYER
 10
10.1295208156
 20
39.8486853376
 11
9.9295208156
 21
39.6486853376
  0
LINE
  5
220
100
AcDbEntity
  8
0
100
AcDbLine
 62
7
  6
BYLAYER
 10
9.9295208156
 20
39.6486853376
 11
9.9295208156
 21
39.5486853376
  0
LINE
  5
221
100
AcDbEntity
  8
0
100
AcDbLine
 62
7
  6
BYLAYER
 10
9.9295208156
 20
38.5486853376
 11
9.9295208156
 21
38.2986853376
  0
LINE
  5
222
100
AcDbEntity
  8
0
100
AcDbLine
 62
7
  6
BYLAYER
 10
9.9295208156
 20
36.7986853376
 11
9.9295208156
 21
26.8986853376
  0
LINE
  5
223
100
AcDbEntity
  8
0
100
AcDbLine
 62
7
  6
BYLAYER
 10
9.9295208156
 20
25.3986853376
 11
9.9295208156
 21
25.1486853376
  0
LINE
  5
224
100
AcDbEntity
  8
0
100
AcDbLine
 62
7
  6
BYLAYER
 10
10.0946672399
 20
39.5486853376
 11
10.0946672399
 21
38.5486853376
  0
LINE
  5
225
100
AcDbEntity
  8
0
100
AcDbLine
 62
7
  6
BYLAYER
 10
10.0946672399
 20
25.1486853376
 11
10.0946672399
 21
24.1486853376
  0
LINE
  5
226
100
AcDbEntity
  8
0
100
AcDbLine
 62
7
  6
BYLAYER
 10
10.1795208156
 20
23.5486853376
 11
10.1795208156
 21
24.1486853376
  0
LINE
  5
227
100
AcDbEntity
  8
0
100
AcDbLine
 62
7
  6
BYLAYER
 10
14.559339583
 20
39.8486853376
 11
14.359339583
 21
39.6486853376
  0
LINE
  5
228
100
AcDbEntity
  8
0
100
AcDbLine
 62
7
  6
BYLAYER
 10
12.1795208156
 20
23.5486853376
 11
12.1795208156
 21
24.1486853376
  0
LINE
  5
229
100
AcDbEntity
  8
0
100
AcDbLine
 62
7
  6
BYLAYER
 10
12.4295208156
 20
39.6486853376
 11
12.4295208156
 21
39.5486853376
  0
LINE
  5
22A
100
AcDbEntity
  8
0
100
AcDbLine
 62
7
  6
BYLAYER
 10
12.4295208156
 20
38.5486853376
 11
12.4295208156
 21
38.2986853376
  0
LINE
  5
22B
100
AcDbEntity
  8
0
100
AcDbLine
 62
7
  6
BYLAYER
 10
12.4295208156
 20
36.7986853376
 11
12.4295208156
 21
26.8986853376
  0
LINE
  5
22C
100
AcDbEntity
  8
0
100
AcDbLine
 62
7
  6
BYLAYER
 10
12.4295208156
 20
25.3986853376
 11
12.4295208156
 21
25.1486853376
  0
LINE
  5
22D
100
AcDbEntity
  8
0
100
AcDbLine
 62
7
  6
BYLAYER
 10
13.109339583
 20
38.3486853376
 11
13.109339583
 21
38.2986853376
  0
LINE
  5
22E
100
AcDbEntity
  8
0
100
AcDbLine
 62
7
  6
BYLAYER
 10
13.109339583
 20
25.3486853376
 11
13.109339583
 21
25.3986853376
  0
LINE
  5
22F
100
AcDbEntity
  8
0
100
AcDbLine
 62
7
  6
BYLAYER
 10
13.3295278974
 20
24.1486853376
 11
13.3295278974
 21
25.1486853376
  0
LINE
  5
230
100
AcDbEntity
  8
0
100
AcDbLine
 62
7
  6
BYLAYER
 10
13.3295278974
 20
38.5486853376
 11
13.3295278974
 21
39.5486853376
  0
LINE
  5
231
100
AcDbEntity
  8
0
100
AcDbLine
 62
7
  6
BYLAYER
 10
14.359339583
 20
39.6486853376
 11
14.359339583
 21
39.5486853376
  0
LINE
  5
232
100
AcDbEntity
  8
0
100
AcDbLine
 62
7
  6
BYLAYER
 10
14.359339583
 20
38.5486853376
 11
14.359339583
 21
38.3486853376
  0
LINE
  5
233
100
AcDbEntity
  8
0
100
AcDbLine
 62
7
  6
BYLAYER
 10
14.359339583
 20
25.3486853376
 11
14.359339583
 21
25.1486853376
  0
LINE
  5
234
100
AcDbEntity
  8
0
100
AcDbLine
 62
7
  6
BYLAYER
 10
14.609339583
 20
23.5486853376
 11
14.609339583
 21
24.1486853376
  0
LINE
  5
235
100
AcDbEntity
  8
0
100
AcDbLine
 62
7
  6
BYLAYER
 10
16.609301951
 20
23.5486853376
 11
14.6093772151
 21
23.5486853376
  0
LINE
  5
236
100
AcDbEntity
  8
0
100
AcDbLine
 62
7
  6
BYLAYER
 10
12.1794831836
 20
23.5486853376
 11
10.1795584477
 21
23.5486853376
  0
LINE
  5
237
100
AcDbEntity
  8
0
100
AcDbLine
 62
7
  6
BYLAYER
 10
16.609339583
 20
23.5486853376
 11
16.609339583
 21
24.1486853376
  0
LINE
  5
238
100
AcDbEntity
  8
0
100
AcDbLine
 62
7
  6
BYLAYER
 10
7.5307696278
 20
24.1486853376
 11
18.1093378866
 21
24.1486853376
  0
LINE
  5
239
100
AcDbEntity
  8
0
100
AcDbLine
 62
7
  6
BYLAYER
 10
36.8664582313
 20
24.7986853376
 11
34.8664826947
 21
24.7986853376
  0
LINE
  5
23A
100
AcDbEntity
  8
0
100
AcDbLine
 62
7
  6
BYLAYER
 10
40.566470463
 20
25.0986853376
 11
38.566470463
 21
25.0986853376
  0
LINE
  5
23B
100
AcDbEntity
  8
0
100
AcDbLine
 62
7
  6
BYLAYER
 10
7.5307696278
 20
25.1486853376
 11
18.1093390124
 21
25.1486853376
  0
LINE
  5
23C
100
AcDbEntity
  8
0
100
AcDbLine
 62
7
  6
BYLAYER
 10
18.1093156578
 20
25.3486853376
 11
13.1093635082
 21
25.3486853376
  0
LINE
  5
23D
100
AcDbEntity
  8
0
100
AcDbLine
 62
7
  6
BYLAYER
 10
16.6932756425
 20
38.2986853376
 11
16.6932756425
 21
36.7986853376
  0
LINE
  5
23E
100
AcDbEntity
  8
0
100
AcDbLine
 62
7
  6
BYLAYER
 10
16.6932756425
 20
25.3986853376
 11
16.6932756425
 21
26.8986853376
  0
LINE
  5
23F
100
AcDbEntity
  8
0
100
AcDbLine
 62
7
  6
BYLAYER
 10
16.859339583
 20
39.6486853376
 11
16.859339583
 21
39.5486853376
  0
LINE
  5
240
100
AcDbEntity
  8
0
100
AcDbLine
 62
7
  6
BYLAYER
 10
16.859339583
 20
38.5486853376
 11
16.859339583
 21
38.3486853376
  0
LINE
  5
241
100
AcDbEntity
  8
0
100
AcDbLine
 62
7
  6
BYLAYER
 10
16.859339583
 20
25.3486853376
 11
16.859339583
 21
25.1486853376
  0
LINE
  5
242
100
AcDbEntity
  8
0
100
AcDbLine
 62
7
  6
BYLAYER
 10
38.566470463
 20
25.3986853376
 11
28.2286684201
 21
25.3986853376
  0
LINE
  5
243
100
AcDbEntity
  8
0
100
AcDbLine
 62
7
  6
BYLAYER
 10
18.9040203001
 20
25.3986853376
 11
5.2763439456
 21
25.3986853376
  0
LINE
  5
244
100
AcDbEntity
  8
0
100
AcDbLine
 62
7
  6
BYLAYER
 10
17.940155594
 20
39.5486853376
 11
17.940155594
 21
38.5486853376
  0
LINE
  5
245
100
AcDbEntity
  8
0
100
AcDbLine
 62
7
  6
BYLAYER
 10
17.940155594
 20
25.1486853376
 11
17.940155594
 21
24.1486853376
  0
LINE
  5
246
100
AcDbEntity
  8
0
100
AcDbLine
 62
7
  6
BYLAYER
 10
18.109339583
 20
38.3486853376
 11
18.109339583
 21
38.2986853376
  0
LINE
  5
247
100
AcDbEntity
  8
0
100
AcDbLine
 62
7
  6
BYLAYER
 10
18.109339583
 20
24.1486853376
 11
18.109339583
 21
25.1486853376
  0
LINE
  5
248
100
AcDbEntity
  8
0
100
AcDbLine
 62
7
  6
BYLAYER
 10
18.109339583
 20
25.3486853376
 11
18.109339583
 21
25.3986853376
  0
LINE
  5
249
100
AcDbEntity
  8
0
100
AcDbLine
 62
7
  6
BYLAYER
 10
18.109339583
 20
38.5486853376
 11
18.109339583
 21
39.5486853376
  0
LINE
  5
24A
100
AcDbEntity
  8
0
100
AcDbLine
 62
7
  6
BYLAYER
 10
38.566470463
 20
26.7986853376
 11
39.4236133201
 21
26.7986853376
  0
LINE
  5
24B
100
AcDbEntity
  8
0
100
AcDbLine
 62
7
  6
BYLAYER
 10
5.2763437771
 20
26.8986853376
 11
17.3120552742
 21
26.8986853376
  0
LINE
  5
24C
100
AcDbEntity
  8
0
100
AcDbLine
 62
7
  6
BYLAYER
 10
29.928954335
 20
26.8986853376
 11
38.5339784933
 21
26.8986853376
  0
LINE
  5
24D
100
AcDbEntity
  8
0
100
AcDbLine
 62
7
  6
BYLAYER
 10
30.490161675
 20
27.0986853376
 11
38.918211698
 21
27.0986853376
  0
LINE
  5
24E
100
AcDbEntity
  8
0
100
AcDbLine
 62
7
  6
BYLAYER
 10
20.4938216947
 20
25.7827885736
 11
20.5180690166
 21
25.2274335966
  0
LINE
  5
24F
100
AcDbEntity
  8
0
100
AcDbLine
 62
7
  6
BYLAYER
 10
20.5180690166
 20
38.4699370785
 11
20.4938216947
 21
37.9145821016
  0
LINE
  5
250
100
AcDbEntity
  8
0
100
AcDbLine
 62
7
  6
BYLAYER
 10
22.33564683
 20
39.033307748
 11
22.1684892707
 21
38.5031517017
  0
LINE
  5
251
100
AcDbEntity
  8
0
100
AcDbLine
 62
7
  6
BYLAYER
 10
24.23710324
 20
39.1070582733
 11
23.9384269547
 21
38.6382304161
  0
LINE
  5
252
100
AcDbEntity
  8
0
100
AcDbLine
 62
7
  6
BYLAYER
 10
26.0928571344
 20
38.6861626781
 11
25.6830164185
 21
38.3106128536
  0
LINE
  5
253
100
AcDbEntity
  8
0
100
AcDbLine
 62
7
  6
BYLAYER
 10
25.6830164185
 20
25.3867578215
 11
26.0928571344
 21
25.0112079971
  0
LINE
  5
254
100
AcDbEntity
  8
0
100
AcDbLine
 62
7
  6
BYLAYER
 10
23.9384269547
 20
25.0591402591
 11
24.23710324
 21
24.5903124019
  0
LINE
  5
255
100
AcDbEntity
  8
0
100
AcDbLine
 62
7
  6
BYLAYER
 10
22.1684892707
 20
25.1942189735
 11
22.33564683
 21
24.6640629272
  0
LINE
  5
256
100
AcDbEntity
  8
0
100
AcDbLine
 62
7
  6
BYLAYER
 10
33.5539626407
 20
29.3486853376
 11
37.566470463
 21
29.3486853376
  0
LINE
  5
257
100
AcDbEntity
  8
0
100
AcDbLine
 62
7
  6
BYLAYER
 10
12.2295208156
 20
39.8486853376
 11
12.4295208156
 21
39.6486853376
  0
LINE
  5
258
100
AcDbEntity
  8
0
100
AcDbLine
 62
7
  6
BYLAYER
 10
16.659339583
 20
39.8486853376
 11
16.859339583
 21
39.6486853376
  0
LINE
  5
259
100
AcDbEntity
  8
0
100
AcDbLine
 62
7
  6
BYLAYER
 10
33.5539626407
 20
34.3486853376
 11
37.566470463
 21
34.3486853376
  0
LINE
  5
25A
100
AcDbEntity
  8
0
100
AcDbLine
 62
7
  6
BYLAYER
 10
26.6391192313
 20
37.9145821016
 11
26.6148719093
 21
38.4699370785
  0
LINE
  5
25B
100
AcDbEntity
  8
0
100
AcDbLine
 62
7
  6
BYLAYER
 10
26.6148719093
 20
25.2274335966
 11
26.6391192313
 21
25.7827885736
  0
LINE
  5
25C
100
AcDbEntity
  8
0
100
AcDbLine
 62
7
  6
BYLAYER
 10
24.7972940959
 20
24.6640629272
 11
24.9644516552
 21
25.1942189735
  0
LINE
  5
25D
100
AcDbEntity
  8
0
100
AcDbLine
 62
7
  6
BYLAYER
 10
22.895837686
 20
24.5903124019
 11
23.1945139712
 21
25.0591402591
  0
LINE
  5
25E
100
AcDbEntity
  8
0
100
AcDbLine
 62
7
  6
BYLAYER
 10
34.816470463
 20
38.5986853376
 11
34.616470463
 21
38.3986853376
  0
LINE
  5
25F
100
AcDbEntity
  8
0
100
AcDbLine
 62
7
  6
BYLAYER
 10
21.0400837915
 20
25.0112079971
 11
21.4499245074
 21
25.3867578215
  0
LINE
  5
260
100
AcDbEntity
  8
0
100
AcDbLine
 62
7
  6
BYLAYER
 10
21.4499245074
 20
38.3106128536
 11
21.0400837915
 21
38.686162678
  0
LINE
  5
261
100
AcDbEntity
  8
0
100
AcDbLine
 62
7
  6
BYLAYER
 10
23.1945139712
 20
38.6382304161
 11
22.895837686
 21
39.1070582733
  0
LINE
  5
262
100
AcDbEntity
  8
0
100
AcDbLine
 62
7
  6
BYLAYER
 10
24.9644516552
 20
38.5031517017
 11
24.7972940959
 21
39.033307748
  0
LINE
  5
263
100
AcDbEntity
  8
0
100
AcDbLine
 62
7
  6
BYLAYER
 10
30.490161675
 20
36.5986853376
 11
38.918211698
 21
36.5986853376
  0
LINE
  5
264
100
AcDbEntity
  8
0
100
AcDbLine
 62
7
  6
BYLAYER
 10
38.5339784933
 20
36.7986853376
 11
29.9293549155
 21
36.7986853376
  0
LINE
  5
265
100
AcDbEntity
  8
0
100
AcDbLine
 62
7
  6
BYLAYER
 10
17.3572863826
 20
36.7986853376
 11
5.2763439456
 21
36.7986853376
  0
LINE
  5
266
100
AcDbEntity
  8
0
100
AcDbLine
 62
7
  6
BYLAYER
 10
39.4236133201
 20
36.8986853376
 11
38.566470463
 21
36.8986853376
  0
LINE
  5
267
100
AcDbEntity
  8
0
100
AcDbLine
 62
7
  6
BYLAYER
 10
5.2763437771
 20
38.2986853376
 11
18.8792927422
 21
38.2986853376
  0
LINE
  5
268
100
AcDbEntity
  8
0
100
AcDbLine
 62
7
  6
BYLAYER
 10
28.2088170071
 20
38.2986853376
 11
38.566470463
 21
38.2986853376
  0
LINE
  5
269
100
AcDbEntity
  8
0
100
AcDbLine
 62
7
  6
BYLAYER
 10
13.1093759982
 20
38.3486853376
 11
18.1093031678
 21
38.3486853376
  0
LINE
  5
26A
100
AcDbEntity
  8
0
100
AcDbLine
 62
7
  6
BYLAYER
 10
34.616470463
 20
38.3986853376
 11
37.116470463
 21
38.3986853376
  0
LINE
  5
26B
100
AcDbEntity
  8
0
100
AcDbLine
 62
7
  6
BYLAYER
 10
7.5307696278
 20
38.5486853376
 11
18.1093378866
 21
38.5486853376
  0
LINE
  5
26C
100
AcDbEntity
  8
0
100
AcDbLine
 62
7
  6
BYLAYER
 10
34.8164791997
 20
38.5986853376
 11
36.9164617262
 21
38.5986853376
  0
LINE
  5
26D
100
AcDbEntity
  8
0
100
AcDbLine
 62
7
  6
BYLAYER
 10
38.566470463
 20
38.5986853376
 11
40.566470463
 21
38.5986853376
  0
LINE
  5
26E
100
AcDbEntity
  8
0
100
AcDbLine
 62
7
  6
BYLAYER
 10
7.5307696278
 20
39.5486853376
 11
18.1093390124
 21
39.5486853376
  0
LINE
  5
26F
100
AcDbEntity
  8
0
100
AcDbLine
 62
7
  6
BYLAYER
 10
31.6104981132
 20
38.2986853376
 11
31.6104981132
 21
36.7986853376
  0
LINE
  5
270
100
AcDbEntity
  8
0
100
AcDbLine
 62
7
  6
BYLAYER
 10
31.6104981132
 20
25.3986853376
 11
31.6104981132
 21
26.8986853376
  0
LINE
  5
271
100
AcDbEntity
  8
0
100
AcDbLine
 62
7
  6
BYLAYER
 10
9.9295208156
 20
39.6486853376
 11
12.4295208156
 21
39.6486853376
  0
LINE
  5
272
100
AcDbEntity
  8
0
100
AcDbLine
 62
7
  6
BYLAYER
 10
14.359339583
 20
39.6486853376
 11
16.859339583
 21
39.6486853376
  0
LINE
  5
273
100
AcDbEntity
  8
0
100
AcDbLine
 62
7
  6
BYLAYER
 10
10.129554016
 20
39.8486853376
 11
12.2294876153
 21
39.8486853376
  0
LINE
  5
274
100
AcDbEntity
  8
0
100
AcDbLine
 62
7
  6
BYLAYER
 10
14.5593727834
 20
39.8486853376
 11
16.6593063827
 21
39.8486853376
  0
LINE
  5
275
100
AcDbEntity
  8
0
100
AcDbLine
 62
7
  6
BYLAYER
 10
33.1711112566
 20
29.4274270049
 11
33.1711112566
 21
34.2699457874
  0
LINE
  5
276
100
AcDbEntity
  8
0
100
AcDbLine
 62
7
  6
BYLAYER
 10
33.46778416
 20
38.2986853376
 11
33.46778416
 21
36.7986853376
  0
LINE
  5
277
100
AcDbEntity
  8
0
100
AcDbLine
 62
7
  6
BYLAYER
 10
33.46778416
 20
26.8986853376
 11
33.46778416
 21
25.3986853376
  0
LINE
  5
278
100
AcDbEntity
  8
0
100
AcDbLine
 62
7
  6
BYLAYER
 10
34.616470463
 20
38.3986853376
 11
34.616470463
 21
38.2986853376
  0
LINE
  5
279
100
AcDbEntity
  8
0
100
AcDbLine
 62
7
  6
BYLAYER
 10
34.616470463
 20
36.7986853376
 11
34.616470463
 21
36.5986853376
  0
LINE
  5
27A
100
AcDbEntity
  8
0
100
AcDbLine
 62
7
  6
BYLAYER
 10
34.616470463
 20
34.3486853376
 11
34.616470463
 21
29.3486853376
  0
LINE
  5
27B
100
AcDbEntity
  8
0
100
AcDbLine
 62
7
  6
BYLAYER
 10
34.616470463
 20
27.0986853376
 11
34.616470463
 21
26.8986853376
  0
LINE
  5
27C
100
AcDbEntity
  8
0
100
AcDbLine
 62
7
  6
BYLAYER
 10
34.866470463
 20
24.7986853376
 11
34.866470463
 21
25.3986853376
  0
LINE
  5
27D
100
AcDbEntity
  8
0
100
AcDbLine
 62
7
  6
BYLAYER
 10
36.566470463
 20
36.5986853376
 11
36.566470463
 21
34.3486853376
  0
LINE
  5
27E
100
AcDbEntity
  8
0
100
AcDbLine
 62
7
  6
BYLAYER
 10
36.566470463
 20
29.3486853376
 11
36.566470463
 21
27.0986853376
  0
LINE
  5
27F
100
AcDbEntity
  8
0
100
AcDbLine
 62
7
  6
BYLAYER
 10
36.866470463
 20
24.7986853376
 11
36.866470463
 21
25.3986853376
  0
LINE
  5
280
100
AcDbEntity
  8
0
100
AcDbLine
 62
7
  6
BYLAYER
 10
37.116470463
 20
38.3986853376
 11
37.116470463
 21
38.2986853376
  0
LINE
  5
281
100
AcDbEntity
  8
0
100
AcDbLine
 62
7
  6
BYLAYER
 10
37.116470463
 20
36.7986853376
 11
37.116470463
 21
36.5986853376
  0
LINE
  5
282
100
AcDbEntity
  8
0
100
AcDbLine
 62
7
  6
BYLAYER
 10
37.116470463
 20
34.3486853376
 11
37.116470463
 21
29.3486853376
  0
LINE
  5
283
100
AcDbEntity
  8
0
100
AcDbLine
 62
7
  6
BYLAYER
 10
37.116470463
 20
27.0986853376
 11
37.116470463
 21
26.8986853376
  0
LINE
  5
284
100
AcDbEntity
  8
0
100
AcDbLine
 62
7
  6
BYLAYER
 10
38.3641022979
 20
25.3986853376
 11
38.3641022979
 21
26.8986853376
  0
LINE
  5
285
100
AcDbEntity
  8
0
100
AcDbLine
 62
7
  6
BYLAYER
 10
38.3641022979
 20
36.7986853376
 11
38.3641022979
 21
38.2986853376
  0
LINE
  5
286
100
AcDbEntity
  8
0
100
AcDbLine
 62
7
  6
BYLAYER
 10
38.566470463
 20
38.5986853376
 11
38.566470463
 21
36.8986853376
  0
LINE
  5
287
100
AcDbEntity
  8
0
100
AcDbLine
 62
7
  6
BYLAYER
 10
38.566470463
 20
33.3486853376
 11
38.566470463
 21
30.3486853376
  0
LINE
  5
288
100
AcDbEntity
  8
0
100
AcDbLine
 62
7
  6
BYLAYER
 10
38.566470463
 20
26.7986853376
 11
38.566470463
 21
25.0986853376
  0
LINE
  5
289
100
AcDbEntity
  8
0
100
AcDbLine
 62
7
  6
BYLAYER
 10
36.916470463
 20
38.5986853376
 11
37.116470463
 21
38.3986853376
  0
LINE
  5
28A
100
AcDbEntity
  8
0
100
AcDbLine
 62
7
  6
BYLAYER
 10
39.4236133201
 20
38.5986853376
 11
39.4236133201
 21
36.8986853376
  0
LINE
  5
28B
100
AcDbEntity
  8
0
100
AcDbLine
 62
7
  6
BYLAYER
 10
39.4236133201
 20
26.7986853376
 11
39.4236133201
 21
25.0986853376
  0
LINE
  5
28C
100
AcDbEntity
  8
0
100
AcDbLine
 62
7
  6
BYLAYER
 10
40.566470463
 20
25.0986853376
 11
40.566470463
 21
38.5986853376
  0
ARC
  5
28D
100
AcDbEntity
  8
0
100
AcDbCircle
 62
7
  6
BYLAYER
 10
22.5263902202
 20
24.7242040871
 40
0.2
100
AcDbArc
 50
197.4999999999
 51
261.6942451525
  0
ARC
  5
28E
100
AcDbEntity
  8
0
100
AcDbCircle
 62
7
  6
BYLAYER
 10
22.7271593968
 20
24.6977723236
 40
0.2
100
AcDbArc
 50
263.3057548474
 51
327.5000000005
  0
ARC
  5
28F
100
AcDbEntity
  8
0
100
AcDbCircle
 62
7
  6
BYLAYER
 10
23.3631922604
 20
24.9516803374
 40
0.2
100
AcDbArc
 50
88.3117871701
 51
147.5000000001
  0
ARC
  5
290
100
AcDbEntity
  8
0
100
AcDbCircle
 62
7
  6
BYLAYER
 10
23.7697486656
 20
24.9516803374
 40
0.2
100
AcDbArc
 50
32.4999999994
 51
91.6882128299
  0
ARC
  5
291
100
AcDbEntity
  8
0
100
AcDbCircle
 62
7
  6
BYLAYER
 10
24.4057815291
 20
24.6977723236
 40
0.2
100
AcDbArc
 50
212.5000000001
 51
276.6942451526
  0
ARC
  5
292
100
AcDbEntity
  8
0
100
AcDbCircle
 62
7
  6
BYLAYER
 10
24.6065507058
 20
24.7242040871
 40
0.2
100
AcDbArc
 50
278.3057548477
 51
342.5000000006
  0
ARC
  5
293
100
AcDbEntity
  8
0
100
AcDbCircle
 62
7
  6
BYLAYER
 10
25.1551950454
 20
25.1340778136
 40
0.2
100
AcDbArc
 50
103.3117871701
 51
162.5000000001
  0
ARC
  5
294
100
AcDbEntity
  8
0
100
AcDbCircle
 62
7
  6
BYLAYER
 10
25.547898377
 20
25.2393023542
 40
0.2
100
AcDbArc
 50
47.5000000002
 51
106.6882128296
  0
ARC
  5
295
100
AcDbEntity
  8
0
100
AcDbCircle
 62
7
  6
BYLAYER
 10
26.227975176
 20
25.1586634645
 40
0.2
100
AcDbArc
 50
227.4999999995
 51
291.694245152
  0
ARC
  5
296
100
AcDbEntity
  8
0
100
AcDbCircle
 62
7
  6
BYLAYER
 10
26.415062265
 20
25.2361574741
 40
0.2
100
AcDbArc
 50
293.3057548474
 51
357.4999999995
  0
ARC
  5
297
100
AcDbEntity
  8
0
100
AcDbCircle
 62
7
  6
BYLAYER
 10
26.8389288756
 20
25.7740646961
 40
0.2
100
AcDbArc
 50
118.3117871708
 51
177.5000000006
  0
ARC
  5
298
100
AcDbEntity
  8
0
100
AcDbCircle
 62
7
  6
BYLAYER
 10
20.2940120504
 20
25.7740646961
 40
0.2
100
AcDbArc
 50
2.499999999
 51
61.688212829
  0
ARC
  5
299
100
AcDbEntity
  8
0
100
AcDbCircle
 62
7
  6
BYLAYER
 10
20.7178786609
 20
25.2361574741
 40
0.2
100
AcDbArc
 50
182.5000000012
 51
246.6942451524
  0
ARC
  5
29A
100
AcDbEntity
  8
0
100
AcDbCircle
 62
7
  6
BYLAYER
 10
20.90496575
 20
25.1586634645
 40
0.2
100
AcDbArc
 50
248.3057548482
 51
312.4999999998
  0
ARC
  5
29B
100
AcDbEntity
  8
0
100
AcDbCircle
 62
7
  6
BYLAYER
 10
21.585042549
 20
25.2393023542
 40
0.2
100
AcDbArc
 50
73.3117871704
 51
132.5000000006
  0
ARC
  5
29C
100
AcDbEntity
  8
0
100
AcDbCircle
 62
7
  6
BYLAYER
 10
21.9777458806
 20
25.1340778136
 40
0.2
100
AcDbArc
 50
17.4999999994
 51
76.6882128299
  0
ARC
  5
29D
100
AcDbEntity
  8
0
100
AcDbCircle
 62
7
  6
BYLAYER
 10
23.3631922604
 20
38.7456903378
 40
0.2
100
AcDbArc
 50
212.4999999994
 51
271.6882128299
  0
ARC
  5
29E
100
AcDbEntity
  8
0
100
AcDbCircle
 62
7
  6
BYLAYER
 10
22.7271593968
 20
38.9995983516
 40
0.2
100
AcDbArc
 50
32.5000000001
 51
96.6942451526
  0
ARC
  5
29F
100
AcDbEntity
  8
0
100
AcDbCircle
 62
7
  6
BYLAYER
 10
22.5263902202
 20
38.9731665881
 40
0.2
100
AcDbArc
 50
98.3057548477
 51
162.5000000006
  0
ARC
  5
2A0
100
AcDbEntity
  8
0
100
AcDbCircle
 62
7
  6
BYLAYER
 10
21.9777458806
 20
38.5632928616
 40
0.2
100
AcDbArc
 50
283.3117871701
 51
342.5000000001
  0
ARC
  5
2A1
100
AcDbEntity
  8
0
100
AcDbCircle
 62
7
  6
BYLAYER
 10
21.585042549
 20
38.458068321
 40
0.2
100
AcDbArc
 50
227.5000000002
 51
286.6882128296
  0
ARC
  5
2A2
100
AcDbEntity
  8
0
100
AcDbCircle
 62
7
  6
BYLAYER
 10
20.90496575
 20
38.5387072107
 40
0.2
100
AcDbArc
 50
47.4999999995
 51
111.694245152
  0
ARC
  5
2A3
100
AcDbEntity
  8
0
100
AcDbCircle
 62
7
  6
BYLAYER
 10
20.7178786609
 20
38.4612132011
 40
0.2
100
AcDbArc
 50
113.3057548474
 51
177.4999999995
  0
ARC
  5
2A4
100
AcDbEntity
  8
0
100
AcDbCircle
 62
7
  6
BYLAYER
 10
20.2940120504
 20
37.9233059791
 40
0.2
100
AcDbArc
 50
298.3117871708
 51
357.5000000006
  0
ARC
  5
2A5
100
AcDbEntity
  8
0
100
AcDbCircle
 62
7
  6
BYLAYER
 10
23.566470463
 20
31.8486853376
 40
8.0
100
AcDbArc
 50
39.7242773006
 51
320.3204813121
  0
ARC
  5
2A6
100
AcDbEntity
  8
0
100
AcDbCircle
 62
7
  6
BYLAYER
 10
23.566470463
 20
31.8486853376
 40
8.0
100
AcDbArc
 50
357.1340817232
 51
2.8657262507
  0
ARC
  5
2A7
100
AcDbEntity
  8
0
100
AcDbCircle
 62
7
  6
BYLAYER
 10
23.566470463
 20
31.8486853376
 40
7.4
100
AcDbArc
 50
261.694245152
 51
263.305754848
  0
ARC
  5
2A8
100
AcDbEntity
  8
0
100
AcDbCircle
 62
7
  6
BYLAYER
 10
23.566470463
 20
31.8486853376
 40
7.4
100
AcDbArc
 50
276.694245152
 51
278.305754848
  0
ARC
  5
2A9
100
AcDbEntity
  8
0
100
AcDbCircle
 62
7
  6
BYLAYER
 10
23.566470463
 20
31.8486853376
 40
7.4
100
AcDbArc
 50
291.694245152
 51
293.305754848
  0
ARC
  5
2AA
100
AcDbEntity
  8
0
100
AcDbCircle
 62
7
  6
BYLAYER
 10
23.566470463
 20
31.8486853376
 40
7.4
100
AcDbArc
 50
66.694245152
 51
68.305754848
  0
ARC
  5
2AB
100
AcDbEntity
  8
0
100
AcDbCircle
 62
7
  6
BYLAYER
 10
23.566470463
 20
31.8486853376
 40
7.4
100
AcDbArc
 50
81.694245152
 51
83.305754848
  0
ARC
  5
2AC
100
AcDbEntity
  8
0
100
AcDbCircle
 62
7
  6
BYLAYER
 10
23.566470463
 20
31.8486853376
 40
7.4
100
AcDbArc
 50
96.694245152
 51
98.305754848
  0
ARC
  5
2AD
100
AcDbEntity
  8
0
100
AcDbCircle
 62
7
  6
BYLAYER
 10
23.566470463
 20
31.8486853376
 40
7.4
100
AcDbArc
 50
111.694245152
 51
113.305754848
  0
ARC
  5
2AE
100
AcDbEntity
  8
0
100
AcDbCircle
 62
7
  6
BYLAYER
 10
23.566470463
 20
31.8486853376
 40
7.4
100
AcDbArc
 50
246.694245152
 51
248.305754848
  0
ARC
  5
2AF
100
AcDbEntity
  8
0
100
AcDbCircle
 62
7
  6
BYLAYER
 10
23.566470463
 20
31.8486853376
 40
6.7
100
AcDbArc
 50
268.3117871706
 51
271.6882128294
  0
ARC
  5
2B0
100
AcDbEntity
  8
0
100
AcDbCircle
 62
7
  6
BYLAYER
 10
23.566470463
 20
31.8486853376
 40
6.7
100
AcDbArc
 50
283.3117871706
 51
286.6882128294
  0
ARC
  5
2B1
100
AcDbEntity
  8
0
100
AcDbCircle
 62
7
  6
BYLAYER
 10
23.566470463
 20
31.8486853376
 40
6.7
100
AcDbArc
 50
298.3117871706
 51
61.6882128294
  0
ARC
  5
2B2
100
AcDbEntity
  8
0
100
AcDbCircle
 62
7
  6
BYLAYER
 10
23.566470463
 20
31.8486853376
 40
6.7
100
AcDbArc
 50
73.3117871706
 51
76.6882128294
  0
ARC
  5
2B3
100
AcDbEntity
  8
0
100
AcDbCircle
 62
7
  6
BYLAYER
 10
23.566470463
 20
31.8486853376
 40
6.7
100
AcDbArc
 50
88.3117871706
 51
91.6882128294
  0
ARC
  5
2B4
100
AcDbEntity
  8
0
100
AcDbCircle
 62
7
  6
BYLAYER
 10
23.566470463
 20
31.8486853376
 40
6.7
100
AcDbArc
 50
103.3117871706
 51
106.6882128294
  0
ARC
  5
2B5
100
AcDbEntity
  8
0
100
AcDbCircle
 62
7
  6
BYLAYER
 10
23.566470463
 20
31.8486853376
 40
6.7
100
AcDbArc
 50
118.3117871706
 51
241.6882128294
  0
ARC
  5
2B6
100
AcDbEntity
  8
0
100
AcDbCircle
 62
7
  6
BYLAYER
 10
23.566470463
 20
31.8486853376
 40
6.7
100
AcDbArc
 50
253.3117871706
 51
256.6882128294
  0
CIRCLE
  5
2B7
100
AcDbEntity
  8
0
100
AcDbCircle
 62
7
  6
BYLAYER
 10
23.566470463
 20
31.8486853376
 40
6.35
  0
CIRCLE
  5
2B8
100
AcDbEntity
  8
0
100
AcDbCircle
 62
7
  6
BYLAYER
 10
23.566470463
 20
31.8486853376
 40
5.8499998164
  0
CIRCLE
  5
2B9
100
AcDbEntity
  8
0
100
AcDbCircle
 62
7
  6
BYLAYER
 10
23.566470463
 20
31.8486853376
 40
5.55
  0
CIRCLE
  5
2BA
100
AcDbEntity
  8
0
100
AcDbCircle
 62
7
  6
BYLAYER
 10
23.566470463
 20
31.8486853376
 40
4.815
  0
CIRCLE
  5
2BB
100
AcDbEntity
  8
0
100
AcDbCircle
 62
7
  6
BYLAYER
 10
23.566470463
 20
31.8486853376
 40
4.75
  0
CIRCLE
  5
2BC
100
AcDbEntity
  8
0
100
AcDbCircle
 62
7
  6
BYLAYER
 10
23.566470463
 20
31.8486853376
 40
4.6499998395
  0
CIRCLE
  5
2BD
100
AcDbEntity
  8
0
100
AcDbCircle
 62
7
  6
BYLAYER
 10
23.566470463
 20
31.8486853376
 40
4.13
  0
CIRCLE
  5
2BE
100
AcDbEntity
  8
0
100
AcDbCircle
 62
7
  6
BYLAYER
 10
23.566470463
 20
31.8486853376
 40
2.8594333634
  0
CIRCLE
  5
2BF
100
AcDbEntity
  8
0
100
AcDbCircle
 62
7
  6
BYLAYER
 10
23.566470463
 20
31.8486853376
 40
2.7
  0
CIRCLE
  5
2C0
100
AcDbEntity
  8
0
100
AcDbCircle
 62
7
  6
BYLAYER
 10
23.566470463
 20
31.8486853376
 40
1.5
  0
CIRCLE
  5
2C1
100
AcDbEntity
  8
0
100
AcDbCircle
 62
7
  6
BYLAYER
 10
23.566470463
 20
31.8486853376
 40
0.075
  0
ARC
  5
2C2
100
AcDbEntity
  8
0
100
AcDbCircle
 62
7
  6
BYLAYER
 10
26.8389288756
 20
37.9233059791
 40
0.2
100
AcDbArc
 50
182.499999999
 51
241.688212829
  0
ARC
  5
2C3
100
AcDbEntity
  8
0
100
AcDbCircle
 62
7
  6
BYLAYER
 10
26.415062265
 20
38.4612132011
 40
0.2
100
AcDbArc
 50
2.5000000012
 51
66.6942451524
  0
ARC
  5
2C4
100
AcDbEntity
  8
0
100
AcDbCircle
 62
7
  6
BYLAYER
 10
26.227975176
 20
38.5387072107
 40
0.2
100
AcDbArc
 50
68.3057548482
 51
132.4999999998
  0
ARC
  5
2C5
100
AcDbEntity
  8
0
100
AcDbCircle
 62
7
  6
BYLAYER
 10
25.547898377
 20
38.458068321
 40
0.2
100
AcDbArc
 50
253.3117871704
 51
312.5000000006
  0
ARC
  5
2C6
100
AcDbEntity
  8
0
100
AcDbCircle
 62
7
  6
BYLAYER
 10
25.1551950454
 20
38.5632928616
 40
0.2
100
AcDbArc
 50
197.4999999994
 51
256.6882128299
  0
ARC
  5
2C7
100
AcDbEntity
  8
0
100
AcDbCircle
 62
7
  6
BYLAYER
 10
24.6065507058
 20
38.9731665881
 40
0.2
100
AcDbArc
 50
17.4999999999
 51
81.6942451525
  0
ARC
  5
2C8
100
AcDbEntity
  8
0
100
AcDbCircle
 62
7
  6
BYLAYER
 10
24.4057815291
 20
38.9995983516
 40
0.2
100
AcDbArc
 50
83.3057548474
 51
147.5000000005
  0
ARC
  5
2C9
100
AcDbEntity
  8
0
100
AcDbCircle
 62
7
  6
BYLAYER
 10
23.7697486656
 20
38.7456903378
 40
0.2
100
AcDbArc
 50
268.3117871701
 51
327.5000000001
  0
ARC
  5
2CA
100
AcDbEntity
  8
0
100
AcDbCircle
 62
7
  6
BYLAYER
 10
33.5539626407
 20
31.3486853376
 40
2.0
100
AcDbArc
 50
177.1337531942
 51
270.0
  0
ARC
  5
2CB
100
AcDbEntity
  8
0
100
AcDbCircle
 62
7
  6
BYLAYER
 10
30.490161675
 20
26.0986853376
 40
1.0
100
AcDbArc
 50
90.0
 51
140.2559683357
  0
ARC
  5
2CC
100
AcDbEntity
  8
0
100
AcDbCircle
 62
7
  6
BYLAYER
 10
37.566470463
 20
30.3486853376
 40
1.0
100
AcDbArc
 50
270.0
 51
360.0
  0
ARC
  5
2CD
100
AcDbEntity
  8
0
100
AcDbCircle
 62
7
  6
BYLAYER
 10
38.266470463
 20
26.7986853376
 40
0.3
100
AcDbArc
 50
0.0
 51
79.6529867481
  0
ARC
  5
2CE
100
AcDbEntity
  8
0
100
AcDbCircle
 62
7
  6
BYLAYER
 10
33.5539626407
 20
32.3486853376
 40
2.0
100
AcDbArc
 50
90.0
 51
182.86701491
  0
ARC
  5
2CF
100
AcDbEntity
  8
0
100
AcDbCircle
 62
7
  6
BYLAYER
 10
30.490161675
 20
37.5986853376
 40
1.0
100
AcDbArc
 50
219.5869724162
 51
270.0
  0
ARC
  5
2D0
100
AcDbEntity
  8
0
100
AcDbCircle
 62
7
  6
BYLAYER
 10
37.566470463
 20
33.3486853376
 40
1.0
100
AcDbArc
 50
0.0
 51
90.0
  0
ARC
  5
2D1
100
AcDbEntity
  8
0
100
AcDbCircle
 62
7
  6
BYLAYER
 10
38.266470463
 20
36.8986853376
 40
0.3
100
AcDbArc
 50
270.0
 51
360.0
  0
SPLINE
  5
2D2
100
AcDbEntity
  8
0
100
AcDbSpline
 62
7
  6
BYLAYER
 70
0
 71
3
 72
18
 73
14
 74
0
 42
0.0000001
 43
0.0000001
 44
0.0000000001
 40
0.0
 40
0.0
 40
0.0
 40
0.0
 40
0.1291892542
 40
0.1936826148
 40
0.2579126552
 40
0.3852898007
 40
0.511121528
 40
0.5734721945
 40
0.6354006599
 40
0.6969266909
 40
0.7580795975
 40
0.8793905759
 40
1.0
 40
1.0
 40
1.0
 40
1.0
 10
6.3653616223
 20
25.3986853376
 30
0.0
 10
6.3653616223
 20
25.3170620224
 30
0.0
 10
6.3766188293
 20
25.1943038496
 30
0.0
 10
6.4136943447
 20
25.0354538214
 30
0.0
 10
6.4649303746
 20
24.8817514639
 30
0.0
 10
6.5547416241
 20
24.7010256544
 30
0.0
 10
6.6765243035
 20
24.5414852649
 30
0.0
 10
6.7899460962
 20
24.4311391568
 30
0.0
 10
6.8819608991
 20
24.3579146566
 30
0.0
 10
6.9802212361
 20
24.2946921638
 30
0.0
 10
7.1178710222
 20
24.224785676
 30
0.0
 10
7.3012651591
 20
24.1649057943
 30
0.0
 10
7.4545671518
 20
24.1486853376
 30
0.0
 10
7.5307696278
 20
24.1486853376
 30
0.0
  0
SPLINE
  5
2D3
100
AcDbEntity
  8
0
100
AcDbSpline
 62
7
  6
BYLAYER
 70
0
 71
3
 72
18
 73
14
 74
0
 42
0.0000001
 43
0.0000001
 44
0.0000000001
 40
0.0
 40
0.0
 40
0.0
 40
0.0
 40
0.1206094241
 40
0.2419204025
 40
0.3030733091
 40
0.3645993401
 40
0.4265278055
 40
0.488878472
 40
0.6147101993
 40
0.7420873448
 40
0.8063173852
 40
0.8708107458
 40
1.0
 40
1.0
 40
1.0
 40
1.0
 10
7.5307696278
 20
39.5486853376
 30
0.0
 10
7.4545671518
 20
39.5486853376
 30
0.0
 10
7.3012651591
 20
39.5324648809
 30
0.0
 10
7.1178710222
 20
39.4725849991
 30
0.0
 10
6.9802212361
 20
39.4026785114
 30
0.0
 10
6.8819608991
 20
39.3394560185
 30
0.0
 10
6.7899460962
 20
39.2662315183
 30
0.0
 10
6.6765243035
 20
39.1558854103
 30
0.0
 10
6.5547416241
 20
38.9963450207
 30
0.0
 10
6.4649303746
 20
38.8156192113
 30
0.0
 10
6.4136943447
 20
38.6619168537
 30
0.0
 10
6.3766188293
 20
38.5030668256
 30
0.0
 10
6.3653616223
 20
38.3803086527
 30
0.0
 10
6.3653616223
 20
38.2986853376
 30
0.0
  0
SPLINE
  5
2D4
100
AcDbEntity
  8
0
100
AcDbSpline
 62
7
  6
BYLAYER
 70
0
 71
3
 72
14
 73
10
 74
0
 42
0.0000001
 43
0.0000001
 44
0.0000000001
 40
0.0
 40
0.0
 40
0.0
 40
0.0
 40
0.1207086252
 40
0.2423123719
 40
0.3650104511
 40
0.4893185381
 40
0.6153302267
 40
0.7428924889
 40
1.0
 40
1.0
 40
1.0
 40
1.0
 10
7.5307696278
 20
25.1486853376
 30
0.0
 10
7.5155402652
 20
25.1486853376
 30
0.0
 10
7.4848762543
 20
25.1519544468
 30
0.0
 10
7.4407852117
 20
25.1663089244
 30
0.0
 10
7.4001827436
 20
25.189660015
 30
0.0
 10
7.364686469
 20
25.2210202495
 30
0.0
 10
7.3355627795
 20
25.25916521
 30
0.0
 10
7.3067235925
 20
25.3170872531
 30
0.0
 10
7.2976880267
 20
25.36624703
 30
0.0
 10
7.2976880267
 20
25.3986853376
 30
0.0
  0
SPLINE
  5
2D5
100
AcDbEntity
  8
0
100
AcDbSpline
 62
7
  6
BYLAYER
 70
0
 71
3
 72
14
 73
10
 74
0
 42
0.0000001
 43
0.0000001
 44
0.0000000001
 40
0.0
 40
0.0
 40
0.0
 40
0.0
 40
0.257107756
 40
0.3846700892
 40
0.5106817714
 40
0.6349898559
 40
0.7576878596
 40
0.8792914482
 40
1.0
 40
1.0
 40
1.0
 40
1.0
 10
7.2976880267
 20
38.2986853376
 30
0.0
 10
7.2976880267
 20
38.3311236762
 30
0.0
 10
7.3067236081
 20
38.3802834952
 30
0.0
 10
7.3355628396
 20
38.4382055607
 30
0.0
 10
7.3646865513
 20
38.4763505136
 30
0.0
 10
7.4001828323
 20
38.5077107265
 30
0.0
 10
7.4407852877
 20
38.5310617753
 30
0.0
 10
7.48487629
 20
38.5454162519
 30
0.0
 10
7.5155402744
 20
38.5486853376
 30
0.0
 10
7.5307696278
 20
38.5486853376
 30
0.0
  0
SPLINE
  5
2D6
100
AcDbEntity
  8
0
100
AcDbSpline
 62
7
  6
BYLAYER
 70
0
 71
3
 72
14
 73
10
 74
0
 42
0.0000001
 43
0.0000001
 44
0.0000000001
 40
0.0
 40
0.0
 40
0.0
 40
0.0
 40
0.3394715553
 40
0.4863431549
 40
0.6168600948
 40
0.7313199538
 40
0.8310306721
 40
0.9189733456
 40
1.0
 40
1.0
 40
1.0
 40
1.0
 10
33.1347451967
 20
36.5994254461
 30
0.0
 10
33.1269997495
 20
36.6278529973
 30
0.0
 10
33.1136886713
 20
36.6681218248
 30
0.0
 10
33.0903990483
 20
36.716407683
 30
0.0
 10
33.0724214115
 20
36.7453715599
 30
0.0
 10
33.0533144514
 20
36.7685425734
 30
0.0
 10
33.0331434031
 20
36.7855875213
 30
0.0
 10
33.012079807
 20
36.796188055
 30
0.0
 10
32.9973348931
 20
36.7986853376
 30
0.0
 10
32.9903023273
 20
36.7986853376
 30
0.0
  0
SPLINE
  5
2D7
100
AcDbEntity
  8
0
100
AcDbSpline
 62
7
  6
BYLAYER
 70
0
 71
3
 72
14
 73
10
 74
0
 42
0.0000001
 43
0.0000001
 44
0.0000000001
 40
0.0
 40
0.0
 40
0.0
 40
0.0
 40
0.0810269172
 40
0.1689698502
 40
0.2686807268
 40
0.3831406428
 40
0.5136575143
 40
0.6605288797
 40
1.0
 40
1.0
 40
1.0
 40
1.0
 10
32.9903023273
 20
26.8986853376
 30
0.0
 10
32.9973348386
 20
26.8986853376
 30
0.0
 10
33.0120796347
 20
26.9011825921
 30
0.0
 10
33.0331430752
 20
26.9117829795
 30
0.0
 10
33.0533140159
 20
26.9288276673
 30
0.0
 10
33.0724208638
 20
26.9519983646
 30
0.0
 10
33.0903984009
 20
26.980961836
 30
0.0
 10
33.1136879428
 20
27.0292470086
 30
0.0
 10
33.1269989808
 20
27.069515298
 30
0.0
 10
33.1347444418
 20
27.0979424706
 30
0.0
  0
SPLINE
  5
2D8
100
AcDbEntity
  8
0
100
AcDbSpline
 62
7
  6
BYLAYER
 70
0
 71
3
 72
11
 73
7
 74
0
 42
0.0000001
 43
0.0000001
 44
0.0000000001
 40
0.0
 40
0.0
 40
0.0
 40
0.0
 40
0.2489538295
 40
0.4972345789
 40
0.7473452656
 40
1.0
 40
1.0
 40
1.0
 40
1.0
 10
38.918211698
 20
36.5986853376
 30
0.0
 10
38.9504423212
 20
36.5986853376
 30
0.0
 10
39.0150174538
 20
36.6072021247
 30
0.0
 10
39.1064042403
 20
36.640665787
 30
0.0
 10
39.190932387
 20
36.6894526059
 30
0.0
 10
39.2428163139
 20
36.7289804459
 30
0.0
 10
39.2679396898
 20
36.749926669
 30
0.0
  0
SPLINE
  5
2D9
100
AcDbEntity
  8
0
100
AcDbSpline
 62
7
  6
BYLAYER
 70
0
 71
3
 72
9
 73
5
 74
0
 42
0.0000001
 43
0.0000001
 44
0.0000000001
 40
0.0
 40
0.0
 40
0.0
 40
0.0
 40
0.750473765
 40
1.0
 40
1.0
 40
1.0
 40
1.0
 10
39.2679396898
 20
36.749926669
 30
0.0
 10
39.3093197895
 20
36.7844267446
 30
0.0
 10
39.3611382357
 20
36.8343412102
 30
0.0
 10
39.4111684572
 20
36.8858009973
 30
0.0
 10
39.4236133201
 20
36.8986853376
 30
0.0
  0
SPLINE
  5
2DA
100
AcDbEntity
  8
0
100
AcDbSpline
 62
7
  6
BYLAYER
 70
0
 71
3
 72
13
 73
9
 74
0
 42
0.0000001
 43
0.0000001
 44
0.0000000001
 40
0.0
 40
0.0
 40
0.0
 40
0.0
 40
0.2526647569
 40
0.5043421859
 40
0.6289004422
 40
0.7525895208
 40
0.876099606
 40
1.0
 40
1.0
 40
1.0
 40
1.0
 10
39.4236133201
 20
26.7986853376
 30
0.0
 10
39.3882781145
 20
26.8352683693
 30
0.0
 10
39.3170669828
 20
26.9076439395
 30
0.0
 10
39.2193714975
 20
26.9889870072
 30
0.0
 10
39.1334566681
 20
27.0417601759
 30
0.0
 10
39.065180089
 20
27.0729697934
 30
0.0
 10
38.9930597592
 20
27.0935889472
 30
0.0
 10
38.9431529021
 20
27.0986853376
 30
0.0
 10
38.918211698
 20
27.0986853376
 30
0.0
  0
ENDSEC
  0
SECTION
  2
OBJECTS
  0
DICTIONARY
  5
C
100
AcDbDictionary
280
0
281
1
  3
ACAD_GROUP
350
D
  3
ACAD_MLINESTYLE
350
17
  3
ACAD_LAYOUT
350
1A
  3
ACAD_PLOTSETTINGS
350
19
  3
ACAD_PLOTSTYLENAME
350
E
  0
DICTIONARY
  5
D
102
{ACAD_REACTORS
330
C
102
}
100
AcDbDictionary
280
0
281
1
  0
ACDBDICTIONARYWDFLT
  5
E
102
{ACAD_REACTORS
330
C
102
}
100
AcDbDictionary
281
1
  3
Normal
350
F
100
AcDbDictionaryWithDefault
340
F
  0
DICTIONARY
  5
17
102
{ACAD_REACTORS
330
C
102
}
100
AcDbDictionary
280
0
281
1
  3
Standard
350
18
  0
DICTIONARY
  5
19
102
{ACAD_REACTORS
330
C
102
}
100
AcDbDictionary
281
1
  0
DICTIONARY
  5
1A
102
{ACAD_REACTORS
330
C
102
}
100
AcDbDictionary
281
1
  3
Model
350
2DB
  3
Layout1
350
2DC
  0
ACDBPLACEHOLDER
  5
F
102
{ACAD_REACTORS
330
E
102
}
  0
MLINESTYLE
  5
18
102
{ACAD_REACTORS
330
17
102
}
100
AcDbMlineStyle
  2
STANDARD
 70
0
  3

 62
256
 51
90.0
 52
90.0
 71
2
 49
0.5
 62
256
  6
BYLAYER
 49
-0.5
 62
256
  6
BYLAYER
  0
LAYOUT
  5
2DB
102
{ACAD_REACTORS
330
1A
102
}
100
AcDbPlotSettings
  1

  2
none_device
  4

  6

 40
0.0
 41
0.0
 42
0.0
 43
0.0
 44
210.0
 45
297.0
 46
0.0
 47
0.0
 48
0.0
 49
0.0
140
0.0
141
0.0
142
1.0
143
1.0
 70
1024
 72
1
 73
0
 74
0
  7

 75
0
147
1.0
148
0.0
149
0.0
100
AcDbLayout
  1
Model
 70
0
 71
0
 10
0.0
 20
0.0
 11
210.0
 21
297.0
 12
0.0
 22
0.0
 32
0.0
 14
0.0
 24
0.0
 34
0.0
 15
0.0
 25
0.0
 35
0.0
146
0.0
 13
0.0
 23
0.0
 33
0.0
 16
1.0
 26
0.0
 36
0.0
 17
0.0
 27
1.0
 37
0.0
 76
0
330
210
345
0
346
0
  0
LAYOUT
  5
2DC
102
{ACAD_REACTORS
330
1A
102
}
100
AcDbPlotSettings
  1

  2
none_device
  4

  6

 40
0.0
 41
0.0
 42
0.0
 43
0.0
 44
210.0
 45
297.0
 46
0.0
 47
0.0
 48
0.0
 49
0.0
140
0.0
141
0.0
142
1.0
143
1.0
 70
0
 72
1
 73
0
 74
0
  7

 75
0
147
1.0
148
0.0
149
0.0
100
AcDbLayout
  1
Layout1
 70
0
 71
1
 10
0.0
 20
0.0
 11
210.0
 21
297.0
 12
0.0
 22
0.0
 32
0.0
 14
0.0
 24
0.0
 34
0.0
 15
0.0
 25
0.0
 35
0.0
146
0.0
 13
0.0
 23
0.0
 33
0.0
 16
1.0
 26
0.0
 36
0.0
 17
0.0
 27
1.0
 37
0.0
 76
0
330
211
345
0
346
0
  0
ENDSEC
  0
EOF
