999
DXF file: C:\Users\sesa63760\Dev\_Creo\CAD\MCADID0004806_3D-CAD\drw0001_1.dxf
999
Pro/ENGINEER 2019471 by Parametric Technology Corporation
  0
SECTION
  2
HEADER
  9
$ACADVER
  1
AC1024
  9
$DWGCODEPAGE
  3
ANSI_1252
  9
$EXTMAX
 10
115.517855899
 20
163.3752533428
 30
0.0
  9
$EXTMIN
 10
0.0
 20
0.0
 30
0.0
  9
$LIMMIN
 10
0.0
 20
0.0
  9
$LIMMAX
 10
115.517855899
 20
163.3752533428
  9
$VIEWCTR
 10
57.7589279495
 20
81.6876266714
  9
$VIEWSIZE
 40
163.3752533428
  9
$CLAYER
  8
0
  9
$LTSCALE
 40
10.6496461438
  9
$CELTYPE
  6
BYLAYER
  9
$DIMSCALE
 40
1.0
  9
$DIMASZ
 40
1.3752125702
  9
$DIMEXO
 40
1.0
  9
$DIMDLI
 40
7.3579373357
  9
$DIMEXE
 40
1.0
  9
$DIMCEN
 40
1.742669369
  9
$DIMLFAC
 40
1.0
  9
$DIMBLK
  1
_FILLED
  9
$DIMALT
 70
0
  9
$DIMALTF
 40
0.0393700787
  9
$DIMTXT
 40
1.9252975983
  9
$DIMTOL
 70
1
  9
$DIMLIM
 70
0
  9
$DIMTFAC
 40
1.0
  9
$DIMTP
 40
0.01
  9
$DIMTM
 40
0.01
  9
$DIMGAP
 40
0.625
  9
$DIMDSEP
 70
46
  9
$AUNITS
 70
0
  9
$PDMODE
 70
3
  9
$PDSIZE
 40
0.3125
  9
$HANDSEED
  5
26D
  9
$TILEMODE
 70
1
  9
$MEASUREMENT
 70
1
  9
$INSUNITS
 70
4
  0
ENDSEC
  0
SECTION
  2
CLASSES
  0
CLASS
  1
ACDBDICTIONARYWDFLT
  2
AcDbDictionaryWithDefault
  3
AutoCAD 2000
 90
0
 91
1
280
0
281
0
  0
CLASS
  1
ACDBPLACEHOLDER
  2
AcDbPlaceHolder
  3
AutoCAD 2000
 90
0
 91
1
280
0
281
0
  0
CLASS
  1
LAYOUT
  2
AcDbLayout
  3
AutoCAD 2000
 90
0
 91
0
280
0
281
0
  0
ENDSEC
  0
SECTION
  2
TABLES
  0
TABLE
  2
VPORT
  5
8
100
AcDbSymbolTable
 70
2
  0
VPORT
  5
1F4
100
AcDbSymbolTableRecord
100
AcDbViewportTableRecord
  2
*ACTIVE
 70
0
 10
0.0
 20
0.0
 11
1.0
 21
1.0
 12
57.7589279495
 22
81.6876266714
 13
0.0
 23
0.0
 14
1.0
 24
1.0
 15
0.0
 25
0.0
 16
0.0
 26
0.0
 36
1.0
 17
0.0
 27
0.0
 37
0.0
 40
163.3752533428
 41
0.7070707071
 42
50.0
 43
0.0
 44
0.0
 50
0.0
 51
0.0
 71
0
 72
100
 73
1
 74
1
 75
0
 76
0
 77
0
 78
0
  0
ENDTAB
  0
TABLE
  2
LTYPE
  5
5
100
AcDbSymbolTable
 70
6
  0
LTYPE
  5
14
100
AcDbSymbolTableRecord
100
AcDbLinetypeTableRecord
  2
BYBLOCK
 70
0
  3

 72
65
 73
0
 40
0.0
  0
LTYPE
  5
15
100
AcDbSymbolTableRecord
100
AcDbLinetypeTableRecord
  2
BYLAYER
 70
0
  3

 72
65
 73
0
 40
0.0
  0
LTYPE
  5
16
100
AcDbSymbolTableRecord
100
AcDbLinetypeTableRecord
  2
CONTINUOUS
 70
64
  3
Solid line
 72
65
 73
0
 40
0.0
  0
LTYPE
  5
1F5
100
AcDbSymbolTableRecord
100
AcDbLinetypeTableRecord
  2
CENTER
 70
64
  3
____ _ ____ _ ____ _ ____ _ ____ _ ____ _ ____
 72
65
 73
4
 40
0.6
 49
0.375
 74
0
 49
-0.075
 74
0
 49
0.075
 74
0
 49
-0.075
 74
0
  0
LTYPE
  5
1F6
100
AcDbSymbolTableRecord
100
AcDbLinetypeTableRecord
  2
HIDDEN
 70
64
  3
- - - - - - - - - - - - - - - - - - - -
 72
65
 73
2
 40
0.2
 49
0.1
 74
0
 49
-0.1
 74
0
  0
LTYPE
  5
1F7
100
AcDbSymbolTableRecord
100
AcDbLinetypeTableRecord
  2
PHANTOM
 70
64
  3
_____ _ _ _____ _ _ _____ _ _ _____
 72
65
 73
6
 40
0.8
 49
0.45
 74
0
 49
-0.05
 74
0
 49
0.1
 74
0
 49
-0.05
 74
0
 49
0.1
 74
0
 49
-0.05
 74
0
  0
LTYPE
  5
1F8
100
AcDbSymbolTableRecord
100
AcDbLinetypeTableRecord
  2
DOT
 70
64
  3
. . . . . . . . . . . . . . . . . . . .
 72
65
 73
2
 40
0.2
 49
0.1
 74
0
 49
-0.1
 74
0
  0
LTYPE
  5
1F9
100
AcDbSymbolTableRecord
100
AcDbLinetypeTableRecord
  2
DASHED
 70
64
  3
- - - - - - - - - - - - - - - - - - - -
 72
65
 73
2
 40
0.2
 49
0.1
 74
0
 49
-0.1
 74
0
  0
ENDTAB
  0
TABLE
  2
LAYER
  5
2
100
AcDbSymbolTable
 70
36
  0
LAYER
  5
10
100
AcDbSymbolTableRecord
100
AcDbLayerTableRecord
  2
0
 70
0
 62
7
  6
CONTINUOUS
370
-3
390
F
  0
LAYER
  5
1FA
100
AcDbSymbolTableRecord
100
AcDbLayerTableRecord
  2
DEFAULT_1
 70
0
 62
7
  6
CENTER
370
-3
390
F
  0
LAYER
  5
1FB
100
AcDbSymbolTableRecord
100
AcDbLayerTableRecord
  2
DEFAULT_2
 70
0
 62
7
  6
HIDDEN
370
-3
390
F
  0
LAYER
  5
1FC
100
AcDbSymbolTableRecord
100
AcDbLayerTableRecord
  2
DEFAULT_3
 70
0
 62
7
  6
PHANTOM
370
-3
390
F
  0
LAYER
  5
1FD
100
AcDbSymbolTableRecord
100
AcDbLayerTableRecord
  2
00_COMPONENTS
 70
0
 62
7
  6
CONTINUOUS
370
-3
390
F
  0
LAYER
  5
1FE
100
AcDbSymbolTableRecord
100
AcDbLayerTableRecord
  2
01_1_DEFAULT_DATUMS
 70
0
 62
7
  6
CONTINUOUS
370
-3
390
F
  0
LAYER
  5
1FF
100
AcDbSymbolTableRecord
100
AcDbLayerTableRecord
  2
01_PLANES
 70
0
 62
7
  6
CONTINUOUS
370
-3
390
F
  0
LAYER
  5
200
100
AcDbSymbolTableRecord
100
AcDbLayerTableRecord
  2
02_COORD_SYS
 70
0
 62
7
  6
CONTINUOUS
370
-3
390
F
  0
LAYER
  5
201
100
AcDbSymbolTableRecord
100
AcDbLayerTableRecord
  2
03_AXES
 70
0
 62
7
  6
CONTINUOUS
370
-3
390
F
  0
LAYER
  5
202
100
AcDbSymbolTableRecord
100
AcDbLayerTableRecord
  2
04_POINTS
 70
0
 62
7
  6
CONTINUOUS
370
-3
390
F
  0
LAYER
  5
203
100
AcDbSymbolTableRecord
100
AcDbLayerTableRecord
  2
05_CURVES
 70
0
 62
7
  6
CONTINUOUS
370
-3
390
F
  0
LAYER
  5
204
100
AcDbSymbolTableRecord
100
AcDbLayerTableRecord
  2
06_SURFS
 70
0
 62
7
  6
CONTINUOUS
370
-3
390
F
  0
LAYER
  5
205
100
AcDbSymbolTableRecord
100
AcDbLayerTableRecord
  2
07_COSMETICS
 70
0
 62
7
  6
CONTINUOUS
370
-3
390
F
  0
LAYER
  5
206
100
AcDbSymbolTableRecord
100
AcDbLayerTableRecord
  2
10_NOTES
 70
0
 62
7
  6
CONTINUOUS
370
-3
390
F
  0
LAYER
  5
207
100
AcDbSymbolTableRecord
100
AcDbLayerTableRecord
  2
11_NOTES_PUB
 70
0
 62
7
  6
CONTINUOUS
370
-3
390
F
  0
LAYER
  5
208
100
AcDbSymbolTableRecord
100
AcDbLayerTableRecord
  2
13_REF_GTOL
 70
0
 62
7
  6
CONTINUOUS
370
-3
390
F
  0
LAYER
  5
209
100
AcDbSymbolTableRecord
100
AcDbLayerTableRecord
  2
16_MISC
 70
0
 62
7
  6
CONTINUOUS
370
-3
390
F
  0
LAYER
  5
20A
100
AcDbSymbolTableRecord
100
AcDbLayerTableRecord
  2
17_NO_PRINT
 70
0
 62
7
  6
CONTINUOUS
370
-3
390
F
  0
LAYER
  5
20B
100
AcDbSymbolTableRecord
100
AcDbLayerTableRecord
  2
18_DATUM_CAMS_JOINTS
 70
0
 62
7
  6
CONTINUOUS
370
-3
390
F
  0
LAYER
  5
20C
100
AcDbSymbolTableRecord
100
AcDbLayerTableRecord
  2
19_DATUM_FUNCTIONAL
 70
0
 62
7
  6
CONTINUOUS
370
-3
390
F
  0
LAYER
  5
20D
100
AcDbSymbolTableRecord
100
AcDbLayerTableRecord
  2
20_DATUM_KINEMATIC_SCHEME
 70
0
 62
7
  6
CONTINUOUS
370
-3
390
F
  0
ENDTAB
  0
TABLE
  2
STYLE
  5
3
100
AcDbSymbolTable
 70
1
  0
STYLE
  5
11
100
AcDbSymbolTableRecord
100
AcDbTextStyleTableRecord
  2
STANDARD
 70
0
 40
0.0
 41
1.0
 50
0.0
 71
0
 42
0.2
  3
ARIAL.TTF
  4

  0
STYLE
  5
20E
100
AcDbSymbolTableRecord
100
AcDbTextStyleTableRecord
  2
TEXTSTYLE_1
 70
0
 40
0.0
 41
0.8
 50
0.0
 71
0
 42
0.2
  3
gdt
  4

  0
ENDTAB
  0
TABLE
  2
VIEW
  5
6
100
AcDbSymbolTable
 70
0
  0
ENDTAB
  0
TABLE
  2
UCS
  5
7
100
AcDbSymbolTable
 70
0
  0
ENDTAB
  0
TABLE
  2
APPID
  5
9
100
AcDbSymbolTable
 70
1
  0
APPID
  5
20F
100
AcDbSymbolTableRecord
100
AcDbRegAppTableRecord
  2
ACAD
 70
0
  0
ENDTAB
  0
TABLE
  2
BLOCK_RECORD
  5
1
100
AcDbSymbolTable
 70
0
  0
BLOCK_RECORD
  5
210
100
AcDbSymbolTableRecord
100
AcDbBlockTableRecord
  2
*Model_Space
  0
BLOCK_RECORD
  5
211
100
AcDbSymbolTableRecord
100
AcDbBlockTableRecord
  2
*Paper_Space
  0
BLOCK_RECORD
  5
212
100
AcDbSymbolTableRecord
100
AcDbBlockTableRecord
  2
_FILLED
  0
ENDTAB
  0
TABLE
  2
DIMSTYLE
  5
A
100
AcDbSymbolTable
 70
1
100
AcDbDimStyleTable
 71
0
  0
DIMSTYLE
105
213
100
AcDbSymbolTableRecord
100
AcDbDimStyleTableRecord
  2
STANDARD
 70
0
  3

  4

 40
1.0
 41
1.3752125702
 42
1.0
 43
0.38
 44
1.0
 45
0.0
 46
0.0
 47
0.01
 48
0.01
140
1.9252975983
141
0.09
142
0.0
143
25.4
144
1.0
145
0.0
146
1.0
147
0.625
 71
1
 72
0
 73
0
 74
0
 75
0
 76
0
 77
1
 78
8
 79
2
170
0
171
1
172
0
173
0
174
0
175
0
176
0
177
0
178
0
270
2
179
2
271
2
272
2
273
2
274
2
275
0
280
0
281
0
282
0
283
1
284
8
285
0
286
0
287
3
288
0
340
11
278
46
341
212
342
212
343
212
344
212
  0
ENDTAB
  0
ENDSEC
  0
SECTION
  2
BLOCKS
  0
BLOCK
  5
20
100
AcDbEntity
  8
0
100
AcDbBlockBegin
  2
*Model_Space
 70
0
 10
0.0
 20
0.0
 30
0.0
  3
*Model_Space
  1

  0
ENDBLK
  5
21
100
AcDbEntity
  8
0
100
AcDbBlockEnd
  0
BLOCK
  5
1C
100
AcDbEntity
  8
0
100
AcDbBlockBegin
  2
*Paper_Space
 70
0
 10
0.0
 20
0.0
 30
0.0
  3
*Paper_Space
  1

  0
ENDBLK
  5
1D
100
AcDbEntity
  8
0
100
AcDbBlockEnd
  0
BLOCK
  5
214
100
AcDbEntity
  8
0
100
AcDbBlockBegin
  2
_FILLED
 70
64
 10
0.0
 20
0.0
  3
_FILLED
  1

  0
SOLID
  5
215
100
AcDbEntity
  8
0
  6
BYBLOCK
 62
0
100
AcDbTrace
 10
0.0
 20
0.0
 11
-1.0
 21
0.25
 12
-1.0
 22
-0.25
 13
-1.0
 23
-0.25
  0
ENDBLK
  5
216
100
AcDbEntity
  8
0
  6
BYBLOCK
 62
0
100
AcDbBlockEnd
  0
ENDSEC
  0
SECTION
  2
ENTITIES
  0
LINE
  5
217
100
AcDbEntity
  8
0
100
AcDbLine
 62
7
  6
BYLAYER
 10
34.410447262
 20
73.6404012691
 11
34.410447262
 21
70.0477906338
  0
LINE
  5
218
100
AcDbEntity
  8
0
100
AcDbLine
 62
7
  6
BYLAYER
 10
34.410447262
 20
66.1566756137
 11
34.410447262
 21
64.3730988347
  0
LINE
  5
219
100
AcDbEntity
  8
0
100
AcDbLine
 62
7
  6
BYLAYER
 10
36.449194121
 20
73.1935018529
 11
36.449194121
 21
74.0872636143
  0
LINE
  5
21A
100
AcDbEntity
  8
0
100
AcDbLine
 62
7
  6
BYLAYER
 10
38.160467685
 20
70.8083197564
 11
38.1604576093
 21
72.2055294893
  0
LINE
  5
21B
100
AcDbEntity
  8
0
100
AcDbLine
 62
7
  6
BYLAYER
 10
38.1604369148
 20
73.0339881617
 11
38.1604268391
 21
76.4724539374
  0
LINE
  5
21C
100
AcDbEntity
  8
0
100
AcDbLine
 62
7
  6
BYLAYER
 10
39.2550680641
 20
75.0631855281
 11
39.2550680641
 21
77.1044415709
  0
LINE
  5
21D
100
AcDbEntity
  8
0
100
AcDbLine
 62
7
  6
BYLAYER
 10
41.4984462341
 20
64.6325733358
 11
41.4984462341
 21
63.4078197101
  0
LINE
  5
21E
100
AcDbEntity
  8
0
100
AcDbLine
 62
7
  6
BYLAYER
 10
43.3864479113
 20
69.1883708389
 11
41.6751908682
 21
70.1763432025
  0
LINE
  5
21F
100
AcDbEntity
  8
0
100
AcDbLine
 62
7
  6
BYLAYER
 10
38.1604576093
 20
72.2055294893
 11
36.4492005662
 21
73.1935018529
  0
LINE
  5
220
100
AcDbEntity
  8
0
100
AcDbLine
 62
7
  6
BYLAYER
 10
41.6751409074
 20
75.0631913452
 11
41.6751409074
 21
77.104447388
  0
LINE
  5
221
100
AcDbEntity
  8
0
100
AcDbLine
 62
7
  6
BYLAYER
 10
43.3863837013
 20
78.0924279783
 11
43.3863837013
 21
76.0511719354
  0
LINE
  5
222
100
AcDbEntity
  8
0
100
AcDbLine
 62
7
  6
BYLAYER
 10
44.9344466127
 20
76.0511756565
 11
44.9344466127
 21
78.0924316993
  0
LINE
  5
223
100
AcDbEntity
  8
0
100
AcDbLine
 62
7
  6
BYLAYER
 10
46.6457036558
 20
75.063203293
 11
46.6457036558
 21
77.1044593358
  0
LINE
  5
224
100
AcDbEntity
  8
0
100
AcDbLine
 62
7
  6
BYLAYER
 10
49.0658264599
 20
70.1763609674
 11
46.6457536166
 21
70.1763551503
  0
LINE
  5
225
100
AcDbEntity
  8
0
100
AcDbLine
 62
7
  6
BYLAYER
 10
41.6751908682
 20
70.1763432025
 11
39.2551180248
 21
70.1763373854
  0
LINE
  5
226
100
AcDbEntity
  8
0
100
AcDbLine
 62
7
  6
BYLAYER
 10
44.9344466127
 20
76.0511756565
 11
46.6457036558
 21
75.063203293
  0
LINE
  5
227
100
AcDbEntity
  8
0
100
AcDbLine
 62
7
  6
BYLAYER
 10
50.1604369147
 20
73.0340170061
 11
50.8779237752
 21
72.6197851453
  0
LINE
  5
228
100
AcDbEntity
  8
0
100
AcDbLine
 62
7
  6
BYLAYER
 10
44.9344466127
 20
78.0924316993
 11
46.6457036558
 21
77.1044593358
  0
LINE
  5
229
100
AcDbEntity
  8
0
100
AcDbLine
 62
7
  6
BYLAYER
 10
50.1604369147
 20
75.0752730489
 11
51.8716939578
 21
74.0873006854
  0
LINE
  5
22A
100
AcDbEntity
  8
0
100
AcDbLine
 62
7
  6
BYLAYER
 10
49.0657764992
 20
77.1044651529
 11
49.0657764992
 21
75.0632091101
  0
LINE
  5
22B
100
AcDbEntity
  8
0
100
AcDbLine
 62
7
  6
BYLAYER
 10
50.1604576092
 20
72.2055583338
 11
50.1604676849
 21
70.8083486008
  0
LINE
  5
22C
100
AcDbEntity
  8
0
100
AcDbLine
 62
7
  6
BYLAYER
 10
50.1604369147
 20
73.0340170061
 11
50.160426839
 21
76.4724827819
  0
LINE
  5
22D
100
AcDbEntity
  8
0
100
AcDbLine
 62
7
  6
BYLAYER
 10
51.8716939578
 20
74.0873006854
 11
51.8716939578
 21
73.193538924
  0
LINE
  5
22E
100
AcDbEntity
  8
0
100
AcDbLine
 62
7
  6
BYLAYER
 10
49.0657764992
 20
75.0632091101
 11
46.6457036558
 21
75.063203293
  0
LINE
  5
22F
100
AcDbEntity
  8
0
100
AcDbLine
 62
7
  6
BYLAYER
 10
41.6751409074
 20
75.0631913452
 11
39.2550680641
 21
75.0631855281
  0
LINE
  5
230
100
AcDbEntity
  8
0
100
AcDbLine
 62
7
  6
BYLAYER
 10
53.910447262
 20
73.6404012691
 11
53.910447262
 21
64.3730988347
  0
LINE
  5
231
100
AcDbEntity
  8
0
100
AcDbLine
 62
7
  6
BYLAYER
 10
36.449194121
 20
74.0872636143
 11
38.1604369148
 21
75.0752442045
  0
LINE
  5
232
100
AcDbEntity
  8
0
100
AcDbLine
 62
7
  6
BYLAYER
 10
41.6751409074
 20
77.104447388
 11
43.3863837013
 21
78.0924279783
  0
LINE
  5
233
100
AcDbEntity
  8
0
100
AcDbLine
 62
7
  6
BYLAYER
 10
39.2550680641
 20
77.1044415709
 11
41.6751409074
 21
77.104447388
  0
LINE
  5
234
100
AcDbEntity
  8
0
100
AcDbLine
 62
7
  6
BYLAYER
 10
46.6457036558
 20
77.1044593358
 11
49.0657764992
 21
77.1044651529
  0
LINE
  5
235
100
AcDbEntity
  8
0
100
AcDbLine
 62
7
  6
BYLAYER
 10
37.4429707488
 20
72.6197613502
 11
38.1604369148
 21
73.0339881617
  0
LINE
  5
236
100
AcDbEntity
  8
0
100
AcDbLine
 62
7
  6
BYLAYER
 10
41.6751409074
 20
75.0631913452
 11
43.3863837013
 21
76.0511719354
  0
LINE
  5
237
100
AcDbEntity
  8
0
100
AcDbLine
 62
7
  6
BYLAYER
 10
13.712060017
 20
57.6706239445
 11
34.5028874706
 21
69.6741421201
  0
LINE
  5
238
100
AcDbEntity
  8
0
100
AcDbLine
 62
7
  6
BYLAYER
 10
49.4528573998
 20
78.3054597611
 11
102.1000396688
 21
108.7011431784
  0
LINE
  5
239
100
AcDbEntity
  8
0
100
AcDbLine
 62
7
  6
BYLAYER
 10
35.1772319094
 20
66.6348923427
 11
35.9294219544
 21
67.0691668753
  0
LINE
  5
23A
100
AcDbEntity
  8
0
100
AcDbLine
 62
7
  6
BYLAYER
 10
41.6798849123
 20
70.3891783943
 11
44.2955350054
 21
71.8993156653
  0
LINE
  5
23B
100
AcDbEntity
  8
0
100
AcDbLine
 62
7
  6
BYLAYER
 10
15.2120533017
 20
55.0725438561
 11
35.1211015392
 21
66.5669696028
  0
LINE
  5
23C
100
AcDbEntity
  8
0
100
AcDbLine
 62
7
  6
BYLAYER
 10
52.4085611882
 20
76.5478295071
 11
103.6000329534
 21
106.10306309
  0
LINE
  5
23D
100
AcDbEntity
  8
0
100
AcDbLine
 62
7
  6
BYLAYER
 10
51.871700403
 20
73.193538924
 11
50.1604576092
 21
72.2055583338
  0
LINE
  5
23E
100
AcDbEntity
  8
0
100
AcDbLine
 62
7
  6
BYLAYER
 10
46.6457536166
 20
70.1763551503
 11
44.9345108227
 21
69.18837456
  0
ARC
  5
23F
100
AcDbEntity
  8
0
100
AcDbCircle
 62
7
  6
BYLAYER
 10
44.1604473033
 20
62.6775451906
 40
13.3960093599
100
AcDbArc
 50
86.687699756
 51
93.3125756882
  0
ARC
  5
240
100
AcDbEntity
  8
0
100
AcDbCircle
 62
7
  6
BYLAYER
 10
44.1604472208
 20
82.5619975789
 40
13.3960056401
100
AcDbArc
 50
266.6876988352
 51
273.312576609
  0
ARC
  5
241
100
AcDbEntity
  8
0
100
AcDbCircle
 62
7
  6
BYLAYER
 10
44.1604473033
 20
64.7188049594
 40
13.3960056401
100
AcDbArc
 50
86.6876988352
 51
93.312576609
  0
ARC
  5
242
100
AcDbEntity
  8
0
100
AcDbCircle
 62
7
  6
BYLAYER
 10
37.6813455612
 20
70.0484727513
 40
3.2708856627
100
AcDbArc
 50
180.0119485484
 51
187.2279159725
  0
ARC
  5
243
100
AcDbEntity
  8
0
100
AcDbCircle
 62
7
  6
BYLAYER
 10
39.0238857023
 20
73.641899696
 40
2.6134391472
100
AcDbArc
 50
180.0328507904
 51
189.8793392359
  0
ARC
  5
244
100
AcDbEntity
  8
0
100
AcDbCircle
 62
7
  6
BYLAYER
 10
49.2970088217
 20
73.6389028422
 40
2.6134391472
100
AcDbArc
 50
0.0328507904
 51
9.8793392359
  0
ARC
  5
245
100
AcDbEntity
  8
0
100
AcDbCircle
 62
7
  6
BYLAYER
 10
49.310211188
 20
73.6407549893
 40
2.6002363754
100
AcDbArc
 50
350.0964263777
 51
359.992205835
  0
ARC
  5
246
100
AcDbEntity
  8
0
100
AcDbCircle
 62
7
  6
BYLAYER
 10
39.010683336
 20
73.640047549
 40
2.6002363754
100
AcDbArc
 50
170.0964263777
 51
179.992205835
  0
SPLINE
  5
247
100
AcDbEntity
  8
0
100
AcDbSpline
 62
7
  6
BYLAYER
 70
0
 71
3
 72
19
 73
15
 74
0
 42
0.0000001
 43
0.0000001
 44
0.0000000001
 40
0.0
 40
0.0
 40
0.0
 40
0.0
 40
0.0991814497
 40
0.1541630783
 40
0.2125741106
 40
0.2741367534
 40
0.3384402845
 40
0.4730625139
 40
0.6117039715
 40
0.7490191099
 40
0.8155834002
 40
0.8799214277
 40
0.9415504465
 40
1.0
 40
1.0
 40
1.0
 40
1.0
 10
47.1271603498
 20
70.8139429501
 30
0.0
 10
47.0127441937
 20
70.9616224391
 30
0.0
 10
46.7961229656
 20
71.1620502788
 30
0.0
 10
46.460066754
 20
71.3801060988
 30
0.0
 10
46.1658996595
 20
71.5301158449
 30
0.0
 10
45.8429391292
 20
71.6584611828
 30
0.0
 10
45.3728150773
 20
71.8005902747
 30
0.0
 10
44.7441549681
 20
71.9118437048
 30
0.0
 10
43.9690033461
 20
71.9388473699
 30
0.0
 10
43.3248399286
 20
71.872316019
 30
0.0
 10
42.8307583138
 20
71.7649135486
 30
0.0
 10
42.483098237
 20
71.6602605304
 30
0.0
 10
42.159745411
 20
71.5322235151
 30
0.0
 10
41.95768535
 20
71.4296200425
 30
0.0
 10
41.8623406553
 20
71.374573086
 30
0.0
  0
SPLINE
  5
248
100
AcDbEntity
  8
0
100
AcDbSpline
 62
7
  6
BYLAYER
 70
0
 71
3
 72
14
 73
10
 74
0
 42
0.0000001
 43
0.0000001
 44
0.0000000001
 40
0.0
 40
0.0
 40
0.0
 40
0.0
 40
0.1080445285
 40
0.2181258527
 40
0.3321026685
 40
0.4514974728
 40
0.5774434206
 40
0.7107181163
 40
1.0
 40
1.0
 40
1.0
 40
1.0
 10
47.4104380724
 20
71.5991451743
 30
0.0
 10
47.4104438744
 20
71.5376203113
 30
0.0
 10
47.3997503425
 20
71.4131615925
 30
0.0
 10
47.3520746944
 20
71.2293245007
 30
0.0
 10
47.2733350968
 20
71.0494574035
 30
0.0
 10
47.1646044708
 20
70.8753667089
 30
0.0
 10
47.0270332019
 20
70.7086178872
 30
0.0
 10
46.8010074071
 20
70.4922816381
 30
0.0
 10
46.6012132694
 20
70.3547267259
 30
0.0
 10
46.4585538687
 20
70.2723627741
 30
0.0
  0
SPLINE
  5
249
100
AcDbEntity
  8
0
100
AcDbSpline
 62
7
  6
BYLAYER
 70
0
 71
3
 72
9
 73
5
 74
0
 42
0.0000001
 43
0.0000001
 44
0.0000000001
 40
0.0
 40
0.0
 40
0.0
 40
0.0
 40
0.2346192843
 40
1.0
 40
1.0
 40
1.0
 40
1.0
 10
35.0754117479
 20
66.5117250768
 30
0.0
 10
35.0797574076
 20
66.5142329178
 30
0.0
 10
35.0977771442
 20
66.5257931548
 30
0.0
 10
35.1136010087
 20
66.5405841329
 30
0.0
 10
35.1244456531
 20
66.5528437558
 30
0.0
  0
SPLINE
  5
24A
100
AcDbEntity
  8
0
100
AcDbSpline
 62
7
  6
BYLAYER
 70
0
 71
3
 72
9
 73
5
 74
0
 42
0.0000001
 43
0.0000001
 44
0.0000000001
 40
0.0
 40
0.0
 40
0.0
 40
0.0
 40
0.2283985486
 40
1.0
 40
1.0
 40
1.0
 40
1.0
 10
35.1244456531
 20
66.5528437558
 30
0.0
 10
35.1293759855
 20
66.558417384
 30
0.0
 10
35.1498998427
 20
66.5837612068
 30
0.0
 10
35.1663243558
 20
66.612242784
 30
0.0
 10
35.1772319094
 20
66.6348923427
 30
0.0
  0
SPLINE
  5
24B
100
AcDbEntity
  8
0
100
AcDbSpline
 62
7
  6
BYLAYER
 70
0
 71
3
 72
15
 73
11
 74
0
 42
0.0000001
 43
0.0000001
 44
0.0000000001
 40
0.0
 40
0.0
 40
0.0
 40
0.0
 40
0.1080122362
 40
0.2180609456
 40
0.3319978691
 40
0.4513558008
 40
0.5772775707
 40
0.7104934026
 40
0.8514062329
 40
1.0
 40
1.0
 40
1.0
 40
1.0
 10
53.9104437017
 20
64.3730988347
 30
0.0
 10
53.9104436986
 20
64.1885197544
 30
0.0
 10
53.8783822343
 20
63.8151325748
 30
0.0
 10
53.7353075998
 20
63.2636291101
 30
0.0
 10
53.4991527814
 20
62.7240021439
 30
0.0
 10
53.1728947301
 20
62.2017183527
 30
0.0
 10
52.7602018294
 20
61.7015300846
 30
0.0
 10
52.2653328005
 20
61.2278334129
 30
0.0
 10
51.693187326
 20
60.7849730381
 30
0.0
 10
51.2746752665
 20
60.5197147697
 30
0.0
 10
51.0547670822
 20
60.3927514781
 30
0.0
  0
SPLINE
  5
24C
100
AcDbEntity
  8
0
100
AcDbSpline
 62
7
  6
BYLAYER
 70
0
 71
3
 72
26
 73
22
 74
0
 42
0.0000001
 43
0.0000001
 44
0.0000000001
 40
0.0
 40
0.0
 40
0.0
 40
0.0
 40
0.0213307406
 40
0.0428899094
 40
0.064893988
 40
0.0875373247
 40
0.1353098094
 40
0.1607318472
 40
0.1872559748
 40
0.2436909924
 40
0.3046360946
 40
0.369720934
 40
0.4383151653
 40
0.5095983302
 40
0.5826191801
 40
0.6563472555
 40
0.729721068
 40
0.8016940455
 40
0.8712840931
 40
0.9376186392
 40
1.0
 40
1.0
 40
1.0
 40
1.0
 10
53.910439817
 20
73.6404012752
 30
0.0
 10
53.9104444262
 20
73.7787154906
 30
0.0
 10
53.8925812154
 20
74.0571459068
 30
0.0
 10
53.812603479
 20
74.4713191799
 30
0.0
 10
53.6798789583
 20
74.8807146299
 30
0.0
 10
53.429594086
 20
75.4264467724
 30
0.0
 10
53.0774426187
 20
75.9446715892
 30
0.0
 10
52.6439375215
 20
76.4250927109
 30
0.0
 10
52.1296754772
 20
76.9052834746
 30
0.0
 10
51.3733198531
 20
77.4579259149
 30
0.0
 10
50.3314516106
 20
78.0245727781
 30
0.0
 10
49.1585586125
 20
78.4970942011
 30
0.0
 10
47.8794923928
 20
78.8657122602
 30
0.0
 10
46.5212318687
 20
79.1227793137
 30
0.0
 10
45.1126495983
 20
79.2628528416
 30
0.0
 10
43.6837537447
 20
79.28295983
 30
0.0
 10
42.2650234545
 20
79.1826633585
 30
0.0
 10
40.8867200167
 20
78.9641184018
 30
0.0
 10
39.5780995931
 20
78.6318971121
 30
0.0
 10
38.3671237146
 20
78.1931339229
 30
0.0
 10
37.6164329837
 20
77.8229964174
 30
0.0
 10
37.2661274418
 20
77.6207486257
 30
0.0
  0
SPLINE
  5
24D
100
AcDbEntity
  8
0
100
AcDbSpline
 62
7
  6
BYLAYER
 70
0
 71
3
 72
26
 73
22
 74
0
 42
0.0000001
 43
0.0000001
 44
0.0000000001
 40
0.0
 40
0.0
 40
0.0
 40
0.0
 40
0.0623811978
 40
0.1287154975
 40
0.1983053676
 40
0.2702783047
 40
0.3436522619
 40
0.4173805528
 40
0.4904015909
 40
0.5616849445
 40
0.6302793853
 40
0.695364382
 40
0.7563095052
 40
0.8127444169
 40
0.8392684738
 40
0.864690441
 40
0.9124628221
 40
0.9351061248
 40
0.9571101671
 40
0.9786693005
 40
1.0
 40
1.0
 40
1.0
 40
1.0
 10
51.0547670822
 20
60.3927514781
 30
0.0
 10
50.7044624566
 20
60.1905042155
 30
0.0
 10
49.9537742192
 20
59.8203676951
 30
0.0
 10
48.7428020924
 20
59.3816053901
 30
0.0
 10
47.4341848631
 20
59.049383828
 30
0.0
 10
46.0558820487
 20
58.8308379696
 30
0.0
 10
44.6371497529
 20
58.7305404154
 30
0.0
 10
43.2082503237
 20
58.7506468194
 30
0.0
 10
41.7996641903
 20
58.8907204218
 30
0.0
 10
40.4413999264
 20
59.1477882284
 30
0.0
 10
39.1623303494
 20
59.5164077086
 30
0.0
 10
37.9894353216
 20
59.988930865
 30
0.0
 10
36.9475671802
 20
60.5555789317
 30
0.0
 10
36.1912130321
 20
61.1082216586
 30
0.0
 10
35.676952595
 20
61.5884117848
 30
0.0
 10
35.2434491334
 20
62.06883226
 30
0.0
 10
34.8912990966
 20
62.5870563183
 30
0.0
 10
34.641014653
 20
63.1327874449
 30
0.0
 10
34.5082910864
 20
63.5421824538
 30
0.0
 10
34.4283129526
 20
63.956354914
 30
0.0
 10
34.4104504196
 20
64.2347848816
 30
0.0
 10
34.4104549727
 20
64.3730988304
 30
0.0
  0
SPLINE
  5
24E
100
AcDbEntity
  8
0
100
AcDbSpline
 62
7
  6
BYLAYER
 70
0
 71
3
 72
9
 73
5
 74
0
 42
0.0000001
 43
0.0000001
 44
0.0000000001
 40
0.0
 40
0.0
 40
0.0
 40
0.0
 40
0.2451092472
 40
1.0
 40
1.0
 40
1.0
 40
1.0
 10
50.1604676849
 20
70.8083486008
 30
0.0
 10
50.119296117
 20
70.7792739079
 30
0.0
 10
49.9498912923
 20
70.6626908689
 30
0.0
 10
49.7749818417
 20
70.5541505855
 30
0.0
 10
49.6405476319
 20
70.4765354216
 30
0.0
  0
SPLINE
  5
24F
100
AcDbEntity
  8
0
100
AcDbSpline
 62
7
  6
BYLAYER
 70
0
 71
3
 72
14
 73
10
 74
0
 42
0.0000001
 43
0.0000001
 44
0.0000000001
 40
0.0
 40
0.0
 40
0.0
 40
0.0
 40
0.1447621507
 40
0.2854114121
 40
0.4209320314
 40
0.5504995348
 40
0.673467478
 40
0.7894415381
 40
1.0
 40
1.0
 40
1.0
 40
1.0
 10
41.4984462341
 20
64.6325733358
 30
0.0
 10
41.1527978712
 20
64.6892094127
 30
0.0
 10
40.4748046449
 20
64.8237673136
 30
0.0
 10
39.4916016431
 20
65.0927357197
 30
0.0
 10
38.566100069
 20
65.4232650597
 30
0.0
 10
37.7098799324
 20
65.8111572248
 30
0.0
 10
36.9330187703
 20
66.2521867436
 30
0.0
 10
36.0458298317
 20
66.882298649
 30
0.0
 10
35.4778173992
 20
67.4483162202
 30
0.0
 10
35.1772319094
 20
67.8596459684
 30
0.0
  0
SPLINE
  5
250
100
AcDbEntity
  8
0
100
AcDbSpline
 62
7
  6
BYLAYER
 70
0
 71
3
 72
9
 73
5
 74
0
 42
0.0000001
 43
0.0000001
 44
0.0000000001
 40
0.0
 40
0.0
 40
0.0
 40
0.0
 40
0.5242961453
 40
1.0
 40
1.0
 40
1.0
 40
1.0
 10
41.8623406553
 20
71.374573086
 30
0.0
 10
41.7360105568
 20
71.301636805
 30
0.0
 10
41.5043830733
 20
71.1452210846
 30
0.0
 10
41.303592031
 20
70.9495246887
 30
0.0
 10
41.2199546659
 20
70.8469466665
 30
0.0
  0
SPLINE
  5
251
100
AcDbEntity
  8
0
100
AcDbSpline
 62
7
  6
BYLAYER
 70
0
 71
3
 72
9
 73
5
 74
0
 42
0.0000001
 43
0.0000001
 44
0.0000000001
 40
0.0
 40
0.0
 40
0.0
 40
0.0
 40
0.2455580132
 40
1.0
 40
1.0
 40
1.0
 40
1.0
 10
49.6405476319
 20
70.4765354216
 30
0.0
 10
49.5945780696
 20
70.4499950408
 30
0.0
 10
49.4061991642
 20
70.3439553645
 30
0.0
 10
49.2133065547
 20
70.2459738127
 30
0.0
 10
49.0658264599
 20
70.1763609674
 30
0.0
  0
SPLINE
  5
252
100
AcDbEntity
  8
0
100
AcDbSpline
 62
7
  6
BYLAYER
 70
0
 71
3
 72
19
 73
15
 74
0
 42
0.0000001
 43
0.0000001
 44
0.0000000001
 40
0.0
 40
0.0
 40
0.0
 40
0.0
 40
0.1837587973
 40
0.3622458709
 40
0.5272312979
 40
0.6725775494
 40
0.7943747562
 40
0.8456900287
 40
0.8903538721
 40
0.9282053828
 40
0.9591144913
 40
0.9830049467
 40
0.9923401447
 40
1.0
 40
1.0
 40
1.0
 40
1.0
 10
35.1772319094
 20
67.8596459684
 30
0.0
 10
35.1529249386
 20
67.9766441483
 30
0.0
 10
35.0971668747
 20
68.2056948792
 30
0.0
 10
34.9986631405
 20
68.5342049455
 30
0.0
 10
34.8949437535
 20
68.8347621244
 30
0.0
 10
34.7942892913
 20
69.097172031
 30
0.0
 10
34.7142445034
 20
69.2882112264
 30
0.0
 10
34.6559067187
 20
69.4172659926
 30
0.0
 10
34.6182585812
 20
69.4957369906
 30
0.0
 10
34.5843651328
 20
69.5612751193
 30
0.0
 10
34.5542711743
 20
69.6134781755
 30
0.0
 10
34.530933298
 20
69.6481693319
 30
0.0
 10
34.513638835
 20
69.6683966783
 30
0.0
 10
34.5055310009
 20
69.6759771613
 30
0.0
 10
34.5015802475
 20
69.6790108314
 30
0.0
  0
SPLINE
  5
253
100
AcDbEntity
  8
0
100
AcDbSpline
 62
7
  6
BYLAYER
 70
0
 71
3
 72
11
 73
7
 74
0
 42
0.0000001
 43
0.0000001
 44
0.0000000001
 40
0.0
 40
0.0
 40
0.0
 40
0.0
 40
0.3049045734
 40
0.5595490978
 40
0.7818006191
 40
1.0
 40
1.0
 40
1.0
 40
1.0
 10
34.5015802475
 20
69.6790108314
 30
0.0
 10
34.4989840192
 20
69.6810044005
 30
0.0
 10
34.4939684758
 20
69.6843686711
 30
0.0
 10
34.4860824368
 20
69.6875068084
 30
0.0
 10
34.4784662548
 20
69.6879547744
 30
0.0
 10
34.473887993
 20
69.6862885344
 30
0.0
 10
34.4718603508
 20
69.6851155116
 30
0.0
  0
SPLINE
  5
254
100
AcDbEntity
  8
0
100
AcDbSpline
 62
7
  6
BYLAYER
 70
0
 71
3
 72
9
 73
5
 74
0
 42
0.0000001
 43
0.0000001
 44
0.0000000001
 40
0.0
 40
0.0
 40
0.0
 40
0.0
 40
0.2593979009
 40
1.0
 40
1.0
 40
1.0
 40
1.0
 10
39.2551180248
 20
70.1763373854
 30
0.0
 10
39.156214903
 20
70.2230203681
 30
0.0
 10
38.7785202413
 20
70.4103778403
 30
0.0
 10
38.4155323563
 20
70.6282002865
 30
0.0
 10
38.160467685
 20
70.8083197564
 30
0.0
  0
SPLINE
  5
255
100
AcDbEntity
  8
0
100
AcDbSpline
 62
7
  6
BYLAYER
 70
0
 71
3
 72
23
 73
19
 74
0
 42
0.0000001
 43
0.0000001
 44
0.0000000001
 40
0.0
 40
0.0
 40
0.0
 40
0.0
 40
0.0623864025
 40
0.1287466889
 40
0.1983455642
 40
0.2703346026
 40
0.3437225352
 40
0.4174671273
 40
0.4905043589
 40
0.5618030111
 40
0.6304121199
 40
0.6955107387
 40
0.7564679343
 40
0.812913788
 40
0.8648223603
 40
0.9126047646
 40
0.9571861494
 40
1.0
 40
1.0
 40
1.0
 40
1.0
 10
46.4585538687
 20
70.2723627741
 30
0.0
 10
46.3418004278
 20
70.2049555459
 30
0.0
 10
46.0915568717
 20
70.0815866433
 30
0.0
 10
45.6879115642
 20
69.9353076833
 30
0.0
 10
45.2516835868
 20
69.8245875853
 30
0.0
 10
44.7922659412
 20
69.7517229396
 30
0.0
 10
44.3193535126
 20
69.7182917909
 30
0.0
 10
43.8430534019
 20
69.7249966261
 30
0.0
 10
43.373520324
 20
69.7716914842
 30
0.0
 10
42.9207637771
 20
69.8573815911
 30
0.0
 10
42.4944016263
 20
69.9802539435
 30
0.0
 10
42.1034490091
 20
70.137751802
 30
0.0
 10
41.756123873
 20
70.3266646919
 30
0.0
 10
41.4596960488
 20
70.5432734805
 30
0.0
 10
41.2204707185
 20
70.7835022857
 30
0.0
 10
41.0439656495
 20
71.0431081498
 30
0.0
 10
40.9351796954
 20
71.3169620107
 30
0.0
 10
40.9104651766
 20
71.5066258899
 30
0.0
 10
40.9104564517
 20
71.5991452783
 30
0.0
  0
SPLINE
  5
256
100
AcDbEntity
  8
0
100
AcDbSpline
 62
7
  6
BYLAYER
 70
0
 71
3
 72
15
 73
11
 74
0
 42
0.0000001
 43
0.0000001
 44
0.0000000001
 40
0.0
 40
0.0
 40
0.0
 40
0.0
 40
0.1485899841
 40
0.2895074379
 40
0.4227228173
 40
0.5486439031
 40
0.6680019146
 40
0.7819386634
 40
0.891987719
 40
1.0
 40
1.0
 40
1.0
 40
1.0
 10
37.2661274418
 20
77.6207486257
 30
0.0
 10
37.0462248335
 20
77.4937885535
 30
0.0
 10
36.6277138916
 20
77.2285259483
 30
0.0
 10
36.0555640554
 20
76.7856704108
 30
0.0
 10
35.5606883523
 20
76.3119713253
 30
0.0
 10
35.1480020616
 20
75.8117799729
 30
0.0
 10
34.8217439116
 20
75.2894977479
 30
0.0
 10
34.5855871402
 20
74.7498722447
 30
0.0
 10
34.442499122
 20
74.1983696304
 30
0.0
 10
34.4104608579
 20
73.8249804387
 30
0.0
 10
34.410454707
 20
73.6404012631
 30
0.0
  0
SPLINE
  5
257
100
AcDbEntity
  8
0
100
AcDbSpline
 62
7
  6
BYLAYER
 70
0
 71
3
 72
15
 73
11
 74
0
 42
0.0000001
 43
0.0000001
 44
0.0000000001
 40
0.0
 40
0.0
 40
0.0
 40
0.0
 40
0.1154282999
 40
0.2387635997
 40
0.3677675662
 40
0.4997205391
 40
0.6317170503
 40
0.7608369279
 40
0.8843646144
 40
1.0
 40
1.0
 40
1.0
 40
1.0
 10
41.9820712263
 20
70.2155079231
 30
0.0
 10
42.1351982659
 20
70.2953393318
 30
0.0
 10
42.4650368157
 20
70.4360081947
 30
0.0
 10
42.9957137534
 20
70.5858221818
 30
0.0
 10
43.5643906096
 20
70.6781012281
 30
0.0
 10
44.1525054639
 20
70.7097338305
 30
0.0
 10
44.7408779591
 20
70.6797474597
 30
0.0
 10
45.3103453135
 20
70.589076372
 30
0.0
 10
45.8422260047
 20
70.4407284322
 30
0.0
 10
46.1731418576
 20
70.301088797
 30
0.0
 10
46.3268578218
 20
70.2217197619
 30
0.0
  0
SPLINE
  5
258
100
AcDbEntity
  8
0
100
AcDbSpline
 62
7
  6
BYLAYER
 70
0
 71
3
 72
9
 73
5
 74
0
 42
0.0000001
 43
0.0000001
 44
0.0000000001
 40
0.0
 40
0.0
 40
0.0
 40
0.0
 40
0.4278582254
 40
1.0
 40
1.0
 40
1.0
 40
1.0
 10
34.4718603508
 20
69.6851155116
 30
0.0
 10
34.4684485832
 20
69.6831417506
 30
0.0
 10
34.4618410354
 20
69.6762889138
 30
0.0
 10
34.4576994359
 20
69.6680030698
 30
0.0
 10
34.4556494583
 20
69.6631473181
 30
0.0
  0
SPLINE
  5
259
100
AcDbEntity
  8
0
100
AcDbSpline
 62
7
  6
BYLAYER
 70
0
 71
3
 72
26
 73
22
 74
0
 42
0.0000001
 43
0.0000001
 44
0.0000000001
 40
0.0
 40
0.0
 40
0.0
 40
0.0
 40
0.0213307406
 40
0.0428899094
 40
0.064893988
 40
0.0875373247
 40
0.1353098094
 40
0.1607318472
 40
0.1872559748
 40
0.2436909924
 40
0.3046360946
 40
0.369720934
 40
0.4383151653
 40
0.5095983302
 40
0.5826191801
 40
0.6563472555
 40
0.729721068
 40
0.8016940455
 40
0.8712840931
 40
0.9376186392
 40
1.0
 40
1.0
 40
1.0
 40
1.0
 10
34.410454707
 20
73.6404012631
 30
0.0
 10
34.4104500979
 20
73.5020870476
 30
0.0
 10
34.4283133086
 20
73.2236566314
 30
0.0
 10
34.508291045
 20
72.8094833583
 30
0.0
 10
34.6410155657
 20
72.4000879083
 30
0.0
 10
34.891300438
 20
71.8543557659
 30
0.0
 10
35.2434519054
 20
71.3361309491
 30
0.0
 10
35.6769570026
 20
70.8557098274
 30
0.0
 10
36.1912190468
 20
70.3755190637
 30
0.0
 10
36.9475746709
 20
69.8228766234
 30
0.0
 10
37.9894429134
 20
69.2562297602
 30
0.0
 10
39.1623359115
 20
68.7837083371
 30
0.0
 10
40.4414021312
 20
68.4150902781
 30
0.0
 10
41.7996626553
 20
68.1580232246
 30
0.0
 10
43.2082449257
 20
68.0179496966
 30
0.0
 10
44.6371407793
 20
67.9978427083
 30
0.0
 10
46.0558710695
 20
68.0981391798
 30
0.0
 10
47.4341745073
 20
68.3166841365
 30
0.0
 10
48.742794931
 20
68.6489054262
 30
0.0
 10
49.9537708094
 20
69.0876686154
 30
0.0
 10
50.7044615403
 20
69.4578061209
 30
0.0
 10
51.0547670822
 20
69.6600539126
 30
0.0
  0
SPLINE
  5
25A
100
AcDbEntity
  8
0
100
AcDbSpline
 62
7
  6
BYLAYER
 70
0
 71
3
 72
14
 73
10
 74
0
 42
0.0000001
 43
0.0000001
 44
0.0000000001
 40
0.0
 40
0.0
 40
0.0
 40
0.0
 40
0.1080445285
 40
0.2181258527
 40
0.3321026685
 40
0.4514974728
 40
0.5774434206
 40
0.7107181163
 40
1.0
 40
1.0
 40
1.0
 40
1.0
 10
40.9104564517
 20
71.5991452783
 30
0.0
 10
40.9104506496
 20
71.6606701413
 30
0.0
 10
40.9211441815
 20
71.7851288601
 30
0.0
 10
40.9688198296
 20
71.968965952
 30
0.0
 10
41.0475594272
 20
72.1488330491
 30
0.0
 10
41.1562900532
 20
72.3229237437
 30
0.0
 10
41.2938613221
 20
72.4896725654
 30
0.0
 10
41.5198871169
 20
72.7060088145
 30
0.0
 10
41.7196812546
 20
72.8435637268
 30
0.0
 10
41.8623406553
 20
72.9259276785
 30
0.0
  0
SPLINE
  5
25B
100
AcDbEntity
  8
0
100
AcDbSpline
 62
7
  6
BYLAYER
 70
0
 71
3
 72
9
 73
5
 74
0
 42
0.0000001
 43
0.0000001
 44
0.0000000001
 40
0.0
 40
0.0
 40
0.0
 40
0.0
 40
0.4905013355
 40
1.0
 40
1.0
 40
1.0
 40
1.0
 10
35.0032324758
 20
66.492690295
 30
0.0
 10
35.0155522833
 20
66.4923934669
 30
0.0
 10
35.0408938269
 20
66.4953472168
 30
0.0
 10
35.0643247955
 20
66.5053268965
 30
0.0
 10
35.0754117479
 20
66.5117250768
 30
0.0
  0
SPLINE
  5
25C
100
AcDbEntity
  8
0
100
AcDbSpline
 62
7
  6
BYLAYER
 70
0
 71
3
 72
9
 73
5
 74
0
 42
0.0000001
 43
0.0000001
 44
0.0000000001
 40
0.0
 40
0.0
 40
0.0
 40
0.0
 40
0.2451092472
 40
1.0
 40
1.0
 40
1.0
 40
1.0
 10
38.1604268391
 20
76.4724539374
 30
0.0
 10
38.201598407
 20
76.5015286304
 30
0.0
 10
38.3710032317
 20
76.6181116693
 30
0.0
 10
38.5459126823
 20
76.7266519527
 30
0.0
 10
38.6803468921
 20
76.8042671167
 30
0.0
  0
SPLINE
  5
25D
100
AcDbEntity
  8
0
100
AcDbSpline
 62
7
  6
BYLAYER
 70
0
 71
3
 72
9
 73
5
 74
0
 42
0.0000001
 43
0.0000001
 44
0.0000000001
 40
0.0
 40
0.0
 40
0.0
 40
0.0
 40
0.2455580132
 40
1.0
 40
1.0
 40
1.0
 40
1.0
 10
38.6803468921
 20
76.8042671167
 30
0.0
 10
38.7263164545
 20
76.8308074974
 30
0.0
 10
38.9146953598
 20
76.9368471737
 30
0.0
 10
39.1075879693
 20
77.0348287256
 30
0.0
 10
39.2550680641
 20
77.1044415709
 30
0.0
  0
SPLINE
  5
25E
100
AcDbEntity
  8
0
100
AcDbSpline
 62
7
  6
BYLAYER
 70
0
 71
3
 72
9
 73
5
 74
0
 42
0.0000001
 43
0.0000001
 44
0.0000000001
 40
0.0
 40
0.0
 40
0.0
 40
0.0
 40
0.2549270941
 40
1.0
 40
1.0
 40
1.0
 40
1.0
 10
38.6803468921
 20
74.7630110738
 30
0.0
 10
38.6349486046
 20
74.7368005168
 30
0.0
 10
38.457979653
 20
74.6320726934
 30
0.0
 10
38.2855778214
 20
74.5195774868
 30
0.0
 10
38.1604268391
 20
74.4311978946
 30
0.0
  0
SPLINE
  5
25F
100
AcDbEntity
  8
0
100
AcDbSpline
 62
7
  6
BYLAYER
 70
0
 71
3
 72
9
 73
5
 74
0
 42
0.0000001
 43
0.0000001
 44
0.0000000001
 40
0.0
 40
0.0
 40
0.0
 40
0.0
 40
0.2544429784
 40
1.0
 40
1.0
 40
1.0
 40
1.0
 10
39.2550680641
 20
75.0631855281
 30
0.0
 10
39.2053291402
 20
75.0397080004
 30
0.0
 10
39.0107584256
 20
74.9455259746
 30
0.0
 10
38.819917985
 20
74.8435920009
 30
0.0
 10
38.6803468921
 20
74.7630110738
 30
0.0
  0
SPLINE
  5
260
100
AcDbEntity
  8
0
100
AcDbSpline
 62
7
  6
BYLAYER
 70
0
 71
3
 72
9
 73
5
 74
0
 42
0.0000001
 43
0.0000001
 44
0.0000000001
 40
0.0
 40
0.0
 40
0.0
 40
0.0
 40
0.2406728405
 40
1.0
 40
1.0
 40
1.0
 40
1.0
 10
50.160426839
 20
74.4312267391
 30
0.0
 10
50.0775357638
 20
74.4897620762
 30
0.0
 10
49.7272079307
 20
74.7245667926
 30
0.0
 10
49.3553026491
 20
74.926550691
 30
0.0
 10
49.0657764992
 20
75.0632091101
 30
0.0
  0
SPLINE
  5
261
100
AcDbEntity
  8
0
100
AcDbSpline
 62
7
  6
BYLAYER
 70
0
 71
3
 72
23
 73
19
 74
0
 42
0.0000001
 43
0.0000001
 44
0.0000000001
 40
0.0
 40
0.0
 40
0.0
 40
0.0
 40
0.0623864025
 40
0.1287466889
 40
0.1983455642
 40
0.2703346026
 40
0.3437225352
 40
0.4174671273
 40
0.4905043589
 40
0.5618030111
 40
0.6304121199
 40
0.6955107387
 40
0.7564679343
 40
0.812913788
 40
0.8648223603
 40
0.9126047646
 40
0.9571861494
 40
1.0
 40
1.0
 40
1.0
 40
1.0
 10
41.8623406553
 20
72.9259276785
 30
0.0
 10
41.9790940962
 20
72.9933349067
 30
0.0
 10
42.2293376523
 20
73.1167038093
 30
0.0
 10
42.6329829598
 20
73.2629827693
 30
0.0
 10
43.0692109373
 20
73.3737028673
 30
0.0
 10
43.5286285829
 20
73.446567513
 30
0.0
 10
44.0015410114
 20
73.4799986617
 30
0.0
 10
44.4778411221
 20
73.4732938265
 30
0.0
 10
44.9473742
 20
73.4265989684
 30
0.0
 10
45.4001307469
 20
73.3409088615
 30
0.0
 10
45.8264928977
 20
73.2180365091
 30
0.0
 10
46.2174455149
 20
73.0605386506
 30
0.0
 10
46.564770651
 20
72.8716257607
 30
0.0
 10
46.8611984752
 20
72.6550169721
 30
0.0
 10
47.1004238055
 20
72.4147881669
 30
0.0
 10
47.2769288745
 20
72.1551823029
 30
0.0
 10
47.3857148286
 20
71.8813284419
 30
0.0
 10
47.4104293474
 20
71.6916645627
 30
0.0
 10
47.4104380724
 20
71.5991451743
 30
0.0
  0
SPLINE
  5
262
100
AcDbEntity
  8
0
100
AcDbSpline
 62
7
  6
BYLAYER
 70
0
 71
3
 72
14
 73
10
 74
0
 42
0.0000001
 43
0.0000001
 44
0.0000000001
 40
0.0
 40
0.0
 40
0.0
 40
0.0
 40
0.2105584619
 40
0.326532522
 40
0.4495004652
 40
0.5790679686
 40
0.7145885879
 40
0.8552378493
 40
1.0
 40
1.0
 40
1.0
 40
1.0
 10
35.1772319094
 20
66.6348923427
 30
0.0
 10
35.4778173992
 20
66.2235625945
 30
0.0
 10
36.0458298317
 20
65.6575450233
 30
0.0
 10
36.9330187703
 20
65.0274331179
 30
0.0
 10
37.7098799324
 20
64.5864035991
 30
0.0
 10
38.566100069
 20
64.198511434
 30
0.0
 10
39.4916016431
 20
63.867982094
 30
0.0
 10
40.4748046449
 20
63.5990136879
 30
0.0
 10
41.1527978712
 20
63.464455787
 30
0.0
 10
41.4984462341
 20
63.4078197101
 30
0.0
  0
SPLINE
  5
263
100
AcDbEntity
  8
0
100
AcDbSpline
 62
7
  6
BYLAYER
 70
0
 71
3
 72
9
 73
5
 74
0
 42
0.0000001
 43
0.0000001
 44
0.0000000001
 40
0.0
 40
0.0
 40
0.0
 40
0.0
 40
0.2593979009
 40
1.0
 40
1.0
 40
1.0
 40
1.0
 10
49.0657764992
 20
77.1044651529
 30
0.0
 10
49.164679621
 20
77.0577821701
 30
0.0
 10
49.5423742827
 20
76.870424698
 30
0.0
 10
49.9053621677
 20
76.6526022518
 30
0.0
 10
50.160426839
 20
76.4724827819
 30
0.0
  0
SPLINE
  5
264
100
AcDbEntity
  8
0
100
AcDbSpline
 62
7
  6
BYLAYER
 70
0
 71
3
 72
15
 73
11
 74
0
 42
0.0000001
 43
0.0000001
 44
0.0000000001
 40
0.0
 40
0.0
 40
0.0
 40
0.0
 40
0.1485899841
 40
0.2895074379
 40
0.4227228173
 40
0.5486439031
 40
0.6680019146
 40
0.7819386634
 40
0.891987719
 40
1.0
 40
1.0
 40
1.0
 40
1.0
 10
51.0547670822
 20
69.6600539126
 30
0.0
 10
51.2746696905
 20
69.7870139848
 30
0.0
 10
51.6931806324
 20
70.0522765899
 30
0.0
 10
52.2653304686
 20
70.4951321274
 30
0.0
 10
52.7602061717
 20
70.968831213
 30
0.0
 10
53.1728924624
 20
71.4690225654
 30
0.0
 10
53.4991506124
 20
71.9913047904
 30
0.0
 10
53.7353073838
 20
72.5309302936
 30
0.0
 10
53.878395402
 20
73.0824329078
 30
0.0
 10
53.9104336661
 20
73.4558220995
 30
0.0
 10
53.910439817
 20
73.6404012752
 30
0.0
  0
SPLINE
  5
265
100
AcDbEntity
  8
0
100
AcDbSpline
 62
7
  6
BYLAYER
 70
0
 71
3
 72
17
 73
13
 74
0
 42
0.0000001
 43
0.0000001
 44
0.0000000001
 40
0.0
 40
0.0
 40
0.0
 40
0.0
 40
0.1286838122
 40
0.2703019607
 40
0.4174417478
 40
0.5617801027
 40
0.6954476096
 40
0.8127118774
 40
0.8646786847
 40
0.9125085647
 40
0.9571391055
 40
1.0
 40
1.0
 40
1.0
 40
1.0
 10
102.8500363111
 20
108.6268567599
 30
0.0
 10
102.9610677284
 20
108.5627541914
 30
0.0
 10
103.1766051302
 20
108.3968679968
 30
0.0
 10
103.4524998795
 20
108.0830349279
 30
0.0
 10
103.6795409294
 20
107.7136919148
 30
0.0
 10
103.8390465251
 20
107.3189539237
 30
0.0
 10
103.9182203525
 20
106.930821032
 30
0.0
 10
103.9110667851
 20
106.6250082906
 30
0.0
 10
103.8545364708
 20
106.415218738
 30
0.0
 10
103.7914260308
 20
106.2847953608
 30
0.0
 10
103.7071372988
 20
106.1780636962
 30
0.0
 10
103.6369804975
 20
106.1244722218
 30
0.0
 10
103.6000000897
 20
106.103119795
 30
0.0
  0
SPLINE
  5
266
100
AcDbEntity
  8
0
100
AcDbSpline
 62
7
  6
BYLAYER
 70
0
 71
3
 72
11
 73
7
 74
0
 42
0.0000001
 43
0.0000001
 44
0.0000000001
 40
0.0
 40
0.0
 40
0.0
 40
0.0
 40
0.2895443731
 40
0.5491352579
 40
0.7822766738
 40
1.0
 40
1.0
 40
1.0
 40
1.0
 10
14.4620566594
 20
55.1468302746
 30
0.0
 10
14.5278381086
 20
55.1088521963
 30
0.0
 10
14.6588095096
 20
55.0466299319
 30
0.0
 10
14.8600350123
 20
54.9979229272
 30
0.0
 10
15.0489277615
 20
55.0026856393
 30
0.0
 10
15.1625576557
 20
55.0440401262
 30
0.0
 10
15.2120224288
 20
55.0725972562
 30
0.0
  0
SPLINE
  5
267
100
AcDbEntity
  8
0
100
AcDbSpline
 62
7
  6
BYLAYER
 70
0
 71
3
 72
17
 73
13
 74
0
 42
0.0000001
 43
0.0000001
 44
0.0000000001
 40
0.0
 40
0.0
 40
0.0
 40
0.0
 40
0.0428570614
 40
0.0874852209
 40
0.1353124634
 40
0.1872784046
 40
0.3045384568
 40
0.4382005624
 40
0.5825391019
 40
0.7296862121
 40
0.8713149607
 40
1.0
 40
1.0
 40
1.0
 40
1.0
 10
13.71209089
 20
57.6705705444
 30
0.0
 10
13.6751125779
 20
57.6492221302
 30
0.0
 10
13.604960907
 20
57.595633212
 30
0.0
 10
13.5206792208
 20
57.4889084858
 30
0.0
 10
13.4575611835
 20
57.3584952625
 30
0.0
 10
13.4010357662
 20
57.1487118184
 30
0.0
 10
13.3938693186
 20
56.8429115147
 30
0.0
 10
13.473033569
 20
56.4547851665
 30
0.0
 10
13.6325324766
 20
56.0600427996
 30
0.0
 10
13.859572661
 20
55.6906776634
 30
0.0
 10
14.1354785209
 20
55.3768283417
 30
0.0
 10
14.3510241894
 20
55.2109334508
 30
0.0
 10
14.4620566594
 20
55.1468302746
 30
0.0
  0
SPLINE
  5
268
100
AcDbEntity
  8
0
100
AcDbSpline
 62
7
  6
BYLAYER
 70
0
 71
3
 72
11
 73
7
 74
0
 42
0.0000001
 43
0.0000001
 44
0.0000000001
 40
0.0
 40
0.0
 40
0.0
 40
0.0
 40
0.2177249355
 40
0.4508743929
 40
0.7104693359
 40
1.0
 40
1.0
 40
1.0
 40
1.0
 10
102.1000725325
 20
108.7010864734
 30
0.0
 10
102.1495359348
 20
108.7296465607
 30
0.0
 10
102.2631695417
 20
108.7709998054
 30
0.0
 10
102.4520650958
 20
108.7757633122
 30
0.0
 10
102.6532890871
 20
108.7270528178
 30
0.0
 10
102.7842581267
 20
108.6648329532
 30
0.0
 10
102.8500363111
 20
108.6268567599
 30
0.0
  0
SPLINE
  5
269
100
AcDbEntity
  8
0
100
AcDbSpline
 62
7
  6
BYLAYER
 70
0
 71
3
 72
17
 73
13
 74
0
 42
0.0000001
 43
0.0000001
 44
0.0000000001
 40
0.0
 40
0.0
 40
0.0
 40
0.0
 40
0.0428570614
 40
0.0874852209
 40
0.1353124634
 40
0.1872784046
 40
0.3045384568
 40
0.4382005624
 40
0.5825391019
 40
0.7296862121
 40
0.8713149607
 40
1.0
 40
1.0
 40
1.0
 40
1.0
 10
15.2120224288
 20
55.0725972562
 30
0.0
 10
15.2490007408
 20
55.0939456704
 30
0.0
 10
15.3191524118
 20
55.1475345886
 30
0.0
 10
15.4034340979
 20
55.2542593148
 30
0.0
 10
15.4665521352
 20
55.384672538
 30
0.0
 10
15.5230775526
 20
55.5944559821
 30
0.0
 10
15.5302440001
 20
55.9002562858
 30
0.0
 10
15.4510797497
 20
56.2883826341
 30
0.0
 10
15.2915808421
 20
56.6831250009
 30
0.0
 10
15.0645406577
 20
57.0524901372
 30
0.0
 10
14.7886347978
 20
57.3663394589
 30
0.0
 10
14.5730891294
 20
57.5322343497
 30
0.0
 10
14.4620566594
 20
57.596337526
 30
0.0
  0
SPLINE
  5
26A
100
AcDbEntity
  8
0
100
AcDbSpline
 62
7
  6
BYLAYER
 70
0
 71
3
 72
11
 73
7
 74
0
 42
0.0000001
 43
0.0000001
 44
0.0000000001
 40
0.0
 40
0.0
 40
0.0
 40
0.0
 40
0.2895443731
 40
0.5491352579
 40
0.7822766738
 40
1.0
 40
1.0
 40
1.0
 40
1.0
 10
14.4620566594
 20
57.596337526
 30
0.0
 10
14.3962752101
 20
57.6343156042
 30
0.0
 10
14.2653038091
 20
57.6965378686
 30
0.0
 10
14.0640783064
 20
57.7452448734
 30
0.0
 10
13.8751855572
 20
57.7404821613
 30
0.0
 10
13.761555663
 20
57.6991276743
 30
0.0
 10
13.71209089
 20
57.6705705444
 30
0.0
  0
ENDSEC
  0
SECTION
  2
OBJECTS
  0
DICTIONARY
  5
C
100
AcDbDictionary
280
0
281
1
  3
ACAD_GROUP
350
D
  3
ACAD_MLINESTYLE
350
17
  3
ACAD_LAYOUT
350
1A
  3
ACAD_PLOTSETTINGS
350
19
  3
ACAD_PLOTSTYLENAME
350
E
  0
DICTIONARY
  5
D
102
{ACAD_REACTORS
330
C
102
}
100
AcDbDictionary
280
0
281
1
  0
ACDBDICTIONARYWDFLT
  5
E
102
{ACAD_REACTORS
330
C
102
}
100
AcDbDictionary
281
1
  3
Normal
350
F
100
AcDbDictionaryWithDefault
340
F
  0
DICTIONARY
  5
17
102
{ACAD_REACTORS
330
C
102
}
100
AcDbDictionary
280
0
281
1
  3
Standard
350
18
  0
DICTIONARY
  5
19
102
{ACAD_REACTORS
330
C
102
}
100
AcDbDictionary
281
1
  0
DICTIONARY
  5
1A
102
{ACAD_REACTORS
330
C
102
}
100
AcDbDictionary
281
1
  3
Model
350
26B
  3
Layout1
350
26C
  0
ACDBPLACEHOLDER
  5
F
102
{ACAD_REACTORS
330
E
102
}
  0
MLINESTYLE
  5
18
102
{ACAD_REACTORS
330
17
102
}
100
AcDbMlineStyle
  2
STANDARD
 70
0
  3

 62
256
 51
90.0
 52
90.0
 71
2
 49
0.5
 62
256
  6
BYLAYER
 49
-0.5
 62
256
  6
BYLAYER
  0
LAYOUT
  5
26B
102
{ACAD_REACTORS
330
1A
102
}
100
AcDbPlotSettings
  1

  2
none_device
  4

  6

 40
0.0
 41
0.0
 42
0.0
 43
0.0
 44
210.0
 45
297.0
 46
0.0
 47
0.0
 48
0.0
 49
0.0
140
0.0
141
0.0
142
1.0
143
1.0
 70
1024
 72
1
 73
0
 74
0
  7

 75
0
147
1.0
148
0.0
149
0.0
100
AcDbLayout
  1
Model
 70
0
 71
0
 10
0.0
 20
0.0
 11
210.0
 21
297.0
 12
0.0
 22
0.0
 32
0.0
 14
0.0
 24
0.0
 34
0.0
 15
0.0
 25
0.0
 35
0.0
146
0.0
 13
0.0
 23
0.0
 33
0.0
 16
1.0
 26
0.0
 36
0.0
 17
0.0
 27
1.0
 37
0.0
 76
0
330
210
345
0
346
0
  0
LAYOUT
  5
26C
102
{ACAD_REACTORS
330
1A
102
}
100
AcDbPlotSettings
  1

  2
none_device
  4

  6

 40
0.0
 41
0.0
 42
0.0
 43
0.0
 44
210.0
 45
297.0
 46
0.0
 47
0.0
 48
0.0
 49
0.0
140
0.0
141
0.0
142
1.0
143
1.0
 70
0
 72
1
 73
0
 74
0
  7

 75
0
147
1.0
148
0.0
149
0.0
100
AcDbLayout
  1
Layout1
 70
0
 71
1
 10
0.0
 20
0.0
 11
210.0
 21
297.0
 12
0.0
 22
0.0
 32
0.0
 14
0.0
 24
0.0
 34
0.0
 15
0.0
 25
0.0
 35
0.0
146
0.0
 13
0.0
 23
0.0
 33
0.0
 16
1.0
 26
0.0
 36
0.0
 17
0.0
 27
1.0
 37
0.0
 76
0
330
211
345
0
346
0
  0
ENDSEC
  0
EOF
