999
DXF file: C:\Users\sesa63760\Dev\_Creo\CAD\MCADID0004138_3D-CAD\drw0001_6.dxf
999
Pro/ENGINEER 2019471 by Parametric Technology Corporation
  0
SECTION
  2
HEADER
  9
$ACADVER
  1
AC1024
  9
$DWGCODEPAGE
  3
ANSI_1252
  9
$EXTMAX
 10
82.0989011881
 20
116.1113031089
 30
0.0
  9
$EXTMIN
 10
0.0
 20
0.0
 30
0.0
  9
$LIMMIN
 10
0.0
 20
0.0
  9
$LIMMAX
 10
82.0989011881
 20
116.1113031089
  9
$VIEWCTR
 10
41.0494505941
 20
58.0556515545
  9
$VIEWSIZE
 40
116.1113031089
  9
$CLAYER
  8
0
  9
$LTSCALE
 40
7.5687367952
  9
$CELTYPE
  6
BYLAYER
  9
$DIMSCALE
 40
1.0
  9
$DIMASZ
 40
0.9773678713
  9
$DIMEXO
 40
1.0
  9
$DIMDLI
 40
5.2293090585
  9
$DIMEXE
 40
1.0
  9
$DIMCEN
 40
1.2385205665
  9
$DIMLFAC
 40
1.0
  9
$DIMBLK
  1
_FILLED
  9
$DIMALT
 70
0
  9
$DIMALTF
 40
0.0393700787
  9
$DIMTXT
 40
1.3683150198
  9
$DIMTOL
 70
1
  9
$DIMLIM
 70
0
  9
$DIMTFAC
 40
1.0
  9
$DIMTP
 40
0.01
  9
$DIMTM
 40
0.01
  9
$DIMGAP
 40
0.625
  9
$DIMDSEP
 70
46
  9
$AUNITS
 70
0
  9
$PDMODE
 70
3
  9
$PDSIZE
 40
0.3125
  9
$HANDSEED
  5
297
  9
$TILEMODE
 70
1
  9
$MEASUREMENT
 70
1
  9
$INSUNITS
 70
4
  0
ENDSEC
  0
SECTION
  2
CLASSES
  0
CLASS
  1
ACDBDICTIONARYWDFLT
  2
AcDbDictionaryWithDefault
  3
AutoCAD 2000
 90
0
 91
1
280
0
281
0
  0
CLASS
  1
ACDBPLACEHOLDER
  2
AcDbPlaceHolder
  3
AutoCAD 2000
 90
0
 91
1
280
0
281
0
  0
CLASS
  1
LAYOUT
  2
AcDbLayout
  3
AutoCAD 2000
 90
0
 91
0
280
0
281
0
  0
ENDSEC
  0
SECTION
  2
TABLES
  0
TABLE
  2
VPORT
  5
8
100
AcDbSymbolTable
 70
2
  0
VPORT
  5
1F4
100
AcDbSymbolTableRecord
100
AcDbViewportTableRecord
  2
*ACTIVE
 70
0
 10
0.0
 20
0.0
 11
1.0
 21
1.0
 12
41.0494505941
 22
58.0556515545
 13
0.0
 23
0.0
 14
1.0
 24
1.0
 15
0.0
 25
0.0
 16
0.0
 26
0.0
 36
1.0
 17
0.0
 27
0.0
 37
0.0
 40
116.1113031089
 41
0.7070707071
 42
50.0
 43
0.0
 44
0.0
 50
0.0
 51
0.0
 71
0
 72
100
 73
1
 74
1
 75
0
 76
0
 77
0
 78
0
  0
ENDTAB
  0
TABLE
  2
LTYPE
  5
5
100
AcDbSymbolTable
 70
6
  0
LTYPE
  5
14
100
AcDbSymbolTableRecord
100
AcDbLinetypeTableRecord
  2
BYBLOCK
 70
0
  3

 72
65
 73
0
 40
0.0
  0
LTYPE
  5
15
100
AcDbSymbolTableRecord
100
AcDbLinetypeTableRecord
  2
BYLAYER
 70
0
  3

 72
65
 73
0
 40
0.0
  0
LTYPE
  5
16
100
AcDbSymbolTableRecord
100
AcDbLinetypeTableRecord
  2
CONTINUOUS
 70
64
  3
Solid line
 72
65
 73
0
 40
0.0
  0
LTYPE
  5
1F5
100
AcDbSymbolTableRecord
100
AcDbLinetypeTableRecord
  2
CENTER
 70
64
  3
____ _ ____ _ ____ _ ____ _ ____ _ ____ _ ____
 72
65
 73
4
 40
0.6
 49
0.375
 74
0
 49
-0.075
 74
0
 49
0.075
 74
0
 49
-0.075
 74
0
  0
LTYPE
  5
1F6
100
AcDbSymbolTableRecord
100
AcDbLinetypeTableRecord
  2
HIDDEN
 70
64
  3
- - - - - - - - - - - - - - - - - - - -
 72
65
 73
2
 40
0.2
 49
0.1
 74
0
 49
-0.1
 74
0
  0
LTYPE
  5
1F7
100
AcDbSymbolTableRecord
100
AcDbLinetypeTableRecord
  2
PHANTOM
 70
64
  3
_____ _ _ _____ _ _ _____ _ _ _____
 72
65
 73
6
 40
0.8
 49
0.45
 74
0
 49
-0.05
 74
0
 49
0.1
 74
0
 49
-0.05
 74
0
 49
0.1
 74
0
 49
-0.05
 74
0
  0
LTYPE
  5
1F8
100
AcDbSymbolTableRecord
100
AcDbLinetypeTableRecord
  2
DOT
 70
64
  3
. . . . . . . . . . . . . . . . . . . .
 72
65
 73
2
 40
0.2
 49
0.1
 74
0
 49
-0.1
 74
0
  0
LTYPE
  5
1F9
100
AcDbSymbolTableRecord
100
AcDbLinetypeTableRecord
  2
DASHED
 70
64
  3
- - - - - - - - - - - - - - - - - - - -
 72
65
 73
2
 40
0.2
 49
0.1
 74
0
 49
-0.1
 74
0
  0
ENDTAB
  0
TABLE
  2
LAYER
  5
2
100
AcDbSymbolTable
 70
36
  0
LAYER
  5
10
100
AcDbSymbolTableRecord
100
AcDbLayerTableRecord
  2
0
 70
0
 62
7
  6
CONTINUOUS
370
-3
390
F
  0
LAYER
  5
1FA
100
AcDbSymbolTableRecord
100
AcDbLayerTableRecord
  2
DEFAULT_1
 70
0
 62
7
  6
CENTER
370
-3
390
F
  0
LAYER
  5
1FB
100
AcDbSymbolTableRecord
100
AcDbLayerTableRecord
  2
DEFAULT_2
 70
0
 62
7
  6
HIDDEN
370
-3
390
F
  0
LAYER
  5
1FC
100
AcDbSymbolTableRecord
100
AcDbLayerTableRecord
  2
DEFAULT_3
 70
0
 62
7
  6
PHANTOM
370
-3
390
F
  0
LAYER
  5
1FD
100
AcDbSymbolTableRecord
100
AcDbLayerTableRecord
  2
00_COMPONENTS
 70
0
 62
7
  6
CONTINUOUS
370
-3
390
F
  0
LAYER
  5
1FE
100
AcDbSymbolTableRecord
100
AcDbLayerTableRecord
  2
01_1_DEFAULT_DATUMS
 70
0
 62
7
  6
CONTINUOUS
370
-3
390
F
  0
LAYER
  5
1FF
100
AcDbSymbolTableRecord
100
AcDbLayerTableRecord
  2
01_PLANES
 70
0
 62
7
  6
CONTINUOUS
370
-3
390
F
  0
LAYER
  5
200
100
AcDbSymbolTableRecord
100
AcDbLayerTableRecord
  2
02_COORD_SYS
 70
0
 62
7
  6
CONTINUOUS
370
-3
390
F
  0
LAYER
  5
201
100
AcDbSymbolTableRecord
100
AcDbLayerTableRecord
  2
03_AXES
 70
0
 62
7
  6
CONTINUOUS
370
-3
390
F
  0
LAYER
  5
202
100
AcDbSymbolTableRecord
100
AcDbLayerTableRecord
  2
04_POINTS
 70
0
 62
7
  6
CONTINUOUS
370
-3
390
F
  0
LAYER
  5
203
100
AcDbSymbolTableRecord
100
AcDbLayerTableRecord
  2
05_CURVES
 70
0
 62
7
  6
CONTINUOUS
370
-3
390
F
  0
LAYER
  5
204
100
AcDbSymbolTableRecord
100
AcDbLayerTableRecord
  2
06_SURFS
 70
0
 62
7
  6
CONTINUOUS
370
-3
390
F
  0
LAYER
  5
205
100
AcDbSymbolTableRecord
100
AcDbLayerTableRecord
  2
07_COSMETICS
 70
0
 62
7
  6
CONTINUOUS
370
-3
390
F
  0
LAYER
  5
206
100
AcDbSymbolTableRecord
100
AcDbLayerTableRecord
  2
10_NOTES
 70
0
 62
7
  6
CONTINUOUS
370
-3
390
F
  0
LAYER
  5
207
100
AcDbSymbolTableRecord
100
AcDbLayerTableRecord
  2
11_NOTES_PUB
 70
0
 62
7
  6
CONTINUOUS
370
-3
390
F
  0
LAYER
  5
208
100
AcDbSymbolTableRecord
100
AcDbLayerTableRecord
  2
13_REF_GTOL
 70
0
 62
7
  6
CONTINUOUS
370
-3
390
F
  0
LAYER
  5
209
100
AcDbSymbolTableRecord
100
AcDbLayerTableRecord
  2
16_MISC
 70
0
 62
7
  6
CONTINUOUS
370
-3
390
F
  0
LAYER
  5
20A
100
AcDbSymbolTableRecord
100
AcDbLayerTableRecord
  2
17_NO_PRINT
 70
0
 62
7
  6
CONTINUOUS
370
-3
390
F
  0
LAYER
  5
20B
100
AcDbSymbolTableRecord
100
AcDbLayerTableRecord
  2
18_DATUM_CAMS_JOINTS
 70
0
 62
7
  6
CONTINUOUS
370
-3
390
F
  0
LAYER
  5
20C
100
AcDbSymbolTableRecord
100
AcDbLayerTableRecord
  2
19_DATUM_FUNCTIONAL
 70
0
 62
7
  6
CONTINUOUS
370
-3
390
F
  0
LAYER
  5
20D
100
AcDbSymbolTableRecord
100
AcDbLayerTableRecord
  2
20_DATUM_KINEMATIC_SCHEME
 70
0
 62
7
  6
CONTINUOUS
370
-3
390
F
  0
ENDTAB
  0
TABLE
  2
STYLE
  5
3
100
AcDbSymbolTable
 70
1
  0
STYLE
  5
11
100
AcDbSymbolTableRecord
100
AcDbTextStyleTableRecord
  2
STANDARD
 70
0
 40
0.0
 41
1.0
 50
0.0
 71
0
 42
0.2
  3
ARIAL.TTF
  4

  0
STYLE
  5
20E
100
AcDbSymbolTableRecord
100
AcDbTextStyleTableRecord
  2
TEXTSTYLE_1
 70
0
 40
0.0
 41
0.8
 50
0.0
 71
0
 42
0.2
  3
gdt
  4

  0
ENDTAB
  0
TABLE
  2
VIEW
  5
6
100
AcDbSymbolTable
 70
0
  0
ENDTAB
  0
TABLE
  2
UCS
  5
7
100
AcDbSymbolTable
 70
0
  0
ENDTAB
  0
TABLE
  2
APPID
  5
9
100
AcDbSymbolTable
 70
1
  0
APPID
  5
20F
100
AcDbSymbolTableRecord
100
AcDbRegAppTableRecord
  2
ACAD
 70
0
  0
ENDTAB
  0
TABLE
  2
BLOCK_RECORD
  5
1
100
AcDbSymbolTable
 70
0
  0
BLOCK_RECORD
  5
210
100
AcDbSymbolTableRecord
100
AcDbBlockTableRecord
  2
*Model_Space
  0
BLOCK_RECORD
  5
211
100
AcDbSymbolTableRecord
100
AcDbBlockTableRecord
  2
*Paper_Space
  0
BLOCK_RECORD
  5
212
100
AcDbSymbolTableRecord
100
AcDbBlockTableRecord
  2
_FILLED
  0
ENDTAB
  0
TABLE
  2
DIMSTYLE
  5
A
100
AcDbSymbolTable
 70
1
100
AcDbDimStyleTable
 71
0
  0
DIMSTYLE
105
213
100
AcDbSymbolTableRecord
100
AcDbDimStyleTableRecord
  2
STANDARD
 70
0
  3

  4

 40
1.0
 41
0.9773678713
 42
1.0
 43
0.38
 44
1.0
 45
0.0
 46
0.0
 47
0.01
 48
0.01
140
1.3683150198
141
0.09
142
0.0
143
25.4
144
1.0
145
0.0
146
1.0
147
0.625
 71
1
 72
0
 73
0
 74
0
 75
0
 76
0
 77
1
 78
8
 79
2
170
0
171
1
172
0
173
0
174
0
175
0
176
0
177
0
178
0
270
2
179
2
271
2
272
2
273
2
274
2
275
0
280
0
281
0
282
0
283
1
284
8
285
0
286
0
287
3
288
0
340
11
278
46
341
212
342
212
343
212
344
212
  0
ENDTAB
  0
ENDSEC
  0
SECTION
  2
BLOCKS
  0
BLOCK
  5
20
100
AcDbEntity
  8
0
100
AcDbBlockBegin
  2
*Model_Space
 70
0
 10
0.0
 20
0.0
 30
0.0
  3
*Model_Space
  1

  0
ENDBLK
  5
21
100
AcDbEntity
  8
0
100
AcDbBlockEnd
  0
BLOCK
  5
1C
100
AcDbEntity
  8
0
100
AcDbBlockBegin
  2
*Paper_Space
 70
0
 10
0.0
 20
0.0
 30
0.0
  3
*Paper_Space
  1

  0
ENDBLK
  5
1D
100
AcDbEntity
  8
0
100
AcDbBlockEnd
  0
BLOCK
  5
214
100
AcDbEntity
  8
0
100
AcDbBlockBegin
  2
_FILLED
 70
64
 10
0.0
 20
0.0
  3
_FILLED
  1

  0
SOLID
  5
215
100
AcDbEntity
  8
0
  6
BYBLOCK
 62
0
100
AcDbTrace
 10
0.0
 20
0.0
 11
-1.0
 21
0.25
 12
-1.0
 22
-0.25
 13
-1.0
 23
-0.25
  0
ENDBLK
  5
216
100
AcDbEntity
  8
0
  6
BYBLOCK
 62
0
100
AcDbBlockEnd
  0
ENDSEC
  0
SECTION
  2
ENTITIES
  0
LINE
  5
217
100
AcDbEntity
  8
0
100
AcDbLine
 62
7
  6
BYLAYER
 10
9.2858321793
 20
69.1342368408
 11
9.2858321793
 21
65.9770660206
  0
LINE
  5
218
100
AcDbEntity
  8
0
100
AcDbLine
 62
7
  6
BYLAYER
 10
9.2858321793
 20
50.1342368408
 11
9.2858321793
 21
46.9770660207
  0
LINE
  5
219
100
AcDbEntity
  8
0
100
AcDbLine
 62
7
  6
BYLAYER
 10
9.4340683704
 20
46.9770660202
 11
9.4340683704
 21
50.1342368407
  0
LINE
  5
21A
100
AcDbEntity
  8
0
100
AcDbLine
 62
7
  6
BYLAYER
 10
9.4340683704
 20
65.9770660202
 11
9.4340683704
 21
69.134236841
  0
LINE
  5
21B
100
AcDbEntity
  8
0
100
AcDbLine
 62
7
  6
BYLAYER
 10
10.1375959883
 20
69.3227464981
 11
10.1375959883
 21
65.788556364
  0
LINE
  5
21C
100
AcDbEntity
  8
0
100
AcDbLine
 62
7
  6
BYLAYER
 10
10.1375959883
 20
50.3227464977
 11
10.1375959883
 21
46.788556364
  0
LINE
  5
21D
100
AcDbEntity
  8
0
100
AcDbLine
 62
7
  6
BYLAYER
 10
10.2858321793
 20
46.7556514299
 11
10.2858321793
 21
69.3556514315
  0
LINE
  5
21E
100
AcDbEntity
  8
0
100
AcDbLine
 62
7
  6
BYLAYER
 10
10.3549701065
 20
69.424262907
 11
10.3549701065
 21
46.6870399545
  0
LINE
  5
21F
100
AcDbEntity
  8
0
100
AcDbLine
 62
7
  6
BYLAYER
 10
10.28583218
 20
46.5556514304
 11
9.4340683706
 21
46.7838808553
  0
LINE
  5
220
100
AcDbEntity
  8
0
100
AcDbLine
 62
7
  6
BYLAYER
 10
9.4340683704
 20
46.9770660202
 11
10.1375959883
 21
46.788556364
  0
LINE
  5
221
100
AcDbEntity
  8
0
100
AcDbLine
 62
7
  6
BYLAYER
 10
10.3555807511
 20
46.6873455535
 11
15.6576851243
 21
46.6985775625
  0
LINE
  5
222
100
AcDbEntity
  8
0
100
AcDbLine
 62
7
  6
BYLAYER
 10
10.2858321801
 20
46.5556514307
 11
58.2858321801
 21
46.5556514307
  0
LINE
  5
223
100
AcDbEntity
  8
0
100
AcDbLine
 62
7
  6
BYLAYER
 10
58.4858321793
 20
46.7556514307
 11
15.7971988366
 21
46.7556514307
  0
LINE
  5
224
100
AcDbEntity
  8
0
100
AcDbLine
 62
7
  6
BYLAYER
 10
10.2858321793
 20
46.7885563641
 11
10.1375959883
 21
46.7885563641
  0
LINE
  5
225
100
AcDbEntity
  8
0
100
AcDbLine
 62
7
  6
BYLAYER
 10
58.4858321793
 20
51.202403768
 11
60.2345932654
 21
51.555651431
  0
LINE
  5
226
100
AcDbEntity
  8
0
100
AcDbLine
 62
7
  6
BYLAYER
 10
9.4340683704
 20
46.9770660202
 11
9.2858321793
 21
46.9770660202
  0
LINE
  5
227
100
AcDbEntity
  8
0
100
AcDbLine
 62
7
  6
BYLAYER
 10
16.2115195538
 20
47.7556514304
 11
53.3576377548
 21
47.7556514304
  0
LINE
  5
228
100
AcDbEntity
  8
0
100
AcDbLine
 62
7
  6
BYLAYER
 10
9.2858321793
 20
50.1342368412
 11
9.4340683704
 21
50.1342368412
  0
LINE
  5
229
100
AcDbEntity
  8
0
100
AcDbLine
 62
7
  6
BYLAYER
 10
10.1375959883
 20
50.3227464982
 11
10.2858321793
 21
50.3227464982
  0
LINE
  5
22A
100
AcDbEntity
  8
0
100
AcDbLine
 62
7
  6
BYLAYER
 10
60.2345932656
 20
51.5556514307
 11
63.2345932656
 21
51.5556514307
  0
LINE
  5
22B
100
AcDbEntity
  8
0
100
AcDbLine
 62
7
  6
BYLAYER
 10
63.7088720753
 20
52.0556514307
 11
69.4264202289
 21
52.0556514307
  0
LINE
  5
22C
100
AcDbEntity
  8
0
100
AcDbLine
 62
7
  6
BYLAYER
 10
71.336510858
 20
52.6556514307
 11
71.8800803561
 21
52.6556514307
  0
LINE
  5
22D
100
AcDbEntity
  8
0
100
AcDbLine
 62
7
  6
BYLAYER
 10
70.1321787711
 20
52.7566034154
 11
71.2363793069
 21
52.7566034154
  0
LINE
  5
22E
100
AcDbEntity
  8
0
100
AcDbLine
 62
7
  6
BYLAYER
 10
72.0359292621
 20
52.9056514307
 11
73.7812009741
 21
52.9056514307
  0
LINE
  5
22F
100
AcDbEntity
  8
0
100
AcDbLine
 62
7
  6
BYLAYER
 10
10.1375959883
 20
65.5953711983
 11
9.4340683706
 21
65.7838808553
  0
LINE
  5
230
100
AcDbEntity
  8
0
100
AcDbLine
 62
7
  6
BYLAYER
 10
9.4340683704
 20
65.9770660202
 11
10.1375959883
 21
65.788556364
  0
LINE
  5
231
100
AcDbEntity
  8
0
100
AcDbLine
 62
7
  6
BYLAYER
 10
10.1375959883
 20
50.3227464977
 11
9.4340683704
 21
50.1342368407
  0
LINE
  5
232
100
AcDbEntity
  8
0
100
AcDbLine
 62
7
  6
BYLAYER
 10
9.4340683701
 20
50.3274220061
 11
10.1375959883
 21
50.5159316632
  0
LINE
  5
233
100
AcDbEntity
  8
0
100
AcDbLine
 62
7
  6
BYLAYER
 10
59.4858321791
 20
62.7330016998
 11
58.4858321793
 21
62.1556514299
  0
LINE
  5
234
100
AcDbEntity
  8
0
100
AcDbLine
 62
7
  6
BYLAYER
 10
58.4858321793
 20
53.9556514305
 11
59.4860056603
 21
53.3782010024
  0
LINE
  5
235
100
AcDbEntity
  8
0
100
AcDbLine
 62
7
  6
BYLAYER
 10
72.0359292621
 20
63.2056514307
 11
73.7812009739
 21
63.2056514307
  0
LINE
  5
236
100
AcDbEntity
  8
0
100
AcDbLine
 62
7
  6
BYLAYER
 10
70.1321787711
 20
63.354699446
 11
71.2363793069
 21
63.354699446
  0
LINE
  5
237
100
AcDbEntity
  8
0
100
AcDbLine
 62
7
  6
BYLAYER
 10
71.336510858
 20
63.4556514307
 11
71.8800803559
 21
63.4556514307
  0
LINE
  5
238
100
AcDbEntity
  8
0
100
AcDbLine
 62
7
  6
BYLAYER
 10
63.7088720753
 20
64.0556514307
 11
69.4264202289
 21
64.0556514307
  0
LINE
  5
239
100
AcDbEntity
  8
0
100
AcDbLine
 62
7
  6
BYLAYER
 10
60.2345932657
 20
64.5556514307
 11
63.2345932656
 21
64.5556514307
  0
LINE
  5
23A
100
AcDbEntity
  8
0
100
AcDbLine
 62
7
  6
BYLAYER
 10
10.2858321793
 20
65.7885563623
 11
10.1375959883
 21
65.7885563623
  0
LINE
  5
23B
100
AcDbEntity
  8
0
100
AcDbLine
 62
7
  6
BYLAYER
 10
9.4340683703
 20
65.9770660202
 11
9.2858321793
 21
65.9770660202
  0
LINE
  5
23C
100
AcDbEntity
  8
0
100
AcDbLine
 62
7
  6
BYLAYER
 10
53.3576377555
 20
68.35565143
 11
16.2115195528
 21
68.35565143
  0
LINE
  5
23D
100
AcDbEntity
  8
0
100
AcDbLine
 62
7
  6
BYLAYER
 10
9.2858321793
 20
69.1342368408
 11
9.4340683703
 21
69.1342368408
  0
LINE
  5
23E
100
AcDbEntity
  8
0
100
AcDbLine
 62
7
  6
BYLAYER
 10
10.1375959883
 20
69.3227464979
 11
10.2858321793
 21
69.3227464979
  0
LINE
  5
23F
100
AcDbEntity
  8
0
100
AcDbLine
 62
7
  6
BYLAYER
 10
15.7971961262
 20
69.3556514307
 11
58.4858321793
 21
69.3556514307
  0
LINE
  5
240
100
AcDbEntity
  8
0
100
AcDbLine
 62
7
  6
BYLAYER
 10
10.2858321793
 20
69.5556514307
 11
10.3847356789
 21
69.5556514307
  0
LINE
  5
241
100
AcDbEntity
  8
0
100
AcDbLine
 62
7
  6
BYLAYER
 10
10.4858321793
 20
69.5556514307
 11
58.2858321793
 21
69.5556514307
  0
LINE
  5
242
100
AcDbEntity
  8
0
100
AcDbLine
 62
7
  6
BYLAYER
 10
15.6576847874
 20
69.4127244884
 11
10.3555809863
 21
69.4239572154
  0
LINE
  5
243
100
AcDbEntity
  8
0
100
AcDbLine
 62
7
  6
BYLAYER
 10
60.2345932631
 20
64.5556513988
 11
58.4858321793
 21
64.9086779416
  0
LINE
  5
244
100
AcDbEntity
  8
0
100
AcDbLine
 62
7
  6
BYLAYER
 10
59.4860056603
 20
53.3782010024
 11
60.2858321798
 21
54.1780275219
  0
LINE
  5
245
100
AcDbEntity
  8
0
100
AcDbLine
 62
7
  6
BYLAYER
 10
60.2858321798
 20
61.9330016991
 11
59.4858321791
 21
62.7330016998
  0
LINE
  5
246
100
AcDbEntity
  8
0
100
AcDbLine
 62
7
  6
BYLAYER
 10
58.2911373583
 20
69.3556514307
 11
58.2911373583
 21
46.7556514307
  0
LINE
  5
247
100
AcDbEntity
  8
0
100
AcDbLine
 62
7
  6
BYLAYER
 10
58.4858321793
 20
46.7556514307
 11
58.4858321793
 21
69.3556514307
  0
LINE
  5
248
100
AcDbEntity
  8
0
100
AcDbLine
 62
7
  6
BYLAYER
 10
60.2345932656
 20
64.5556513987
 11
60.2345932656
 21
61.9330016991
  0
LINE
  5
249
100
AcDbEntity
  8
0
100
AcDbLine
 62
7
  6
BYLAYER
 10
60.2345932656
 20
54.1780275219
 11
60.2345932656
 21
51.555651431
  0
LINE
  5
24A
100
AcDbEntity
  8
0
100
AcDbLine
 62
7
  6
BYLAYER
 10
60.2858321798
 20
54.1780275219
 11
60.2858321798
 21
61.9330016991
  0
LINE
  5
24B
100
AcDbEntity
  8
0
100
AcDbLine
 62
7
  6
BYLAYER
 10
71.2363793071
 20
63.3546994462
 11
71.3365108579
 21
63.4556514307
  0
LINE
  5
24C
100
AcDbEntity
  8
0
100
AcDbLine
 62
7
  6
BYLAYER
 10
74.1222781519
 20
53.0663086596
 11
73.7812009743
 21
52.9056514307
  0
LINE
  5
24D
100
AcDbEntity
  8
0
100
AcDbLine
 62
7
  6
BYLAYER
 10
74.1222781519
 20
63.0449942019
 11
73.7812009743
 21
63.2056514307
  0
LINE
  5
24E
100
AcDbEntity
  8
0
100
AcDbLine
 62
7
  6
BYLAYER
 10
71.2363793071
 20
52.7566034152
 11
71.3365108579
 21
52.6556514307
  0
LINE
  5
24F
100
AcDbEntity
  8
0
100
AcDbLine
 62
7
  6
BYLAYER
 10
10.1375959883
 20
69.3227464981
 11
9.4340683704
 21
69.134236841
  0
LINE
  5
250
100
AcDbEntity
  8
0
100
AcDbLine
 62
7
  6
BYLAYER
 10
9.4340683695
 20
69.3274220058
 11
10.2858321793
 21
69.5556514308
  0
LINE
  5
251
100
AcDbEntity
  8
0
100
AcDbLine
 62
7
  6
BYLAYER
 10
63.2345932656
 20
64.5556390808
 11
63.2345932656
 21
51.5556637806
  0
LINE
  5
252
100
AcDbEntity
  8
0
100
AcDbLine
 62
7
  6
BYLAYER
 10
63.7088720753
 20
52.0556514307
 11
63.7088720753
 21
64.0556514307
  0
LINE
  5
253
100
AcDbEntity
  8
0
100
AcDbLine
 62
7
  6
BYLAYER
 10
70.1321787711
 20
52.7566034154
 11
69.426420229
 21
52.0556514308
  0
LINE
  5
254
100
AcDbEntity
  8
0
100
AcDbLine
 62
7
  6
BYLAYER
 10
70.1321787711
 20
63.354699446
 11
69.426420229
 21
64.0556514306
  0
LINE
  5
255
100
AcDbEntity
  8
0
100
AcDbLine
 62
7
  6
BYLAYER
 10
69.4264202291
 20
64.0556514307
 11
69.4264202291
 21
52.0556514307
  0
LINE
  5
256
100
AcDbEntity
  8
0
100
AcDbLine
 62
7
  6
BYLAYER
 10
70.1321787711
 20
52.7566034154
 11
70.1321787711
 21
63.354699446
  0
LINE
  5
257
100
AcDbEntity
  8
0
100
AcDbLine
 62
7
  6
BYLAYER
 10
71.2363793073
 20
63.354699446
 11
71.2363793073
 21
52.7566034154
  0
LINE
  5
258
100
AcDbEntity
  8
0
100
AcDbLine
 62
7
  6
BYLAYER
 10
71.3365108579
 20
52.6556514307
 11
71.3365108579
 21
63.4556514307
  0
LINE
  5
259
100
AcDbEntity
  8
0
100
AcDbLine
 62
7
  6
BYLAYER
 10
71.8800803559
 20
63.4556514307
 11
71.8800803561
 21
52.6556514307
  0
LINE
  5
25A
100
AcDbEntity
  8
0
100
AcDbLine
 62
7
  6
BYLAYER
 10
72.0359292621
 20
63.2995177435
 11
72.0359292621
 21
52.8117851179
  0
LINE
  5
25B
100
AcDbEntity
  8
0
100
AcDbLine
 62
7
  6
BYLAYER
 10
73.7812009739
 20
63.2056514307
 11
73.7812009741
 21
52.9056514307
  0
LINE
  5
25C
100
AcDbEntity
  8
0
100
AcDbLine
 62
7
  6
BYLAYER
 10
74.1222781519
 20
63.0449942019
 11
74.1222781519
 21
53.0663086596
  0
LINE
  5
25D
100
AcDbEntity
  8
0
100
AcDbLine
 62
7
  6
BYLAYER
 10
74.2342599893
 20
62.8681892117
 11
74.2342599893
 21
53.2431136497
  0
ARC
  5
25E
100
AcDbEntity
  8
0
100
AcDbCircle
 62
7
  6
BYLAYER
 10
39.0001736168
 20
58.0556514318
 40
25.0082537181
100
AcDbArc
 50
155.6780162516
 51
204.3219837588
  0
ARC
  5
25F
100
AcDbEntity
  8
0
100
AcDbCircle
 62
7
  6
BYLAYER
 10
30.5698872112
 20
58.0559455688
 40
25.0068017879
100
AcDbArc
 50
335.6772771092
 51
24.3227228872
  0
ARC
  5
260
100
AcDbEntity
  8
0
100
AcDbCircle
 62
7
  6
BYLAYER
 10
10.6483428745
 20
56.9625340373
 40
13.4201359784
100
AcDbArc
 50
67.4390345245
 51
68.0798937686
  0
ARC
  5
261
100
AcDbEntity
  8
0
100
AcDbCircle
 62
7
  6
BYLAYER
 10
9.0561754597
 20
69.5612363108
 40
1.1074058678
100
AcDbArc
 50
347.5634104695
 51
348.4860160974
  0
ARC
  5
262
100
AcDbEntity
  8
0
100
AcDbCircle
 62
7
  6
BYLAYER
 10
9.0561958703
 20
46.5500710358
 40
1.1073849725
100
AcDbArc
 50
11.5139689407
 51
12.4365903445
  0
ARC
  5
263
100
AcDbEntity
  8
0
100
AcDbCircle
 62
7
  6
BYLAYER
 10
63.7088720753
 20
51.581372621
 40
0.4742788097
100
AcDbArc
 50
90.0
 51
180.0
  0
ARC
  5
264
100
AcDbEntity
  8
0
100
AcDbCircle
 62
7
  6
BYLAYER
 10
63.7088720753
 20
64.5299302404
 40
0.4742788097
100
AcDbArc
 50
180.0
 51
270.0
  0
ARC
  5
265
100
AcDbEntity
  8
0
100
AcDbCircle
 62
7
  6
BYLAYER
 10
10.3881178891
 20
46.8534284778
 40
0.2632066724
100
AcDbArc
 50
212.9437624047
 51
219.1785356172
  0
ARC
  5
266
100
AcDbEntity
  8
0
100
AcDbCircle
 62
7
  6
BYLAYER
 10
10.3881022484
 20
69.2578862286
 40
0.2631869014
100
AcDbArc
 50
140.8268966258
 51
147.062590286
  0
ARC
  5
267
100
AcDbEntity
  8
0
100
AcDbCircle
 62
7
  6
BYLAYER
 10
10.0858321793
 20
50.7091168284
 40
0.2
100
AcDbArc
 50
285.0
 51
359.9999999714
  0
ARC
  5
268
100
AcDbEntity
  8
0
100
AcDbCircle
 62
7
  6
BYLAYER
 10
9.4858321793
 20
50.1342368408
 40
0.2
100
AcDbArc
 50
105.0
 51
180.0
  0
ARC
  5
269
100
AcDbEntity
  8
0
100
AcDbCircle
 62
7
  6
BYLAYER
 10
9.4858321793
 20
46.9770660207
 40
0.2
100
AcDbArc
 50
180.0
 51
255.0000001067
  0
ARC
  5
26A
100
AcDbEntity
  8
0
100
AcDbCircle
 62
7
  6
BYLAYER
 10
58.2858321793
 20
69.3556514307
 40
0.2
100
AcDbArc
 50
0.0
 51
90.0
  0
ARC
  5
26B
100
AcDbEntity
  8
0
100
AcDbCircle
 62
7
  6
BYLAYER
 10
58.2858321793
 20
46.7556514307
 40
0.2
100
AcDbArc
 50
270.0
 51
360.0
  0
ARC
  5
26C
100
AcDbEntity
  8
0
100
AcDbCircle
 62
7
  6
BYLAYER
 10
10.4858321793
 20
46.7556514307
 40
0.2
100
AcDbArc
 50
180.0
 51
270.0
  0
ARC
  5
26D
100
AcDbEntity
  8
0
100
AcDbCircle
 62
7
  6
BYLAYER
 10
10.4858321793
 20
69.3556514307
 40
0.2
100
AcDbArc
 50
90.0
 51
180.0
  0
ARC
  5
26E
100
AcDbEntity
  8
0
100
AcDbCircle
 62
7
  6
BYLAYER
 10
9.4858321793
 20
69.1342368408
 40
0.2
100
AcDbArc
 50
105.0
 51
180.0
  0
ARC
  5
26F
100
AcDbEntity
  8
0
100
AcDbCircle
 62
7
  6
BYLAYER
 10
10.0858321793
 20
65.402186033
 40
0.2
100
AcDbArc
 50
0.0
 51
75.0000000058
  0
ARC
  5
270
100
AcDbEntity
  8
0
100
AcDbCircle
 62
7
  6
BYLAYER
 10
9.4858321793
 20
65.9770660206
 40
0.2
100
AcDbArc
 50
180.0
 51
255.0000000955
  0
ARC
  5
271
100
AcDbEntity
  8
0
100
AcDbCircle
 62
7
  6
BYLAYER
 10
74.0391277196
 20
53.2428380008
 40
0.1951322697
100
AcDbArc
 50
295.2217936783
 51
360.0
  0
ARC
  5
272
100
AcDbEntity
  8
0
100
AcDbCircle
 62
7
  6
BYLAYER
 10
74.0391277196
 20
62.8684648607
 40
0.1951322697
100
AcDbArc
 50
0.0
 51
64.7782063217
  0
ARC
  5
273
100
AcDbEntity
  8
0
100
AcDbCircle
 62
7
  6
BYLAYER
 10
71.8800803563
 20
52.8115003366
 40
0.1558489058
100
AcDbArc
 50
270.0
 51
360.0
  0
ARC
  5
274
100
AcDbEntity
  8
0
100
AcDbCircle
 62
7
  6
BYLAYER
 10
71.8800803563
 20
63.2998025249
 40
0.1558489058
100
AcDbArc
 50
0.0
 51
90.0
  0
SPLINE
  5
275
100
AcDbEntity
  8
0
100
AcDbSpline
 62
7
  6
BYLAYER
 70
0
 71
3
 72
13
 73
9
 74
0
 42
0.0000001
 43
0.0000001
 44
0.0000000001
 40
0.0
 40
0.0
 40
0.0
 40
0.0
 40
0.3623023138
 40
0.5253766471
 40
0.6691854925
 40
0.7897248098
 40
0.8845369528
 40
1.0
 40
1.0
 40
1.0
 40
1.0
 10
9.4340683702
 20
50.1342368408
 30
0.0
 10
9.4282084745
 20
50.1576764238
 30
0.0
 10
9.4211694457
 20
50.1920653749
 30
0.0
 10
9.4159841498
 20
50.2364508621
 30
0.0
 10
9.4145280053
 20
50.2648478779
 30
0.0
 10
9.4156622086
 20
50.2891134814
 30
0.0
 10
9.4189999171
 20
50.3100573716
 30
0.0
 10
9.4266308178
 20
50.3254291198
 30
0.0
 10
9.4340683701
 20
50.327422006
 30
0.0
  0
SPLINE
  5
276
100
AcDbEntity
  8
0
100
AcDbSpline
 62
7
  6
BYLAYER
 70
0
 71
3
 72
9
 73
5
 74
0
 42
0.0000001
 43
0.0000001
 44
0.0000000001
 40
0.0
 40
0.0
 40
0.0
 40
0.0
 40
0.2734758122
 40
1.0
 40
1.0
 40
1.0
 40
1.0
 10
10.3851947153
 20
46.5554845277
 30
0.0
 10
10.3691293622
 20
46.5614211409
 30
0.0
 10
10.3112884237
 20
46.5853296172
 30
0.0
 10
10.2566579353
 20
46.6182054936
 30
0.0
 10
10.2223281117
 20
46.6480677996
 30
0.0
  0
SPLINE
  5
277
100
AcDbEntity
  8
0
100
AcDbSpline
 62
7
  6
BYLAYER
 70
0
 71
3
 72
8
 73
4
 74
0
 42
0.0000001
 43
0.0000001
 44
0.0000000001
 40
0.0
 40
0.0
 40
0.0
 40
0.0
 40
1.0
 40
1.0
 40
1.0
 40
1.0
 10
10.2223281117
 20
46.6480677996
 30
0.0
 10
10.2085759912
 20
46.6600302854
 30
0.0
 10
10.195590931
 20
46.6730142373
 30
0.0
 10
10.1840850229
 20
46.6871505721
 30
0.0
  0
SPLINE
  5
278
100
AcDbEntity
  8
0
100
AcDbSpline
 62
7
  6
BYLAYER
 70
0
 71
3
 72
9
 73
5
 74
0
 42
0.0000001
 43
0.0000001
 44
0.0000000001
 40
0.0
 40
0.0
 40
0.0
 40
0.0
 40
0.2362618135
 40
1.0
 40
1.0
 40
1.0
 40
1.0
 10
10.167233601
 20
46.7102925856
 30
0.0
 10
10.1643966381
 20
46.7146772603
 30
0.0
 10
10.1529341468
 20
46.7335609402
 30
0.0
 10
10.14467829
 20
46.7545728802
 30
0.0
 10
10.1413103454
 20
46.7711154928
 30
0.0
  0
SPLINE
  5
279
100
AcDbEntity
  8
0
100
AcDbSpline
 62
7
  6
BYLAYER
 70
0
 71
3
 72
18
 73
14
 74
0
 42
0.0000001
 43
0.0000001
 44
0.0000000001
 40
0.0
 40
0.0
 40
0.0
 40
0.0
 40
0.0054893836
 40
0.0201217992
 40
0.0440417351
 40
0.0771188696
 40
0.119129425
 40
0.1696011328
 40
0.2937812642
 40
0.4450818076
 40
0.6178229443
 40
0.8055733498
 40
1.0
 40
1.0
 40
1.0
 40
1.0
 10
58.2858321866
 20
69.5556514307
 30
0.0
 10
58.2861986365
 20
69.555651411
 30
0.0
 10
58.2864820307
 20
69.5537650597
 30
0.0
 10
58.2870099781
 20
69.5513874592
 30
0.0
 10
58.2874351463
 20
69.5463348387
 30
0.0
 10
58.2879269807
 20
69.5398692263
 30
0.0
 10
58.2883765243
 20
69.531451143
 30
0.0
 10
58.2890070008
 20
69.5170233115
 30
0.0
 10
58.2896746906
 20
69.4952595924
 30
0.0
 10
58.2903075683
 20
69.4653502056
 30
0.0
 10
58.2907806352
 20
69.4311860745
 30
0.0
 10
58.2910707518
 20
69.3941434398
 30
0.0
 10
58.2911373576
 20
69.3686305983
 30
0.0
 10
58.2911373576
 20
69.3556514307
 30
0.0
  0
SPLINE
  5
27A
100
AcDbEntity
  8
0
100
AcDbSpline
 62
7
  6
BYLAYER
 70
0
 71
3
 72
18
 73
14
 74
0
 42
0.0000001
 43
0.0000001
 44
0.0000000001
 40
0.0
 40
0.0
 40
0.0
 40
0.0
 40
0.1944268192
 40
0.3821773738
 40
0.5549186201
 40
0.7062192191
 40
0.8303993398
 40
0.8808710146
 40
0.9228815165
 40
0.9559585778
 40
0.9798784226
 40
0.9945107296
 40
1.0
 40
1.0
 40
1.0
 40
1.0
 10
58.2911373576
 20
46.7556514307
 30
0.0
 10
58.2911373576
 20
46.7426722516
 30
0.0
 10
58.2910707517
 20
46.7171593883
 30
0.0
 10
58.2907806346
 20
46.6801167243
 30
0.0
 10
58.2903075669
 20
46.6459525714
 30
0.0
 10
58.2896746884
 20
46.616043174
 30
0.0
 10
58.2890069971
 20
46.5942794529
 30
0.0
 10
58.2883765204
 20
46.5798516289
 30
0.0
 10
58.2879269745
 20
46.5714335534
 30
0.0
 10
58.287435144
 20
46.5649679627
 30
0.0
 10
58.2870099653
 20
46.5599153442
 30
0.0
 10
58.2864820372
 20
46.5575377915
 30
0.0
 10
58.2861986214
 20
46.5556514307
 30
0.0
 10
58.285832179
 20
46.5556514307
 30
0.0
  0
SPLINE
  5
27B
100
AcDbEntity
  8
0
100
AcDbSpline
 62
7
  6
BYLAYER
 70
0
 71
3
 72
17
 73
13
 74
0
 42
0.0000001
 43
0.0000001
 44
0.0000000001
 40
0.0
 40
0.0
 40
0.0
 40
0.0
 40
0.0194038702
 40
0.0385249817
 40
0.0613184512
 40
0.0906994339
 40
0.1747493205
 40
0.2937588986
 40
0.4449551717
 40
0.6198282046
 40
0.8079084887
 40
1.0
 40
1.0
 40
1.0
 40
1.0
 10
10.1375959884
 20
50.5159316632
 30
0.0
 10
10.1388686455
 20
50.5162726706
 30
0.0
 10
10.1415798096
 20
50.5165196045
 30
0.0
 10
10.1455268252
 20
50.5147518698
 30
0.0
 10
10.1487676743
 20
50.5110216162
 30
0.0
 10
10.1528022213
 20
50.5026362553
 30
0.0
 10
10.1558443147
 20
50.4869661272
 30
0.0
 10
10.1570929332
 20
50.4629368224
 30
0.0
 10
10.1554479468
 20
50.4327053021
 30
0.0
 10
10.151493729
 20
50.3980146088
 30
0.0
 10
10.1456418588
 20
50.3607704381
 30
0.0
 10
10.1405155398
 20
50.3354588489
 30
0.0
 10
10.1375959884
 20
50.322746498
 30
0.0
  0
SPLINE
  5
27C
100
AcDbEntity
  8
0
100
AcDbSpline
 62
7
  6
BYLAYER
 70
0
 71
3
 72
10
 73
6
 74
0
 42
0.0000001
 43
0.0000001
 44
0.0000000001
 40
0.0
 40
0.0
 40
0.0
 40
0.0
 40
0.3490265524
 40
0.635628684
 40
1.0
 40
1.0
 40
1.0
 40
1.0
 10
9.4340683702
 20
46.7838808555
 30
0.0
 10
9.4266308179
 20
46.7858737417
 30
0.0
 10
9.4189976526
 20
46.8012504746
 30
0.0
 10
9.4156693578
 20
46.8221736434
 30
0.0
 10
9.4149623152
 20
46.8367826106
 30
0.0
 10
9.4149623152
 20
46.8448210542
 30
0.0
  0
SPLINE
  5
27D
100
AcDbEntity
  8
0
100
AcDbSpline
 62
7
  6
BYLAYER
 70
0
 71
3
 72
9
 73
5
 74
0
 42
0.0000001
 43
0.0000001
 44
0.0000000001
 40
0.0
 40
0.0
 40
0.0
 40
0.0
 40
0.4584395017
 40
1.0
 40
1.0
 40
1.0
 40
1.0
 10
9.4149623152
 20
46.8448210542
 30
0.0
 10
9.4149623152
 20
46.8652736955
 30
0.0
 10
9.4193233149
 20
46.9098547722
 30
0.0
 10
9.4282084745
 20
46.9536264377
 30
0.0
 10
9.4340683702
 20
46.9770660207
 30
0.0
  0
SPLINE
  5
27E
100
AcDbEntity
  8
0
100
AcDbSpline
 62
7
  6
BYLAYER
 70
0
 71
3
 72
18
 73
14
 74
0
 42
0.0000001
 43
0.0000001
 44
0.0000000001
 40
0.0
 40
0.0
 40
0.0
 40
0.0
 40
0.1944268192
 40
0.3821773738
 40
0.5549186201
 40
0.7062192191
 40
0.8303993398
 40
0.8808710146
 40
0.9228815165
 40
0.9559585778
 40
0.9798784226
 40
0.9945107297
 40
1.0
 40
1.0
 40
1.0
 40
1.0
 10
15.797198759
 20
46.7556514307
 30
0.0
 10
15.79719876
 20
46.7426722516
 30
0.0
 10
15.7971321543
 20
46.7171593883
 30
0.0
 10
15.7968420358
 20
46.6801167243
 30
0.0
 10
15.7963689679
 20
46.6459525714
 30
0.0
 10
15.7957360898
 20
46.616043174
 30
0.0
 10
15.7950683986
 20
46.5942794529
 30
0.0
 10
15.7944379218
 20
46.5798516289
 30
0.0
 10
15.7939883759
 20
46.5714335534
 30
0.0
 10
15.7934965454
 20
46.5649679627
 30
0.0
 10
15.7930713666
 20
46.5599153442
 30
0.0
 10
15.7925434386
 20
46.5575377915
 30
0.0
 10
15.7922600228
 20
46.5556514307
 30
0.0
 10
15.7918935804
 20
46.5556514307
 30
0.0
  0
SPLINE
  5
27F
100
AcDbEntity
  8
0
100
AcDbSpline
 62
7
  6
BYLAYER
 70
0
 71
3
 72
11
 73
7
 74
0
 42
0.0000001
 43
0.0000001
 44
0.0000000001
 40
0.0
 40
0.0
 40
0.0
 40
0.0
 40
0.2882724029
 40
0.5513507966
 40
0.7854793149
 40
1.0
 40
1.0
 40
1.0
 40
1.0
 10
15.6576851243
 20
46.6985775625
 30
0.0
 10
15.6618504891
 20
46.6789439477
 30
0.0
 10
15.6743281461
 20
46.6421587301
 30
0.0
 10
15.7050419889
 20
46.5960083876
 30
0.0
 10
15.7452991935
 20
46.5652058202
 30
0.0
 10
15.7769493337
 20
46.5578705931
 30
0.0
 10
15.7918839869
 20
46.5580501269
 30
0.0
  0
SPLINE
  5
280
100
AcDbEntity
  8
0
100
AcDbSpline
 62
7
  6
BYLAYER
 70
0
 71
3
 72
9
 73
5
 74
0
 42
0.0000001
 43
0.0000001
 44
0.0000000001
 40
0.0
 40
0.0
 40
0.0
 40
0.0
 40
0.2770804496
 40
1.0
 40
1.0
 40
1.0
 40
1.0
 10
15.7971992823
 20
46.7556514696
 30
0.0
 10
15.7843905476
 20
46.7503468679
 30
0.0
 10
15.7381396985
 20
46.731258974
 30
0.0
 10
15.6918303736
 20
46.7123106931
 30
0.0
 10
15.6582619379
 20
46.6988377625
 30
0.0
  0
SPLINE
  5
281
100
AcDbEntity
  8
0
100
AcDbSpline
 62
7
  6
BYLAYER
 70
0
 71
3
 72
11
 73
7
 74
0
 42
0.0000001
 43
0.0000001
 44
0.0000000001
 40
0.0
 40
0.0
 40
0.0
 40
0.0
 40
0.2872787857
 40
0.5496840025
 40
0.7844886823
 40
1.0
 40
1.0
 40
1.0
 40
1.0
 10
10.3555807511
 20
46.6873455535
 30
0.0
 10
10.3602121439
 20
46.6687723248
 30
0.0
 10
10.3727105697
 20
46.6339548784
 30
0.0
 10
10.4025985771
 20
46.5902016395
 30
0.0
 10
10.441279065
 20
46.5609573314
 30
0.0
 10
10.4714595879
 20
46.553453842
 30
0.0
 10
10.4858183336
 20
46.553267874
 30
0.0
  0
SPLINE
  5
282
100
AcDbEntity
  8
0
100
AcDbSpline
 62
7
  6
BYLAYER
 70
0
 71
3
 72
11
 73
7
 74
0
 42
0.0000001
 43
0.0000001
 44
0.0000000001
 40
0.0
 40
0.0
 40
0.0
 40
0.0
 40
0.3160454017
 40
0.5841203873
 40
0.8067962301
 40
1.0
 40
1.0
 40
1.0
 40
1.0
 10
10.3549706039
 20
46.6870397302
 30
0.0
 10
10.3449054782
 20
46.6909903538
 30
0.0
 10
10.3267385672
 20
46.6995606866
 30
0.0
 10
10.3042730212
 20
46.715976262
 30
0.0
 10
10.2895460797
 20
46.734706339
 30
0.0
 10
10.2858321793
 20
46.7490414576
 30
0.0
 10
10.2858321793
 20
46.7556514311
 30
0.0
  0
SPLINE
  5
283
100
AcDbEntity
  8
0
100
AcDbSpline
 62
7
  6
BYLAYER
 70
0
 71
3
 72
11
 73
7
 74
0
 42
0.0000001
 43
0.0000001
 44
0.0000000001
 40
0.0
 40
0.0
 40
0.0
 40
0.0
 40
0.2872795656
 40
0.5496841961
 40
0.7844879721
 40
1.0
 40
1.0
 40
1.0
 40
1.0
 10
10.3555809863
 20
69.4239572154
 30
0.0
 10
10.3602123593
 20
69.4425305014
 30
0.0
 10
10.3727109392
 20
69.477347867
 30
0.0
 10
10.4025985033
 20
69.5211013831
 30
0.0
 10
10.441279087
 20
69.5503454471
 30
0.0
 10
10.4714594993
 20
69.5578492238
 30
0.0
 10
10.4858182909
 20
69.5580352349
 30
0.0
  0
SPLINE
  5
284
100
AcDbEntity
  8
0
100
AcDbSpline
 62
7
  6
BYLAYER
 70
0
 71
3
 72
11
 73
7
 74
0
 42
0.0000001
 43
0.0000001
 44
0.0000000001
 40
0.0
 40
0.0
 40
0.0
 40
0.0
 40
0.1932040245
 40
0.4158800091
 40
0.6839548335
 40
1.0
 40
1.0
 40
1.0
 40
1.0
 10
10.2858321793
 20
69.3556514297
 30
0.0
 10
10.2858321793
 20
69.362261377
 30
0.0
 10
10.2895460458
 20
69.3765964342
 30
0.0
 10
10.3042728762
 20
69.3953264469
 30
0.0
 10
10.3267382532
 20
69.4117419888
 30
0.0
 10
10.3449050439
 20
69.4203123012
 30
0.0
 10
10.3549701065
 20
69.424262907
 30
0.0
  0
SPLINE
  5
285
100
AcDbEntity
  8
0
100
AcDbSpline
 62
7
  6
BYLAYER
 70
0
 71
3
 72
11
 73
7
 74
0
 42
0.0000001
 43
0.0000001
 44
0.0000000001
 40
0.0
 40
0.0
 40
0.0
 40
0.0
 40
0.3415507025
 40
0.6339433731
 40
0.858131102
 40
1.0
 40
1.0
 40
1.0
 40
1.0
 10
10.1412959392
 20
46.7711124516
 30
0.0
 10
10.1570971596
 20
46.7707454828
 30
0.0
 10
10.1864129519
 20
46.7697448648
 30
0.0
 10
10.2260824857
 20
46.7673864584
 30
0.0
 10
10.2563524774
 20
46.7642660361
 30
0.0
 10
10.2731827802
 20
46.7616318511
 30
0.0
 10
10.2794514169
 20
46.7596813609
 30
0.0
  0
SPLINE
  5
286
100
AcDbEntity
  8
0
100
AcDbSpline
 62
7
  6
BYLAYER
 70
0
 71
3
 72
9
 73
5
 74
0
 42
0.0000001
 43
0.0000001
 44
0.0000000001
 40
0.0
 40
0.0
 40
0.0
 40
0.0
 40
0.6665340802
 40
1.0
 40
1.0
 40
1.0
 40
1.0
 10
10.2794514169
 20
46.7596813609
 30
0.0
 10
10.2810988521
 20
46.7591687605
 30
0.0
 10
10.2834029848
 20
46.7584782757
 30
0.0
 10
10.2858321784
 20
46.7565146161
 30
0.0
 10
10.2858321793
 20
46.7556514308
 30
0.0
  0
SPLINE
  5
287
100
AcDbEntity
  8
0
100
AcDbSpline
 62
7
  6
BYLAYER
 70
0
 71
3
 72
9
 73
5
 74
0
 42
0.0000001
 43
0.0000001
 44
0.0000000001
 40
0.0
 40
0.0
 40
0.0
 40
0.0
 40
0.2773171895
 40
1.0
 40
1.0
 40
1.0
 40
1.0
 10
10.1413105751
 20
69.3401873554
 30
0.0
 10
10.1425340426
 20
69.3461967727
 30
0.0
 10
10.1482751104
 20
69.3676071928
 30
0.0
 10
10.1585384835
 20
69.3875679303
 30
0.0
 10
10.1672186845
 20
69.4009868794
 30
0.0
  0
SPLINE
  5
288
100
AcDbEntity
  8
0
100
AcDbSpline
 62
7
  6
BYLAYER
 70
0
 71
3
 72
8
 73
4
 74
0
 42
0.0000001
 43
0.0000001
 44
0.0000000001
 40
0.0
 40
0.0
 40
0.0
 40
0.0
 40
1.0
 40
1.0
 40
1.0
 40
1.0
 10
10.1840689455
 20
69.4241323004
 30
0.0
 10
10.1960177378
 20
69.4388155934
 30
0.0
 10
10.2095596232
 20
69.452258598
 30
0.0
 10
10.2239109303
 20
69.4646041524
 30
0.0
  0
SPLINE
  5
289
100
AcDbEntity
  8
0
100
AcDbSpline
 62
7
  6
BYLAYER
 70
0
 71
3
 72
9
 73
5
 74
0
 42
0.0000001
 43
0.0000001
 44
0.0000000001
 40
0.0
 40
0.0
 40
0.0
 40
0.0
 40
0.2334781991
 40
1.0
 40
1.0
 40
1.0
 40
1.0
 10
10.2239109303
 20
69.4646041524
 30
0.0
 10
10.2348765917
 20
69.4740372421
 30
0.0
 10
10.2841499309
 20
69.5117521076
 30
0.0
 10
10.3406502674
 20
69.5393584927
 30
0.0
 10
10.3851950012
 20
69.5558184525
 30
0.0
  0
SPLINE
  5
28A
100
AcDbEntity
  8
0
100
AcDbSpline
 62
7
  6
BYLAYER
 70
0
 71
3
 72
17
 73
13
 74
0
 42
0.0000001
 43
0.0000001
 44
0.0000000001
 40
0.0
 40
0.0
 40
0.0
 40
0.0
 40
0.1196615639
 40
0.2393730084
 40
0.359923039
 40
0.482307013
 40
0.6074380858
 40
0.6712139401
 40
0.7357738726
 40
0.8010407601
 40
0.8669154977
 40
1.0
 40
1.0
 40
1.0
 40
1.0
 10
15.797090521
 20
69.3556951653
 30
0.0
 10
15.4422142261
 20
68.4981848157
 30
0.0
 10
14.7894761572
 20
66.7581580599
 30
0.0
 10
14.0239008265
 20
64.0701504347
 30
0.0
 10
13.5135879244
 20
61.2992779681
 30
0.0
 10
13.3028558908
 20
58.4465450886
 30
0.0
 10
13.4047535094
 20
56.0285132954
 30
0.0
 10
13.656354873
 20
54.0780435988
 30
0.0
 10
13.9311419579
 20
52.6011300885
 30
0.0
 10
14.2865243385
 20
51.1248463798
 30
0.0
 10
14.8652914475
 20
49.15839435
 30
0.0
 10
15.4024067392
 20
47.7093076437
 30
0.0
 10
15.797093227
 20
46.7556076941
 30
0.0
  0
SPLINE
  5
28B
100
AcDbEntity
  8
0
100
AcDbSpline
 62
7
  6
BYLAYER
 70
0
 71
3
 72
17
 73
13
 74
0
 42
0.0000001
 43
0.0000001
 44
0.0000000001
 40
0.0
 40
0.0
 40
0.0
 40
0.0
 40
0.1329770436
 40
0.1988318752
 40
0.264099898
 40
0.3286787165
 40
0.3924872612
 40
0.5177056509
 40
0.6401693468
 40
0.7607558148
 40
0.8804392439
 40
1.0
 40
1.0
 40
1.0
 40
1.0
 10
15.6581261089
 20
46.698782529
 30
0.0
 10
15.2634591593
 20
47.6568687569
 30
0.0
 10
14.7265180328
 20
49.1127475893
 30
0.0
 10
14.1481259006
 20
51.0883884728
 30
0.0
 10
13.7929276185
 20
52.5721015882
 30
0.0
 10
13.5182892981
 20
54.0566831229
 30
0.0
 10
13.2668169338
 20
56.0176351215
 30
0.0
 10
13.1650023028
 20
58.4486240337
 30
0.0
 10
13.3755599216
 20
61.3164648448
 30
0.0
 10
13.8855125374
 20
64.1016100636
 30
0.0
 10
14.6506460413
 20
66.8027188076
 30
0.0
 10
15.3032770789
 20
68.5510965287
 30
0.0
 10
15.6581233931
 20
69.4125205751
 30
0.0
  0
SPLINE
  5
28C
100
AcDbEntity
  8
0
100
AcDbSpline
 62
7
  6
BYLAYER
 70
0
 71
3
 72
11
 73
7
 74
0
 42
0.0000001
 43
0.0000001
 44
0.0000000001
 40
0.0
 40
0.0
 40
0.0
 40
0.0
 40
0.2882712805
 40
0.5513505929
 40
0.7854804824
 40
1.0
 40
1.0
 40
1.0
 40
1.0
 10
15.6576847874
 20
69.4127244884
 30
0.0
 10
15.6618501101
 20
69.4323579997
 30
0.0
 10
15.6743274062
 20
69.4691432953
 30
0.0
 10
15.7050414086
 20
69.5152934499
 30
0.0
 10
15.7452981044
 20
69.5460967127
 30
0.0
 10
15.7769482391
 20
69.5534318968
 30
0.0
 10
15.7918827889
 20
69.5532524938
 30
0.0
  0
SPLINE
  5
28D
100
AcDbEntity
  8
0
100
AcDbSpline
 62
7
  6
BYLAYER
 70
0
 71
3
 72
18
 73
14
 74
0
 42
0.0000001
 43
0.0000001
 44
0.0000000001
 40
0.0
 40
0.0
 40
0.0
 40
0.0
 40
0.1944266523
 40
0.3821770966
 40
0.5549183129
 40
0.7062189208
 40
0.8303990178
 40
0.880870686
 40
0.922881218
 40
0.9559583344
 40
0.9798782402
 40
0.9945106277
 40
1.0
 40
1.0
 40
1.0
 40
1.0
 10
15.7971961408
 20
69.3556514307
 30
0.0
 10
15.7971961413
 20
69.3686305984
 30
0.0
 10
15.7971295356
 20
69.3941434428
 30
0.0
 10
15.7968394183
 20
69.4311860856
 30
0.0
 10
15.7963663508
 20
69.4653502289
 30
0.0
 10
15.7957334731
 20
69.4952596231
 30
0.0
 10
15.795065783
 20
69.5170233415
 30
0.0
 10
15.7944353062
 20
69.5314511666
 30
0.0
 10
15.7939857627
 20
69.5398692444
 30
0.0
 10
15.7934939292
 20
69.5463348523
 30
0.0
 10
15.7930687606
 20
69.551387467
 30
0.0
 10
15.7925408147
 20
69.5537650646
 30
0.0
 10
15.792257419
 20
69.555651411
 30
0.0
 10
15.7918909698
 20
69.5556514307
 30
0.0
  0
SPLINE
  5
28E
100
AcDbEntity
  8
0
100
AcDbSpline
 62
7
  6
BYLAYER
 70
0
 71
3
 72
9
 73
5
 74
0
 42
0.0000001
 43
0.0000001
 44
0.0000000001
 40
0.0
 40
0.0
 40
0.0
 40
0.0
 40
0.2441290106
 40
1.0
 40
1.0
 40
1.0
 40
1.0
 10
9.422567612
 20
65.9227482637
 30
0.0
 10
9.4233329914
 20
65.9272017398
 30
0.0
 10
9.4266532672
 20
65.9454119158
 30
0.0
 10
9.4306750583
 20
65.9634927734
 30
0.0
 10
9.4340683701
 20
65.9770660207
 30
0.0
  0
SPLINE
  5
28F
100
AcDbEntity
  8
0
100
AcDbSpline
 62
7
  6
BYLAYER
 70
0
 71
3
 72
9
 73
5
 74
0
 42
0.0000001
 43
0.0000001
 44
0.0000000001
 40
0.0
 40
0.0
 40
0.0
 40
0.0
 40
0.2988452946
 40
1.0
 40
1.0
 40
1.0
 40
1.0
 10
9.422567612
 20
69.3160256628
 30
0.0
 10
9.4232758081
 20
69.3175033853
 30
0.0
 10
9.425871859
 20
69.3222750344
 30
0.0
 10
9.4303547283
 20
69.3264269386
 30
0.0
 10
9.43406837
 20
69.3274220059
 30
0.0
  0
SPLINE
  5
290
100
AcDbEntity
  8
0
100
AcDbSpline
 62
7
  6
BYLAYER
 70
0
 71
3
 72
11
 73
7
 74
0
 42
0.0000001
 43
0.0000001
 44
0.0000000001
 40
0.0
 40
0.0
 40
0.0
 40
0.0
 40
0.3220942472
 40
0.6108102707
 40
0.8417184194
 40
1.0
 40
1.0
 40
1.0
 40
1.0
 10
9.4340683701
 20
69.1342368407
 30
0.0
 10
9.4292722735
 20
69.1534212272
 30
0.0
 10
9.4215299166
 20
69.1901328913
 30
0.0
 10
9.4149927533
 20
69.2415622694
 30
0.0
 10
9.4145018258
 20
69.2830678776
 30
0.0
 10
9.4183678508
 20
69.3072624388
 30
0.0
 10
9.422567612
 20
69.3160256628
 30
0.0
  0
SPLINE
  5
291
100
AcDbEntity
  8
0
100
AcDbSpline
 62
7
  6
BYLAYER
 70
0
 71
3
 72
12
 73
8
 74
0
 42
0.0000001
 43
0.0000001
 44
0.0000000001
 40
0.0
 40
0.0
 40
0.0
 40
0.0
 40
0.0290626938
 40
0.0828962848
 40
0.2785639994
 40
0.5885137798
 40
1.0
 40
1.0
 40
1.0
 40
1.0
 10
10.2858321793
 20
69.3556514307
 30
0.0
 10
10.2858321789
 20
69.3549574618
 30
0.0
 10
10.2842061173
 20
69.3533166278
 30
0.0
 10
10.2781570419
 20
69.350994463
 30
0.0
 10
10.2648518721
 20
69.3482152339
 30
0.0
 10
10.2432211262
 20
69.3455535342
 30
0.0
 10
10.2260139652
 20
69.34412924
 30
0.0
 10
10.2162118286
 20
69.3434504927
 30
0.0
  0
SPLINE
  5
292
100
AcDbEntity
  8
0
100
AcDbSpline
 62
7
  6
BYLAYER
 70
0
 71
3
 72
9
 73
5
 74
0
 42
0.0000001
 43
0.0000001
 44
0.0000000001
 40
0.0
 40
0.0
 40
0.0
 40
0.0
 40
0.2268912999
 40
1.0
 40
1.0
 40
1.0
 40
1.0
 10
10.2162118286
 20
69.3434504927
 30
0.0
 10
10.2105538094
 20
69.3430587042
 30
0.0
 10
10.1856032545
 20
69.3415266061
 30
0.0
 10
10.1606160139
 20
69.3406391047
 30
0.0
 10
10.1412959418
 20
69.3401904107
 30
0.0
  0
SPLINE
  5
293
100
AcDbEntity
  8
0
100
AcDbSpline
 62
7
  6
BYLAYER
 70
0
 71
3
 72
17
 73
13
 74
0
 42
0.0000001
 43
0.0000001
 44
0.0000000001
 40
0.0
 40
0.0
 40
0.0
 40
0.0
 40
0.0194268737
 40
0.0385384045
 40
0.061319565
 40
0.0906992286
 40
0.1747742702
 40
0.2937915141
 40
0.4449784444
 40
0.6198676874
 40
0.8079368729
 40
1.0
 40
1.0
 40
1.0
 40
1.0
 10
10.1375959883
 20
65.5953711983
 30
0.0
 10
10.1388701355
 20
65.5950297916
 30
0.0
 10
10.1415821555
 20
65.59478072
 30
0.0
 10
10.145529334
 20
65.5965501025
 30
0.0
 10
10.1487638677
 20
65.6002839478
 30
0.0
 10
10.1527901123
 20
65.6086732395
 30
0.0
 10
10.1558378494
 20
65.6243426661
 30
0.0
 10
10.1570980468
 20
65.6483736942
 30
0.0
 10
10.1554403349
 20
65.6786054687
 30
0.0
 10
10.1514763096
 20
65.7132936283
 30
0.0
 10
10.1456618853
 20
65.7505411207
 30
0.0
 10
10.1405358657
 20
65.7758508725
 30
0.0
 10
10.1375959884
 20
65.7885563636
 30
0.0
  0
SPLINE
  5
294
100
AcDbEntity
  8
0
100
AcDbSpline
 62
7
  6
BYLAYER
 70
0
 71
3
 72
12
 73
8
 74
0
 42
0.0000001
 43
0.0000001
 44
0.0000000001
 40
0.0
 40
0.0
 40
0.0
 40
0.0
 40
0.1217693436
 40
0.2139418719
 40
0.3300370946
 40
0.6296875936
 40
1.0
 40
1.0
 40
1.0
 40
1.0
 10
9.4340683701
 20
65.7838808554
 30
0.0
 10
9.4283885961
 20
65.7854027463
 30
0.0
 10
9.4215097843
 20
65.7953832241
 30
0.0
 10
9.4174813794
 20
65.8104326772
 30
0.0
 10
9.4142568171
 20
65.8349770697
 30
0.0
 10
9.4153611874
 20
65.8729841598
 30
0.0
 10
9.4195387853
 20
65.9051245775
 30
0.0
 10
9.422567612
 20
65.9227482637
 30
0.0
  0
ENDSEC
  0
SECTION
  2
OBJECTS
  0
DICTIONARY
  5
C
100
AcDbDictionary
280
0
281
1
  3
ACAD_GROUP
350
D
  3
ACAD_MLINESTYLE
350
17
  3
ACAD_LAYOUT
350
1A
  3
ACAD_PLOTSETTINGS
350
19
  3
ACAD_PLOTSTYLENAME
350
E
  0
DICTIONARY
  5
D
102
{ACAD_REACTORS
330
C
102
}
100
AcDbDictionary
280
0
281
1
  0
ACDBDICTIONARYWDFLT
  5
E
102
{ACAD_REACTORS
330
C
102
}
100
AcDbDictionary
281
1
  3
Normal
350
F
100
AcDbDictionaryWithDefault
340
F
  0
DICTIONARY
  5
17
102
{ACAD_REACTORS
330
C
102
}
100
AcDbDictionary
280
0
281
1
  3
Standard
350
18
  0
DICTIONARY
  5
19
102
{ACAD_REACTORS
330
C
102
}
100
AcDbDictionary
281
1
  0
DICTIONARY
  5
1A
102
{ACAD_REACTORS
330
C
102
}
100
AcDbDictionary
281
1
  3
Model
350
295
  3
Layout1
350
296
  0
ACDBPLACEHOLDER
  5
F
102
{ACAD_REACTORS
330
E
102
}
  0
MLINESTYLE
  5
18
102
{ACAD_REACTORS
330
17
102
}
100
AcDbMlineStyle
  2
STANDARD
 70
0
  3

 62
256
 51
90.0
 52
90.0
 71
2
 49
0.5
 62
256
  6
BYLAYER
 49
-0.5
 62
256
  6
BYLAYER
  0
LAYOUT
  5
295
102
{ACAD_REACTORS
330
1A
102
}
100
AcDbPlotSettings
  1

  2
none_device
  4

  6

 40
0.0
 41
0.0
 42
0.0
 43
0.0
 44
210.0
 45
297.0
 46
0.0
 47
0.0
 48
0.0
 49
0.0
140
0.0
141
0.0
142
1.0
143
1.0
 70
1024
 72
1
 73
0
 74
0
  7

 75
0
147
1.0
148
0.0
149
0.0
100
AcDbLayout
  1
Model
 70
0
 71
0
 10
0.0
 20
0.0
 11
210.0
 21
297.0
 12
0.0
 22
0.0
 32
0.0
 14
0.0
 24
0.0
 34
0.0
 15
0.0
 25
0.0
 35
0.0
146
0.0
 13
0.0
 23
0.0
 33
0.0
 16
1.0
 26
0.0
 36
0.0
 17
0.0
 27
1.0
 37
0.0
 76
0
330
210
345
0
346
0
  0
LAYOUT
  5
296
102
{ACAD_REACTORS
330
1A
102
}
100
AcDbPlotSettings
  1

  2
none_device
  4

  6

 40
0.0
 41
0.0
 42
0.0
 43
0.0
 44
210.0
 45
297.0
 46
0.0
 47
0.0
 48
0.0
 49
0.0
140
0.0
141
0.0
142
1.0
143
1.0
 70
0
 72
1
 73
0
 74
0
  7

 75
0
147
1.0
148
0.0
149
0.0
100
AcDbLayout
  1
Layout1
 70
0
 71
1
 10
0.0
 20
0.0
 11
210.0
 21
297.0
 12
0.0
 22
0.0
 32
0.0
 14
0.0
 24
0.0
 34
0.0
 15
0.0
 25
0.0
 35
0.0
146
0.0
 13
0.0
 23
0.0
 33
0.0
 16
1.0
 26
0.0
 36
0.0
 17
0.0
 27
1.0
 37
0.0
 76
0
330
211
345
0
346
0
  0
ENDSEC
  0
EOF
